  0
SECTION
  2
HEADER
  9
$ACADVER
  1
AC1032
  9
$ACADMAINTVER
 90
       55
  9
$DWGCODEPAGE
  3
ANSI_1252
  9
$LASTSAVEDBY
  1
villesi
  9
$REQUIREDVERSIONS
160
                 0
  9
$INSBASE
 10
0.0
 20
0.0
 30
0.0
  9
$EXTMIN
 10
0.0
 20
0.0
 30
0.0
  9
$EXTMAX
 10
700.0
 20
600.0
 30
0.0
  9
$LIMMIN
 10
0.0
 20
0.0
  9
$LIMMAX
 10
700.0
 20
600.0
  9
$ORTHOMODE
 70
     0
  9
$REGENMODE
 70
     1
  9
$FILLMODE
 70
     1
  9
$QTEXTMODE
 70
     0
  9
$MIRRTEXT
 70
     1
  9
$LTSCALE
 40
1.0
  9
$ATTMODE
 70
     1
  9
$TEXTSIZE
 40
5.0
  9
$TRACEWID
 40
1.0
  9
$TEXTSTYLE
  7
Standard
  9
$CLAYER
  8
0
  9
$CELTYPE
  6
ByLayer
  9
$CECOLOR
 62
   256
  9
$CELTSCALE
 40
1.0
  9
$DISPSILH
 70
     0
  9
$DIMSCALE
 40
1.0
  9
$DIMASZ
 40
6.0
  9
$DIMEXO
 40
1.0
  9
$DIMDLI
 40
3.75
  9
$DIMRND
 40
0.0
  9
$DIMDLE
 40
0.0
  9
$DIMEXE
 40
1.0
  9
$DIMTP
 40
0.0
  9
$DIMTM
 40
0.0
  9
$DIMTXT
 40
5.0
  9
$DIMCEN
 40
2.5
  9
$DIMTSZ
 40
0.0
  9
$DIMTOL
 70
     0
  9
$DIMLIM
 70
     0
  9
$DIMTIH
 70
     1
  9
$DIMTOH
 70
     1
  9
$DIMSE1
 70
     0
  9
$DIMSE2
 70
     0
  9
$DIMTAD
 70
     1
  9
$DIMZIN
 70
     0
  9
$DIMBLK
  1

  9
$DIMASO
 70
     1
  9
$DIMSHO
 70
     1
  9
$DIMPOST
  1

  9
$DIMAPOST
  1

  9
$DIMALT
 70
     0
  9
$DIMALTD
 70
     3
  9
$DIMALTF
 40
0.0393700787
  9
$DIMLFAC
 40
1.0
  9
$DIMTOFL
 70
     1
  9
$DIMTVP
 40
0.0
  9
$DIMTIX
 70
     0
  9
$DIMSOXD
 70
     0
  9
$DIMSAH
 70
     0
  9
$DIMBLK1
  1

  9
$DIMBLK2
  1

  9
$DIMSTYLE
  2
ISO-25
  9
$DIMCLRD
 70
     0
  9
$DIMCLRE
 70
     0
  9
$DIMCLRT
 70
     0
  9
$DIMTFAC
 40
1.0
  9
$DIMGAP
 40
1.524
  9
$DIMJUST
 70
     0
  9
$DIMSD1
 70
     0
  9
$DIMSD2
 70
     0
  9
$DIMTOLJ
 70
     0
  9
$DIMTZIN
 70
     0
  9
$DIMALTZ
 70
     0
  9
$DIMALTTZ
 70
     0
  9
$DIMUPT
 70
     0
  9
$DIMDEC
 70
     2
  9
$DIMTDEC
 70
     2
  9
$DIMALTU
 70
     2
  9
$DIMALTTD
 70
     3
  9
$DIMTXSTY
  7
Standard
  9
$DIMAUNIT
 70
     0
  9
$DIMADEC
 70
     2
  9
$DIMALTRND
 40
0.0
  9
$DIMAZIN
 70
     0
  9
$DIMDSEP
 70
    44
  9
$DIMATFIT
 70
     3
  9
$DIMFRAC
 70
     0
  9
$DIMLDRBLK
  1

  9
$DIMLUNIT
 70
     2
  9
$DIMLWD
 70
    -2
  9
$DIMLWE
 70
    -2
  9
$DIMTMOVE
 70
     0
  9
$DIMFXL
 40
1.0
  9
$DIMFXLON
 70
     0
  9
$DIMJOGANG
 40
0.7853981634
  9
$DIMTFILL
 70
     0
  9
$DIMTFILLCLR
 70
     0
  9
$DIMARCSYM
 70
     0
  9
$DIMLTYPE
  6

  9
$DIMLTEX1
  6

  9
$DIMLTEX2
  6

  9
$DIMTXTDIRECTION
 70
     0
  9
$LUNITS
 70
     2
  9
$LUPREC
 70
     2
  9
$SKETCHINC
 40
1.0
  9
$FILLETRAD
 40
10.0
  9
$AUNITS
 70
     0
  9
$AUPREC
 70
     2
  9
$MENU
  1
.
  9
$ELEVATION
 40
0.0
  9
$PELEVATION
 40
0.0
  9
$THICKNESS
 40
0.0
  9
$LIMCHECK
 70
     0
  9
$CHAMFERA
 40
0.0
  9
$CHAMFERB
 40
0.0
  9
$CHAMFERC
 40
0.0
  9
$CHAMFERD
 40
0.0
  9
$SKPOLY
 70
     0
  9
$TDCREATE
 40
2459942.311405938
  9
$TDUCREATE
 40
2459942.228072604
  9
$TDUPDATE
 40
2459942.311406493
  9
$TDUUPDATE
 40
2459942.22807316
  9
$TDINDWG
 40
0.0000000116
  9
$TDUSRTIMER
 40
0.0000000116
  9
$USRTIMER
 70
     1
  9
$ANGBASE
 50
0.0
  9
$ANGDIR
 70
     0
  9
$PDMODE
 70
     0
  9
$PDSIZE
 40
-1.0
  9
$PLINEWID
 40
0.0
  9
$SPLFRAME
 70
     0
  9
$SPLINETYPE
 70
     6
  9
$SPLINESEGS
 70
     8
  9
$HANDSEED
  5
FD
  9
$SURFTAB1
 70
     6
  9
$SURFTAB2
 70
     6
  9
$SURFTYPE
 70
     6
  9
$SURFU
 70
     6
  9
$SURFV
 70
     6
  9
$UCSBASE
  2

  9
$UCSNAME
  2

  9
$UCSORG
 10
0.0
 20
0.0
 30
0.0
  9
$UCSXDIR
 10
1.0
 20
0.0
 30
0.0
  9
$UCSYDIR
 10
0.0
 20
1.0
 30
0.0
  9
$UCSORTHOREF
  2

  9
$UCSORTHOVIEW
 70
     0
  9
$UCSORGTOP
 10
0.0
 20
0.0
 30
0.0
  9
$UCSORGBOTTOM
 10
0.0
 20
0.0
 30
0.0
  9
$UCSORGLEFT
 10
0.0
 20
0.0
 30
0.0
  9
$UCSORGRIGHT
 10
0.0
 20
0.0
 30
0.0
  9
$UCSORGFRONT
 10
0.0
 20
0.0
 30
0.0
  9
$UCSORGBACK
 10
0.0
 20
0.0
 30
0.0
  9
$PUCSBASE
  2

  9
$PUCSNAME
  2

  9
$PUCSORG
 10
0.0
 20
0.0
 30
0.0
  9
$PUCSXDIR
 10
1.0
 20
0.0
 30
0.0
  9
$PUCSYDIR
 10
0.0
 20
1.0
 30
0.0
  9
$PUCSORTHOREF
  2

  9
$PUCSORTHOVIEW
 70
     0
  9
$PUCSORGTOP
 10
0.0
 20
0.0
 30
0.0
  9
$PUCSORGBOTTOM
 10
0.0
 20
0.0
 30
0.0
  9
$PUCSORGLEFT
 10
0.0
 20
0.0
 30
0.0
  9
$PUCSORGRIGHT
 10
0.0
 20
0.0
 30
0.0
  9
$PUCSORGFRONT
 10
0.0
 20
0.0
 30
0.0
  9
$PUCSORGBACK
 10
0.0
 20
0.0
 30
0.0
  9
$USERI1
 70
     0
  9
$USERI2
 70
     0
  9
$USERI3
 70
     0
  9
$USERI4
 70
     0
  9
$USERI5
 70
     0
  9
$USERR1
 40
0.0
  9
$USERR2
 40
0.0
  9
$USERR3
 40
0.0
  9
$USERR4
 40
0.0
  9
$USERR5
 40
0.0
  9
$WORLDVIEW
 70
     1
  9
$SHADEDGE
 70
     3
  9
$SHADEDIF
 70
    70
  9
$TILEMODE
 70
     1
  9
$MAXACTVP
 70
    64
  9
$PINSBASE
 10
0.0
 20
0.0
 30
0.0
  9
$PLIMCHECK
 70
     0
  9
$PEXTMIN
 10
1.0000000000E+20
 20
1.0000000000E+20
 30
1.0000000000E+20
  9
$PEXTMAX
 10
-1.0000000000E+20
 20
-1.0000000000E+20
 30
-1.0000000000E+20
  9
$PLIMMIN
 10
0.0
 20
0.0
  9
$PLIMMAX
 10
420.0
 20
297.0
  9
$UNITMODE
 70
     0
  9
$VISRETAIN
 70
     1
  9
$PLINEGEN
 70
     0
  9
$PSLTSCALE
 70
     1
  9
$TREEDEPTH
 70
  3020
  9
$CMLSTYLE
  2
Standard
  9
$CMLJUST
 70
     0
  9
$CMLSCALE
 40
20.0
  9
$PROXYGRAPHICS
 70
     1
  9
$MEASUREMENT
 70
     1
  9
$CELWEIGHT
370
    -1
  9
$ENDCAPS
280
     0
  9
$JOINSTYLE
280
     0
  9
$LWDISPLAY
290
     1
  9
$INSUNITS
 70
     4
  9
$HYPERLINKBASE
  1

  9
$STYLESHEET
  1

  9
$XEDIT
290
     1
  9
$CEPSNTYPE
380
     0
  9
$PSTYLEMODE
290
     1
  9
$FINGERPRINTGUID
  2
{8659a589-a5f2-43a6-af6d-c8884e9f3985}
  9
$VERSIONGUID
  2
{FAEB1C32-E019-11D5-929B-00C0DF256EC4}
  9
$EXTNAMES
290
     1
  9
$PSVPSCALE
 40
0.0
  9
$OLESTARTUP
290
     0
  9
$SORTENTS
280
   127
  9
$INDEXCTL
280
     0
  9
$HIDETEXT
280
     1
  9
$XCLIPFRAME
280
     2
  9
$HALOGAP
280
     0
  9
$OBSCOLOR
 70
   257
  9
$OBSLTYPE
280
     0
  9
$INTERSECTIONDISPLAY
280
     0
  9
$INTERSECTIONCOLOR
 70
   257
  9
$DIMASSOC
280
     2
  9
$PROJECTNAME
  1

  9
$CAMERADISPLAY
290
     0
  9
$LENSLENGTH
 40
50.0
  9
$CAMERAHEIGHT
 40
0.0
  9
$STEPSPERSEC
 40
2.0
  9
$STEPSIZE
 40
6.0
  9
$3DDWFPREC
 40
2.0
  9
$PSOLWIDTH
 40
5.0
  9
$PSOLHEIGHT
 40
80.0
  9
$LOFTANG1
 40
1.5707963268
  9
$LOFTANG2
 40
1.5707963268
  9
$LOFTMAG1
 40
0.0
  9
$LOFTMAG2
 40
0.0
  9
$LOFTPARAM
 70
     7
  9
$LOFTNORMALS
280
     1
  9
$LATITUDE
 40
37.795
  9
$LONGITUDE
 40
-122.394
  9
$NORTHDIRECTION
 40
0.0
  9
$TIMEZONE
 70
 -8000
  9
$LIGHTGLYPHDISPLAY
280
     1
  9
$TILEMODELIGHTSYNCH
280
     1
  9
$CMATERIAL
347
44
  9
$SOLIDHIST
280
     0
  9
$SHOWHIST
280
     1
  9
$DWFFRAME
280
     2
  9
$DGNFRAME
280
     2
  9
$REALWORLDSCALE
290
     1
  9
$INTERFERECOLOR
 62
   256
  9
$CSHADOW
280
     0
  9
$SHADOWPLANELOCATION
 40
0.0
  0
ENDSEC
  0
SECTION
  2
CLASSES
  0
CLASS
  1
ACDBDICTIONARYWDFLT
  2
AcDbDictionaryWithDefault
  3
ObjectDBX Classes
 90
        0
 91
        3
280
     0
281
     0
  0
CLASS
  1
VISUALSTYLE
  2
AcDbVisualStyle
  3
ObjectDBX Classes
 90
     4095
 91
        3
280
     0
281
     0
  0
CLASS
  1
MATERIAL
  2
AcDbMaterial
  3
ObjectDBX Classes
 90
     1153
 91
        3
280
     0
281
     0
  0
CLASS
  1
SCALE
  2
AcDbScale
  3
ObjectDBX Classes
 90
     1153
 91
        3
280
     0
281
     0
  0
CLASS
  1
TABLESTYLE
  2
AcDbTableStyle
  3
ObjectDBX Classes
 90
     4095
 91
        3
280
     0
281
     0
  0
CLASS
  1
MLEADERSTYLE
  2
AcDbMLeaderStyle
  3
ACDB_MLEADERSTYLE_CLASS
 90
     4095
 91
        3
280
     0
281
     0
  0
CLASS
  1
SUN
  2
AcDbSun
  3
SCENEOE
 90
     1153
 91
        3
280
     0
281
     0
  0
CLASS
  1
DICTIONARYVAR
  2
AcDbDictionaryVar
  3
ObjectDBX Classes
 90
        0
 91
        3
280
     0
281
     0
  0
CLASS
  1
CELLSTYLEMAP
  2
AcDbCellStyleMap
  3
ObjectDBX Classes
 90
     1152
 91
        3
280
     0
281
     0
  0
ENDSEC
  0
SECTION
  2
TABLES
  0
TABLE
  2
VPORT
  5
8
330
0
100
AcDbSymbolTable
 70
     1
  0
VPORT
  5
29
330
8
100
AcDbSymbolTableRecord
100
AcDbViewportTableRecord
  2
*Active
 70
     0
 10
0.0
 20
0.0
 11
1.0
 21
1.0
 12
350.0
 22
300.0
 13
0.0
 23
0.0
 14
10.0
 24
10.0
 15
10.0
 25
10.0
 16
0.0
 26
0.0
 36
1.0
 17
0.0
 27
0.0
 37
0.0
 40
600.0
 41
1.1666666667
 42
50.0
 43
0.0
 44
0.0
 50
0.0
 51
0.0
 71
     0
 72
  2000
 73
     1
 74
     3
 75
     0
 76
     0
 77
     0
 78
     0
281
     0
 65
     1
110
0.0
120
0.0
130
0.0
111
1.0
121
0.0
131
0.0
112
0.0
122
1.0
132
0.0
 79
     0
146
0.0
348
2F
 60
     3
 61
     5
292
     1
282
     1
141
0.0
142
0.0
 63
   250
361
6D
  0
ENDTAB
  0
TABLE
  2
LTYPE
  5
5
330
0
100
AcDbSymbolTable
 70
     6
  0
LTYPE
  5
14
330
5
100
AcDbSymbolTableRecord
100
AcDbLinetypeTableRecord
  2
ByBlock
 70
     0
  3

 72
    65
 73
     0
 40
0.0
  0
LTYPE
  5
15
330
5
100
AcDbSymbolTableRecord
100
AcDbLinetypeTableRecord
  2
ByLayer
 70
     0
  3

 72
    65
 73
     0
 40
0.0
  0
LTYPE
  5
16
330
5
100
AcDbSymbolTableRecord
100
AcDbLinetypeTableRecord
  2
Continuous
 70
     0
  3
Solid line
 72
    65
 73
     0
 40
0.0
  0
LTYPE
  5
6E
330
5
100
AcDbSymbolTableRecord
100
AcDbLinetypeTableRecord
  2
HIDDEN
 70
     0
  3
Hidden __ __ __ __ __ __ __ __ __ __ __ __ __ __
 72
    65
 73
     2
 40
1.905
 49
1.27
 74
     0
 49
-0.635
 74
     0
  0
LTYPE
  5
6F
330
5
100
AcDbSymbolTableRecord
100
AcDbLinetypeTableRecord
  2
PHANTOM
 70
     0
  3
Phantom ______  __  __  ______  __  __  ______
 72
    65
 73
     6
 40
12.7
 49
6.35
 74
     0
 49
-1.27
 74
     0
 49
1.27
 74
     0
 49
-1.27
 74
     0
 49
1.27
 74
     0
 49
-1.27
 74
     0
  0
LTYPE
  5
70
330
5
100
AcDbSymbolTableRecord
100
AcDbLinetypeTableRecord
  2
CENTER
 70
     0
  3
Center ____ _ ____ _ ____ _ ____ _ ____ _ ____
 72
    65
 73
     4
 40
10.16
 49
6.35
 74
     0
 49
-1.27
 74
     0
 49
1.27
 74
     0
 49
-1.27
 74
     0
  0
LTYPE
  5
71
330
5
100
AcDbSymbolTableRecord
100
AcDbLinetypeTableRecord
  2
CENTERX2
 70
     0
  3
Center (2x) ________  __  ________  __  _____
 72
    65
 73
     4
 40
20.32
 49
12.7
 74
     0
 49
-2.54
 74
     0
 49
2.54
 74
     0
 49
-2.54
 74
     0
  0
LTYPE
  5
72
330
5
100
AcDbSymbolTableRecord
100
AcDbLinetypeTableRecord
  2
DOT2
 70
     0
  3
Dot (.5x) ........................................
 72
    65
 73
     2
 40
0.635
 49
0.0
 74
     0
 49
-0.635
 74
     0
  0
ENDTAB
  0
TABLE
  2
LAYER
  5
2
330
0
100
AcDbSymbolTable
 70
     2
  0
LAYER
  5
10
330
2
100
AcDbSymbolTableRecord
100
AcDbLayerTableRecord
  2
0
 70
     0
 62
     7
  6
Continuous
370
    -3
390
F
347
46
348
0
  0
LAYER
  5
73
330
2
100
AcDbSymbolTableRecord
100
AcDbLayerTableRecord
  2
TABLE_BL1
 70
     0
 62
   179
  6
Continuous
370
    -3
390
F
347
46
348
0
  0
ENDTAB
  0
TABLE
  2
STYLE
  5
3
330
0
100
AcDbSymbolTable
 70
     1
  0
STYLE
  5
11
330
3
100
AcDbSymbolTableRecord
100
AcDbTextStyleTableRecord
  2
Standard
 70
     0
 40
0.0
 41
1.0
 50
0.0
 71
     0
 42
5.0
  3
txt
  4

  0
ENDTAB
  0
TABLE
  2
VIEW
  5
6
330
0
100
AcDbSymbolTable
 70
     0
  0
ENDTAB
  0
TABLE
  2
UCS
  5
7
330
0
100
AcDbSymbolTable
 70
     0
  0
ENDTAB
  0
TABLE
  2
APPID
  5
9
330
0
100
AcDbSymbolTable
 70
     1
  0
APPID
  5
12
330
9
100
AcDbSymbolTableRecord
100
AcDbRegAppTableRecord
  2
ACAD
 70
     0
  0
ENDTAB
  0
TABLE
  2
DIMSTYLE
  5
A
330
0
100
AcDbSymbolTable
 70
     1
100
AcDbDimStyleTable
  0
DIMSTYLE
105
27
330
A
100
AcDbSymbolTableRecord
100
AcDbDimStyleTableRecord
  2
ISO-25
 70
     0
 41
2.5
 42
0.625
 43
3.75
 44
1.25
 73
     0
 74
     0
 77
     1
 78
     8
140
2.5
141
2.5
143
0.0393700787
147
0.625
171
     3
172
     1
178
     0
271
     2
272
     2
274
     3
278
    44
283
     0
284
     8
340
11
  0
ENDTAB
  0
TABLE
  2
BLOCK_RECORD
  5
1
330
0
100
AcDbSymbolTable
 70
     1
  0
BLOCK_RECORD
  5
1F
330
1
100
AcDbSymbolTableRecord
100
AcDbBlockTableRecord
  2
*Model_Space
340
22
 70
     0
280
     1
281
     0
  0
BLOCK_RECORD
  5
1B
330
1
100
AcDbSymbolTableRecord
100
AcDbBlockTableRecord
  2
*Paper_Space
340
1E
 70
     0
280
     1
281
     0
  0
BLOCK_RECORD
  5
23
330
1
100
AcDbSymbolTableRecord
100
AcDbBlockTableRecord
  2
*Paper_Space0
340
26
 70
     0
280
     1
281
     0
  0
ENDTAB
  0
ENDSEC
  0
SECTION
  2
BLOCKS
  0
BLOCK
  5
20
330
1F
100
AcDbEntity
  8
0
100
AcDbBlockBegin
  2
*Model_Space
 70
     0
 10
0.0
 20
0.0
 30
0.0
  3
*Model_Space
  1

  0
ENDBLK
  5
21
330
1F
100
AcDbEntity
  8
0
100
AcDbBlockEnd
  0
BLOCK
  5
1C
330
1B
100
AcDbEntity
 67
     1
  8
0
100
AcDbBlockBegin
  2
*Paper_Space
 70
     0
 10
0.0
 20
0.0
 30
0.0
  3
*Paper_Space
  1

  0
ENDBLK
  5
1D
330
1B
100
AcDbEntity
 67
     1
  8
0
100
AcDbBlockEnd
  0
BLOCK
  5
24
330
23
100
AcDbEntity
  8
0
100
AcDbBlockBegin
  2
*Paper_Space0
 70
     0
 10
0.0
 20
0.0
 30
0.0
  3
*Paper_Space0
  1

  0
ENDBLK
  5
25
330
23
100
AcDbEntity
  8
0
100
AcDbBlockEnd
  0
ENDSEC
  0
SECTION
  2
ENTITIES
  0
LINE
  5
74
330
1F
100
AcDbEntity
  8
0
  6
Continuous
 62
     7
370
    25
100
AcDbLine
 10
571.9421361646
 20
490.4794534653
 30
0.0
 11
587.8820341107
 21
506.4193513758
 31
0.0
  0
SPLINE
  5
75
330
1F
100
AcDbEntity
  8
0
  6
Continuous
 62
     7
370
    25
100
AcDbSpline
210
0.0
220
0.0
230
1.0
 70
     8
 71
     3
 72
    27
 73
    23
 74
     0
 42
0.00000001
 43
0.00000001
 40
0.0
 40
0.0
 40
0.0
 40
0.0
 40
0.0379429266026234
 40
0.0759628773568355
 40
0.1140604624489276
 40
0.1522362883422756
 40
0.1904909577788668
 40
0.2288250697813384
 40
0.267239219655644
 40
0.305733998994182
 40
0.3443099956795538
 40
0.3829677938887731
 40
0.421707974098051
 40
0.4605311130880368
 40
0.4994377839495925
 40
0.5681989971934731
 40
0.6378714242376015
 40
0.7084579808488238
 40
0.7799614705511079
 40
0.8523845899702751
 40
0.9257299338847608
 40
1.0
 40
1.0
 40
1.0
 40
1.0
 10
596.3436335612374
 20
502.9266143311053
 30
0.0
 10
596.2588945570542
 20
503.0098991587491
 30
0.0
 10
596.0892445284856
 20
503.1766378822602
 30
0.0
 10
595.8251349767537
 20
503.417171676783
 30
0.0
 10
595.5538942716418
 20
503.6506924003449
 30
0.0
 10
595.2750312814153
 20
503.8762532847152
 30
0.0
 10
594.988940018618
 20
504.0937884781054
 30
0.0
 10
594.695787823844
 20
504.3030016433887
 30
0.0
 10
594.3958140773462
 20
504.5036650724692
 30
0.0
 10
594.0892497514068
 20
504.6955396979627
 30
0.0
 10
593.7763389751613
 20
504.8783969661595
 30
0.0
 10
593.4573327301068
 20
505.052013452667
 30
0.0
 10
593.132491653819
 20
505.2161723431291
 30
0.0
 10
592.8020802724892
 20
505.3706647866871
 30
0.0
 10
592.3807652061427
 20
505.5521712454711
 30
0.0
 10
591.8616761493222
 20
505.7501763704947
 30
0.0
 10
591.2380953435752
 20
505.9499419815517
 30
0.0
 10
590.5961412802236
 20
506.1172142490651
 30
0.0
 10
589.9374179588881
 20
506.2503949854389
 30
0.0
 10
589.263688163864
 20
506.3467589878925
 30
0.0
 10
588.5768867561982
 20
506.4081812749255
 30
0.0
 10
588.1146170190798
 20
506.4156124913407
 30
0.0
 10
587.8820342288957
 20
506.41935137561
 30
0.0
  0
SPLINE
  5
76
330
1F
100
AcDbEntity
  8
0
  6
Continuous
 62
     7
370
    25
100
AcDbSpline
210
0.0
220
0.0
230
1.0
 70
     8
 71
     3
 72
    28
 73
    24
 74
     0
 42
0.00000001
 43
0.00000001
 40
0.0
 40
0.0
 40
0.0
 40
0.0
 40
0.0372538733938487
 40
0.0742763090211845
 40
0.1110676111041248
 40
0.1476280896412564
 40
0.1839580605465545
 40
0.2200578457922422
 40
0.255927773555705
 40
0.2915681783705507
 40
0.3269794012820453
 40
0.3621617900068804
 40
0.3971156990976675
 40
0.43184149011203
 40
0.4663395317866303
 40
0.50061020021624
 40
0.5727906423649527
 40
0.6446851616367514
 40
0.7162974593234042
 40
0.7876312806587364
 40
0.858690414919809
 40
0.9294786955067154
 40
1.0
 40
1.0
 40
1.0
 40
1.0
 10
599.8363706057421
 20
494.4650149987636
 30
0.0
 10
599.835466322595
 20
494.5816658392565
 30
0.0
 10
599.833663374113
 20
494.8142428329137
 30
0.0
 10
599.8181888004126
 20
495.1617382720262
 30
0.0
 10
599.7935876609705
 20
495.5064938449513
 30
0.0
 10
599.7591461935181
 20
495.8482413624714
 30
0.0
 10
599.7153127055619
 20
496.186722548407
 30
0.0
 10
599.6622340934697
 20
496.521690069288
 30
0.0
 10
599.600143693953
 20
496.8529072749459
 30
0.0
 10
599.5292577515125
 20
497.1801482502185
 30
0.0
 10
599.4498023046053
 20
497.5031977937425
 30
0.0
 10
599.3620055302481
 20
497.82185127977
 30
0.0
 10
599.2660990502479
 20
498.1359149587645
 30
0.0
 10
599.1623176826358
 20
498.4452045430198
 30
0.0
 10
599.0508966287147
 20
498.749550067731
 30
0.0
 10
598.8880072579401
 20
499.1597715664875
 30
0.0
 10
598.6602314812602
 20
499.6699976785259
 30
0.0
 10
598.3502434425931
 20
500.2704079416358
 30
0.0
 10
598.0081180803751
 20
500.8500230025363
 30
0.0
 10
597.6354700799455
 20
501.4073990781456
 30
0.0
 10
597.233160350678
 20
501.940391128614
 30
0.0
 10
596.8051578358941
 20
502.4499931502913
 30
0.0
 10
596.4972810956912
 20
502.767940836943
 30
0.0
 10
596.3436335612374
 20
502.9266143311053
 30
0.0
  0
LINE
  5
77
330
1F
100
AcDbEntity
  8
0
  6
Continuous
 62
     7
370
    25
100
AcDbLine
 10
599.8363706059
 20
494.4650149053
 30
0.0
 11
583.8964726973
 21
478.5251171905
 31
0.0
  0
SPLINE
  5
78
330
1F
100
AcDbEntity
  8
0
  6
Continuous
 62
     7
370
    25
100
AcDbSpline
210
0.0
220
0.0
230
1.0
 70
     8
 71
     3
 72
    31
 73
    27
 74
     0
 42
0.00000001
 43
0.00000001
 40
0.0
 40
0.0
 40
0.0
 40
0.0
 40
0.0184561654538275
 40
0.0368205661667825
 40
0.0550936305007179
 40
0.0732758050915388
 40
0.091367553898579
 40
0.1093693572682069
 40
0.1272817110117462
 40
0.1451051254977566
 40
0.162840124758704
 40
0.1804872456120945
 40
0.1980470367960963
 40
0.2155200581196963
 40
0.232906879627465
 40
0.2502080807789411
 40
0.3755001463004714
 40
0.5000270571612494
 40
0.6236571062604893
 40
0.7498459191274843
 40
0.811679867851206
 40
0.874904331454111
 40
0.9054036236169422
 40
0.9364181543211212
 40
0.9679497418877416
 40
1.0
 40
1.0
 40
1.0
 40
1.0
 10
583.8963445126607
 20
478.5406630903705
 30
0.0
 10
583.8943696215307
 20
478.6554379231019
 30
0.0
 10
583.890429658503
 20
478.8844169238289
 30
0.0
 10
583.8720543253266
 20
479.2267339275797
 30
0.0
 10
583.8447486310477
 20
479.5667772708697
 30
0.0
 10
583.8077850151889
 20
479.9042878060496
 30
0.0
 10
583.7615726323999
 20
480.2390168344091
 30
0.0
 10
583.7062247878077
 20
480.5707244990656
 30
0.0
 10
583.6419393989449
 20
480.8991801861916
 30
0.0
 10
583.5688973270991
 20
481.2241623289888
 30
0.0
 10
583.487288830533
 20
481.545458516989
 30
0.0
 10
583.3973063946454
 20
481.8628648997733
 30
0.0
 10
583.2991449082036
 20
482.1761880150522
 30
0.0
 10
583.1930058751192
 20
482.4852376155233
 30
0.0
 10
583.0790784434015
 20
482.7898527801441
 30
0.0
 10
582.7046817221312
 20
483.7143702399197
 30
0.0
 10
581.9066079957983
 20
485.1912537711734
 30
0.0
 10
580.4145097532843
 20
487.000627805628
 30
0.0
 10
578.5998875576752
 20
488.4952161517056
 30
0.0
 10
576.8767153874347
 20
489.4250510576954
 30
0.0
 10
575.4030733298645
 20
489.9610889552907
 30
0.0
 10
574.4627570316799
 20
490.2028608589692
 30
0.0
 10
573.6982056395825
 20
490.3411646554463
 30
0.0
 10
573.1237565699796
 20
490.4163699605537
 30
0.0
 10
572.5369004229302
 20
490.4663567295435
 30
0.0
 10
572.1414662775983
 20
490.4750642194149
 30
0.0
 10
571.9421363228139
 20
490.4794534801372
 30
0.0
  0
SPLINE
  5
79
330
1F
100
AcDbEntity
  8
0
  6
Continuous
 62
     7
370
    25
100
AcDbSpline
210
0.0
220
0.0
230
1.0
 70
     8
 71
     3
 72
    27
 73
    23
 74
     0
 42
0.00000001
 43
0.00000001
 40
0.0
 40
0.0
 40
0.0
 40
0.0
 40
0.0379432832785439
 40
0.0759635312493241
 40
0.1140613540969554
 40
0.1522373582860543
 40
0.1904921465626469
 40
0.2288263179562265
 40
0.267240467782315
 40
0.3057351876455861
 40
0.3443110654435604
 40
0.382968685370772
 40
0.4217086279235057
 40
0.4605314699049909
 40
0.4994377844311286
 40
0.5681996842236928
 40
0.6378725690746528
 40
0.7084593546417448
 40
0.7799628443723001
 40
0.8523857348449895
 40
0.9257306208178292
 40
1.0
 40
1.0
 40
1.0
 40
1.0
 10
103.488834700628
 20
502.9266143238932
 30
0.0
 10
103.4055490965573
 20
502.8418745165537
 30
0.0
 10
103.2388089507192
 20
502.6722230144518
 30
0.0
 10
102.9982733809436
 20
502.4081113006687
 30
0.0
 10
102.764751359604
 20
502.1368687648374
 30
0.0
 10
102.5391896319485
 20
501.8580043014407
 30
0.0
 10
102.3216540116413
 20
501.5719119601669
 30
0.0
 10
102.1124407984889
 20
501.2787591137139
 30
0.0
 10
101.9117776606104
 20
500.9787851728359
 30
0.0
 10
101.7199036236215
 20
500.6722211378352
 30
0.0
 10
101.537047197651
 20
500.3593111634254
 30
0.0
 10
101.3634317617327
 20
500.0403062541367
 30
0.0
 10
101.1992740836138
 20
499.7154670678223
 30
0.0
 10
101.0447829648785
 20
499.3850581485374
 30
0.0
 10
100.8632765487414
 20
498.9637429532611
 30
0.0
 10
100.6652707012738
 20
498.4446515241294
 30
0.0
 10
100.4655042302594
 20
497.8210664728674
 30
0.0
 10
100.2982320488516
 20
497.1791101613518
 30
0.0
 10
100.1650520116772
 20
496.5203866985012
 30
0.0
 10
100.0686889627705
 20
495.8466589411532
 30
0.0
 10
100.007267560149
 20
495.1598617840279
 30
0.0
 10
99.99983647025223
 20
494.6975956334451
 30
0.0
 10
99.99609765522172
 20
494.4650149950855
 30
0.0
  0
SPLINE
  5
7A
330
1F
100
AcDbEntity
  8
0
  6
Continuous
 62
     7
370
    25
100
AcDbSpline
210
0.0
220
0.0
230
1.0
 70
     8
 71
     3
 72
    28
 73
    24
 74
     0
 42
0.00000001
 43
0.00000001
 40
0.0
 40
0.0
 40
0.0
 40
0.0
 40
0.0372542456670937
 40
0.0742769962818526
 40
0.1110685560657788
 40
0.1476292350182458
 40
0.1839593490554818
 40
0.2200592201535017
 40
0.255929176495081
 40
0.2915695526209505
 40
0.3269806895852293
 40
0.362162935115382
 40
0.397116643776733
 40
0.4318421771416827
 40
0.4663399039638464
 40
0.5006102003571848
 40
0.5727912570784846
 40
0.6446861862386755
 40
0.7162986889906308
 40
0.7876325104595253
 40
0.8586914398450665
 40
0.9294793105022842
 40
1.0
 40
1.0
 40
1.0
 40
1.0
 10
111.9504340273356
 20
506.4193513743829
 30
0.0
 10
111.8337820211769
 20
506.4184470728101
 30
0.0
 10
111.6012028755636
 20
506.4166440889261
 30
0.0
 10
111.2537044856339
 20
506.4011692373429
 30
0.0
 10
110.9089465132319
 20
506.3765677110851
 30
0.0
 10
110.567197149965
 20
506.3421257802098
 30
0.0
 10
110.228714671686
 20
506.2982918027995
 30
0.0
 10
109.8937464089172
 20
506.2452127207466
 30
0.0
 10
109.5625290063461
 20
506.1831219163875
 30
0.0
 10
109.2352883712175
 20
506.1122356786773
 30
0.0
 10
108.9122396946342
 20
506.0327800895071
 30
0.0
 10
108.5935875898531
 20
505.9449833681411
 30
0.0
 10
108.2795257917515
 20
505.8490771774584
 30
0.0
 10
107.9702385714607
 20
505.7452963749682
 30
0.0
 10
107.6658958748658
 20
505.6338762010441
 30
0.0
 10
107.2556746205215
 20
505.4709868301771
 30
0.0
 10
106.7454467013197
 20
505.2432100718289
 30
0.0
 10
106.1450332179334
 20
504.9332198670007
 30
0.0
 10
105.5654167994389
 20
504.5910930109341
 30
0.0
 10
105.0080410799003
 20
504.2184444779555
 30
0.0
 10
104.4750509150869
 20
503.8161354493269
 30
0.0
 10
103.9654521284089
 20
503.3881350859579
 30
0.0
 10
103.6475067900059
 20
503.0802605385292
 30
0.0
 10
103.488834700628
 20
502.9266143238932
 30
0.0
  0
LINE
  5
7B
330
1F
100
AcDbEntity
  8
0
  6
Continuous
 62
     7
370
    25
100
AcDbLine
 10
111.9504341491
 20
506.4193513758
 30
0.0
 11
127.8903320952
 21
490.4794534653
 31
0.0
  0
SPLINE
  5
7C
330
1F
100
AcDbEntity
  8
0
  6
Continuous
 62
     7
370
    25
100
AcDbSpline
210
0.0
220
0.0
230
1.0
 70
     8
 71
     3
 72
    27
 73
    23
 74
     0
 42
0.00000001
 43
0.00000001
 40
0.0
 40
0.0
 40
0.0
 40
0.0
 40
0.0183799916394867
 40
0.0365902598493614
 40
0.0546310808055256
 40
0.0725027542942992
 40
0.0902056025326994
 40
0.1077399690238046
 40
0.1251062174475911
 40
0.1883319586091665
 40
0.2501667297524486
 40
0.3763562635747572
 40
0.4999892906366792
 40
0.6245143144022222
 40
0.7498119653481046
 40
0.7844935877243528
 40
0.8195211800600547
 40
0.854899260314028
 40
0.8906321682970355
 40
0.9267240381493884
 40
0.9631787698838653
 40
1.0
 40
1.0
 40
1.0
 40
1.0
 10
127.8903319393068
 20
490.4794534799051
 30
0.0
 10
127.7759364555726
 20
490.4776372299823
 30
0.0
 10
127.5482018321011
 20
490.4740215016442
 30
0.0
 10
127.2084614461945
 20
490.4562976526961
 30
0.0
 10
126.8724275101956
 20
490.4299126854054
 30
0.0
 10
126.5403416636775
 20
490.3942730840778
 30
0.0
 10
126.212432999495
 20
490.349902150543
 30
0.0
 10
125.8889032582329
 20
490.2970271173081
 30
0.0
 10
125.2882302878757
 20
490.1820300014435
 30
0.0
 10
124.4265705736247
 20
489.9602307483224
 30
0.0
 10
122.9518821254305
 20
489.4233642948589
 30
0.0
 10
121.2276176624905
 20
488.49202757118
 30
0.0
 10
119.4123498144385
 20
486.995199959614
 30
0.0
 10
117.9202534500837
 20
485.183135459445
 30
0.0
 10
117.0710784910407
 20
483.6083376926195
 30
0.0
 10
116.6306688862605
 20
482.4737585059882
 30
0.0
 10
116.4267364464237
 20
481.8504174340079
 30
0.0
 10
116.2556728474612
 20
481.2107724538011
 30
0.0
 10
116.118750984078
 20
480.5563660024429
 30
0.0
 10
116.0184158085474
 20
479.8889556881795
 30
0.0
 10
115.9525714207358
 20
479.2104255469932
 30
0.0
 10
115.941539233581
 20
478.7543136758061
 30
0.0
 10
115.9359955506098
 20
478.525117091503
 30
0.0
  0
LINE
  5
7D
330
1F
100
AcDbEntity
  8
0
  6
Continuous
 62
     7
370
    25
100
AcDbLine
 10
115.9359955593
 20
478.5251171905
 30
0.0
 11
99.9960976539
 21
494.4650149053
 31
0.0
  0
SPLINE
  5
7E
330
1F
100
AcDbEntity
  8
0
  6
Continuous
 62
     7
370
    25
100
AcDbSpline
210
0.0
220
0.0
230
1.0
 70
     8
 71
     3
 72
    27
 73
    23
 74
     0
 42
0.00000001
 43
0.00000001
 40
0.0
 40
0.0
 40
0.0
 40
0.0
 40
0.0379432834453072
 40
0.0759635315674492
 40
0.1140613545508151
 40
0.152237358859777
 40
0.1904921472401402
 40
0.22882631872116
 40
0.2672404686181367
 40
0.3057351885355229
 40
0.3443110663706159
 40
0.3829686863177245
 40
0.4217086288729188
 40
0.4605314708392163
 40
0.4994377853322999
 40
0.5681996852108913
 40
0.6378725700862237
 40
0.7084593556098225
 40
0.7799628452230827
 40
0.8523857354989535
 40
0.9257306211899602
 40
1.0
 40
1.0
 40
1.0
 40
1.0
 10
596.3436335554301
 20
110.0718154720278
 30
0.0
 10
596.4269191599489
 20
110.1565552797526
 30
0.0
 10
596.5936593066493
 20
110.3262067825912
 30
0.0
 10
596.8341948776117
 20
110.5903184974881
 30
0.0
 10
597.0677169000027
 20
110.8615610343617
 30
0.0
 10
597.2932786285774
 20
111.1404254987231
 30
0.0
 10
597.5108142496797
 20
111.4265178408719
 30
0.0
 10
597.7200274635111
 20
111.7196706881004
 30
0.0
 10
597.9206906019607
 20
112.0196446296448
 30
0.0
 10
598.1125646394215
 20
112.3262086651939
 30
0.0
 10
598.2954210657784
 20
112.639118640024
 30
0.0
 10
598.4690365019916
 20
112.9581235496027
 30
0.0
 10
598.6331941803853
 20
113.2829627360482
 30
0.0
 10
598.787685299158
 20
113.6133716553786
 30
0.0
 10
598.9691917163345
 20
114.0346868506865
 30
0.0
 10
599.1671975597892
 20
114.5537782818341
 30
0.0
 10
599.3669640288151
 20
115.1773633341873
 30
0.0
 10
599.5342362079455
 20
115.8193196461488
 30
0.0
 10
599.6674162434185
 20
116.4780431084882
 30
0.0
 10
599.7637792910856
 20
117.1517708644499
 30
0.0
 10
599.8252006930227
 20
117.8385680192949
 30
0.0
 10
599.8326317830408
 20
118.3008341680818
 30
0.0
 10
599.8363705981302
 20
118.5334148054027
 30
0.0
  0
SPLINE
  5
7F
330
1F
100
AcDbEntity
  8
0
  6
Continuous
 62
     7
370
    25
100
AcDbSpline
210
0.0
220
0.0
230
1.0
 70
     8
 71
     3
 72
    28
 73
    24
 74
     0
 42
0.00000001
 43
0.00000001
 40
0.0
 40
0.0
 40
0.0
 40
0.0
 40
0.037254245820003
 40
0.0742769965850099
 40
0.1110685565158842
 40
0.1476292356113227
 40
0.1839593497868651
 40
0.220059221017845
 40
0.2559291774863257
 40
0.2915695537323075
 40
0.3269806908091892
 40
0.3621629364436864
 40
0.3971166452003527
 40
0.4318421786508159
 40
0.4663399055478928
 40
0.5006102020047435
 40
0.5727912583150835
 40
0.6446861871251705
 40
0.7162986895864956
 40
0.7876325108228586
 40
0.8586914400325453
 40
0.929479310569142
 40
1.0
 40
1.0
 40
1.0
 40
1.0
 10
587.8820342211538
 20
106.5790784315057
 30
0.0
 10
587.9986862278572
 20
106.5799827330509
 30
0.0
 10
588.231265374551
 20
106.5817857168802
 30
0.0
 10
588.5787637660814
 20
106.5972605683786
 30
0.0
 10
588.9235217400512
 20
106.6218620945355
 30
0.0
 10
589.2652711048502
 20
106.6563040252826
 30
0.0
 10
589.6037535846236
 20
106.7001380025262
 30
0.0
 10
589.9387218488479
 20
106.7532170843622
 30
0.0
 10
590.2699392528344
 20
106.8153078884437
 30
0.0
 10
590.597179889339
 20
106.8861941258039
 30
0.0
 10
590.9202285672587
 20
106.9656497145418
 30
0.0
 10
591.2388806733389
 20
107.0534464353794
 30
0.0
 10
591.552942472699
 20
107.149352625441
 30
0.0
 10
591.8622296942305
 20
107.253133427154
 30
0.0
 10
592.1665723919734
 20
107.3645536003323
 30
0.0
 10
592.5767936466118
 20
107.5274429685926
 30
0.0
 10
593.0870215632182
 20
107.7552197284731
 30
0.0
 10
593.6874350438687
 20
108.0652099321073
 30
0.0
 10
594.2670514600359
 20
108.4073367875308
 30
0.0
 10
594.8244271779234
 20
108.779985319694
 30
0.0
 10
595.357417341655
 20
109.1822943476242
 30
0.0
 10
595.8670161277872
 20
109.6102947104393
 30
0.0
 10
596.184961466058
 20
109.9181692575115
 30
0.0
 10
596.3436335554301
 20
110.0718154720278
 30
0.0
  0
LINE
  5
80
330
1F
100
AcDbEntity
  8
0
  6
Continuous
 62
     7
370
    25
100
AcDbLine
 10
587.8820341107
 20
106.5790784238
 30
0.0
 11
572.3033297178
 21
122.1577828094
 31
0.0
  0
SPLINE
  5
81
330
1F
100
AcDbEntity
  8
0
  6
Continuous
 62
     7
370
    25
100
AcDbSpline
210
0.0
220
0.0
230
1.0
 70
     8
 71
     3
 72
    31
 73
    27
 74
     0
 42
0.00000001
 43
0.00000001
 40
0.0
 40
0.0
 40
0.0
 40
0.0
 40
0.0185759711212418
 40
0.0370419078280466
 40
0.0553981907254154
 40
0.0736452218378382
 40
0.0917834235664967
 40
0.109813237665346
 40
0.1277351242361244
 40
0.1455495607424095
 40
0.1632570410427197
 40
0.1808580744427887
 40
0.1983531847670011
 40
0.2157429094491113
 40
0.2330277986422692
 40
0.2502084143483847
 40
0.3758460980364545
 40
0.5000270501877848
 40
0.6240150441589983
 40
0.7498456623808922
 40
0.8117931599707623
 40
0.8749041726178685
 40
0.9055174706933482
 40
0.9365697846467613
 40
0.9680632973078258
 40
0.9999999999999999
 40
0.9999999999999999
 40
0.9999999999999999
 40
0.9999999999999999
 10
572.3033298462452
 20
122.1577827937364
 30
0.0
 10
572.4189471742152
 20
122.1596287706691
 30
0.0
 10
572.6494969730942
 20
122.163309789925
 30
0.0
 10
572.9940091613129
 20
122.1814619762402
 30
0.0
 10
573.335906036876
 20
122.2086299201223
 30
0.0
 10
573.6749262947567
 20
122.2455221523187
 30
0.0
 10
574.0108194074418
 20
122.2916966704976
 30
0.0
 10
574.3433458679359
 20
122.3470109252898
 30
0.0
 10
574.672277036097
 20
122.4112373992962
 30
0.0
 10
574.9973950232447
 20
122.4841662775972
 30
0.0
 10
575.3184927107445
 20
122.5655788660003
 30
0.0
 10
575.6353731034064
 20
122.6552548717652
 30
0.0
 10
575.9478510988357
 20
122.7529722931233
 30
0.0
 10
576.2557462511007
 20
122.8585032478802
 30
0.0
 10
576.5589087844234
 20
122.9716330545791
 30
0.0
 10
577.4852327676202
 20
123.3458045708627
 30
0.0
 10
578.9632601681209
 20
124.1433190721919
 30
0.0
 10
580.7764791078401
 20
125.6371973879935
 30
0.0
 10
582.2715413175212
 20
127.4513330337838
 30
0.0
 10
583.2026625060744
 20
129.1763786949314
 30
0.0
 10
583.7386770856656
 20
130.6490579274169
 30
0.0
 10
583.9809336180971
 20
131.5908130017066
 30
0.0
 10
584.1194367132872
 20
132.3562310591227
 30
0.0
 10
584.1947364928349
 20
132.9318686206979
 30
0.0
 10
584.2446166141375
 20
133.5185118284172
 30
0.0
 10
584.2532961468846
 20
133.9133305237446
 30
0.0
 10
584.257666235419
 20
134.1121191802195
 30
0.0
  0
LINE
  5
82
330
1F
100
AcDbEntity
  8
0
  6
Continuous
 62
     7
370
    25
100
AcDbLine
 10
584.2576662303
 20
134.1121190929
 30
0.0
 11
599.8363706059
 21
118.5334148942
 31
0.0
  0
SPLINE
  5
83
330
1F
100
AcDbEntity
  8
0
  6
Continuous
 62
     7
370
    25
100
AcDbSpline
210
0.0
220
0.0
230
1.0
 70
     8
 71
     3
 72
    27
 73
    23
 74
     0
 42
0.00000001
 43
0.00000001
 40
0.0
 40
0.0
 40
0.0
 40
0.0
 40
0.0379432834453519
 40
0.0759635315675466
 40
0.1140613545509654
 40
0.1522373588599738
 40
0.1904921472403874
 40
0.2288263187214595
 40
0.2672404686184853
 40
0.3057351885359258
 40
0.3443110663710651
 40
0.3829686863182308
 40
0.4217086288734783
 40
0.4605314708398247
 40
0.4994377853329606
 40
0.568199684899372
 40
0.6378725695666942
 40
0.7084593549863795
 40
0.7799628445997329
 40
0.8523857349796193
 40
0.9257306208784428
 40
0.9999999999999999
 40
0.9999999999999999
 40
0.9999999999999999
 40
0.9999999999999999
 10
103.4888347027626
 20
110.0718154737321
 30
0.0
 10
103.573574510494
 20
109.9885298692176
 30
0.0
 10
103.7432260133459
 20
109.8217897225255
 30
0.0
 10
104.0073377282622
 20
109.5812541515764
 30
0.0
 10
104.278580265155
 20
109.3477321291992
 30
0.0
 10
104.5574447295351
 20
109.1221704006391
 30
0.0
 10
104.8435370717022
 20
108.9046347795519
 30
0.0
 10
105.1366899189487
 20
108.6954215657363
 30
0.0
 10
105.4366638605104
 20
108.4947584273026
 30
0.0
 10
105.7432278960767
 20
108.3028843898587
 30
0.0
 10
106.0561378709232
 20
108.120027963519
 30
0.0
 10
106.375142780518
 20
107.9464125273238
 30
0.0
 10
106.6999819669789
 20
107.7822548489482
 30
0.0
 10
107.0303908863245
 20
107.6277637301952
 30
0.0
 10
107.4517060807513
 20
107.4462573134262
 30
0.0
 10
107.9707975103775
 20
107.2482514705435
 30
0.0
 10
108.5943825608262
 20
107.0484850019602
 30
0.0
 10
109.236338871788
 20
106.8812128228372
 30
0.0
 10
109.8950623340807
 20
106.7480327870839
 30
0.0
 10
110.568790090982
 20
106.6516697390144
 30
0.0
 10
111.2555872477683
 20
106.5902483367001
 30
0.0
 10
111.7178533981901
 20
106.5828172466367
 30
0.0
 10
111.9504340364909
 20
106.579078431522
 30
0.0
  0
SPLINE
  5
84
330
1F
100
AcDbEntity
  8
0
  6
Continuous
 62
     7
370
    25
100
AcDbSpline
210
0.0
220
0.0
230
1.0
 70
     8
 71
     3
 72
    28
 73
    24
 74
     0
 42
0.00000001
 43
0.00000001
 40
0.0
 40
0.0
 40
0.0
 40
0.0
 40
0.0372542458134449
 40
0.0742769965589224
 40
0.1110685564572656
 40
0.1476292355071798
 40
0.1839593496242062
 40
0.2200592207836449
 40
0.255929177167585
 40
0.2915695533160056
 40
0.3269806902823013
 40
0.3621629357931826
 40
0.3971166444132005
 40
0.4318421777139709
 40
0.46633990444832
 40
0.5006102007293979
 40
0.5727912573780207
 40
0.6446861864744263
 40
0.7162986891700549
 40
0.7876325105886659
 40
0.8586914399285254
 40
0.9294793105431882
 40
1.0
 40
1.0
 40
1.0
 40
1.0
 10
99.9960976616423
 20
118.5334148079106
 30
0.0
 10
99.9970019631946
 20
118.4167628012259
 30
0.0
 10
99.99880494703773
 20
118.1841836546101
 30
0.0
 10
100.0142797985447
 20
117.8366852632583
 30
0.0
 10
100.0388813246885
 20
117.4919272895883
 30
0.0
 10
100.0733232553904
 20
117.1501779252091
 30
0.0
 10
100.1171572325463
 20
116.8116954459735
 30
0.0
 10
100.1702363142427
 20
116.4767271824022
 30
0.0
 10
100.232327118123
 20
116.1455097791809
 30
0.0
 10
100.303213355211
 20
115.81826914355
 30
0.0
 10
100.3826689435969
 20
115.4952204666086
 30
0.0
 10
100.4704656639941
 20
115.1765683616064
 30
0.0
 10
100.5663718535183
 20
114.8625065634196
 30
0.0
 10
100.6701526545891
 20
114.5532193431509
 30
0.0
 10
100.781572827014
 20
114.248876646755
 30
0.0
 10
100.9444621949058
 20
113.8386553919642
 30
0.0
 10
101.1722389549877
 20
113.328427473892
 30
0.0
 10
101.4822291595368
 20
112.7280139906701
 30
0.0
 10
101.8243560158919
 20
112.1483975724796
 30
0.0
 10
102.1970045489132
 20
111.5910218530898
 30
0.0
 10
102.5993135775543
 20
111.0580316883467
 30
0.0
 10
103.0273139408556
 20
110.5484329016488
 30
0.0
 10
103.335188488178
 20
110.2304875631563
 30
0.0
 10
103.4888347027626
 20
110.0718154737321
 30
0.0
  0
LINE
  5
85
330
1F
100
AcDbEntity
  8
0
  6
Continuous
 62
     7
370
    25
100
AcDbLine
 10
99.9960976539
 20
118.5334148942
 30
0.0
 11
115.5748020313
 21
134.1121190929
 31
0.0
  0
SPLINE
  5
86
330
1F
100
AcDbEntity
  8
0
  6
Continuous
 62
     7
370
    25
100
AcDbSpline
210
0.0
220
0.0
230
1.0
 70
     8
 71
     3
 72
    27
 73
    23
 74
     0
 42
0.00000001
 43
0.00000001
 40
0.0
 40
0.0
 40
0.0
 40
0.0
 40
0.0183055007103394
 40
0.036465991608697
 40
0.0544818203578546
 40
0.0723533566767656
 40
0.0900809912330542
 40
0.1076651345643888
 40
0.1251062160290158
 40
0.1882182407169745
 40
0.2501667313826736
 40
0.3759993663080454
 40
0.4999893471337908
 40
0.6241722901765066
 40
0.749811987790354
 40
0.7842749240351908
 40
0.8191570818029965
 40
0.8544628056922583
 40
0.8901962223464037
 40
0.9263612110529936
 40
0.9629613731147454
 40
1.0
 40
1.0
 40
1.0
 40
1.0
 10
115.5748020244129
 20
134.112119190711
 30
0.0
 10
115.5766071914917
 20
133.9981873706895
 30
0.0
 10
115.5802032257436
 20
133.7712262589121
 30
0.0
 10
115.5978241804265
 20
133.4324121402929
 30
0.0
 10
115.6241014270944
 20
133.0968383230114
 30
0.0
 10
115.6596633165896
 20
132.7647468889496
 30
0.0
 10
115.7040262269479
 20
132.4363695604249
 30
0.0
 10
115.7570009177283
 20
132.111912832502
 30
0.0
 10
115.8719758762951
 20
131.5111659148382
 30
0.0
 10
116.0938126207631
 20
130.6490425563235
 30
0.0
 10
116.6297926896414
 20
129.1763879817314
 30
0.0
 10
117.5609362274936
 20
127.4513270939514
 30
0.0
 10
119.0559696670364
 20
125.6372087794496
 30
0.0
 10
120.8692773242252
 20
124.1432791171506
 30
0.0
 10
122.4427215966955
 20
123.2942888112917
 30
0.0
 10
123.5770901228966
 20
122.8537389856227
 30
0.0
 10
124.197748646759
 20
122.6503715461868
 30
0.0
 10
124.8359784174694
 20
122.479259724862
 30
0.0
 10
125.4903026470195
 20
122.3418903865253
 30
0.0
 10
126.1590050015882
 20
122.240938031396
 30
0.0
 10
126.840216813445
 20
122.1745116351682
 30
0.0
 10
127.298588126484
 20
122.1633811654815
 30
0.0
 10
127.5291384150116
 20
122.1577827937581
 30
0.0
  0
LINE
  5
87
330
1F
100
AcDbEntity
  8
0
  6
Continuous
 62
     7
370
    25
100
AcDbLine
 10
127.529138542
 20
122.1577828094
 30
0.0
 11
111.9504341491
 21
106.5790784238
 31
0.0
  0
SPLINE
  5
88
330
1F
100
AcDbEntity
  8
0
  6
Continuous
 62
     7
370
    25
100
AcDbSpline
210
0.0
220
0.0
230
1.0
 70
     8
 71
     3
 72
    14
 73
    10
 74
     0
 42
0.00000001
 43
0.00000001
 40
0.0
 40
0.0
 40
0.0
 40
0.0
 40
0.25
 40
0.25
 40
0.5
 40
0.5
 40
0.75
 40
0.75
 40
1.0
 40
1.0
 40
1.0
 40
1.0
 10
613.4955995498958
 20
82.91299715376368
 30
0.0
 10
613.4955995498958
 20
82.25873820176366
 30
0.0
 10
613.3657439808957
 20
81.60510571776352
 30
0.0
 10
612.8658277128958
 20
80.39723350976385
 30
0.0
 10
612.495962337396
 20
79.84347329426367
 30
0.0
 10
611.5719757353957
 20
78.91948669226387
 30
0.0
 10
611.0182155198958
 20
78.54962131676373
 30
0.0
 10
609.8103433118957
 20
78.04970504876363
 30
0.0
 10
609.1567108278957
 20
77.91984947976371
 30
0.0
 10
608.5024518758958
 20
77.91984947976368
 30
0.0
  0
LINE
  5
89
330
1F
100
AcDbEntity
  8
0
  6
Continuous
 62
     7
370
    25
100
AcDbLine
 10
91.3300165754
 20
77.9198494798
 30
0.0
 11
608.5024516844
 21
77.9198494798
 31
0.0
  0
SPLINE
  5
8A
330
1F
100
AcDbEntity
  8
0
  6
Continuous
 62
     7
370
    25
100
AcDbSpline
210
0.0
220
0.0
230
1.0
 70
     8
 71
     3
 72
    14
 73
    10
 74
     0
 42
0.00000001
 43
0.00000001
 40
0.0
 40
0.0
 40
0.0
 40
0.0
 40
0.25
 40
0.25
 40
0.5
 40
0.5
 40
0.75
 40
0.75
 40
1.0
 40
1.0
 40
1.0
 40
1.0
 10
91.33001638389582
 20
77.91984947976368
 30
0.0
 10
90.67575743189576
 20
77.91984947976366
 30
0.0
 10
90.02212494789602
 20
78.0497050487638
 30
0.0
 10
88.81425273989557
 20
78.54962131676372
 30
0.0
 10
88.26049252439572
 20
78.91948669226365
 30
0.0
 10
87.33650592239562
 20
79.84347329426362
 30
0.0
 10
86.9666405468959
 20
80.3972335097637
 30
0.0
 10
86.46672427889584
 20
81.6051057177636
 30
0.0
 10
86.33686870989588
 20
82.25873820176366
 30
0.0
 10
86.33686870989582
 20
82.91299715376368
 30
0.0
  0
LINE
  5
8B
330
1F
100
AcDbEntity
  8
0
  6
Continuous
 62
     7
370
    25
100
AcDbLine
 10
86.3368687099
 20
530.0854327737
 30
0.0
 11
86.3368687099
 21
82.9129970258
 31
0.0
  0
SPLINE
  5
8C
330
1F
100
AcDbEntity
  8
0
  6
Continuous
 62
     7
370
    25
100
AcDbSpline
210
0.0
220
0.0
230
1.0
 70
     8
 71
     3
 72
    14
 73
    10
 74
     0
 42
0.00000001
 43
0.00000001
 40
0.0
 40
0.0
 40
0.0
 40
0.0
 40
0.25
 40
0.25
 40
0.5
 40
0.5
 40
0.75
 40
0.75
 40
1.0
 40
1.0
 40
1.0
 40
1.0
 10
86.33686870989582
 20
530.0854326457637
 30
0.0
 10
86.33686870989582
 20
530.7396915977638
 30
0.0
 10
86.4667242788959
 20
531.3933240817639
 30
0.0
 10
86.96664054689579
 20
532.6011962897635
 30
0.0
 10
87.33650592239567
 20
533.1549565052638
 30
0.0
 10
88.260492524396
 20
534.0789431072635
 30
0.0
 10
88.81425273989579
 20
534.4488084827636
 30
0.0
 10
90.0221249478959
 20
534.9487247507639
 30
0.0
 10
90.67575743189587
 20
535.0785803197638
 30
0.0
 10
91.33001638389582
 20
535.0785803197638
 30
0.0
  0
LINE
  5
8D
330
1F
100
AcDbEntity
  8
0
  6
Continuous
 62
     7
370
    25
100
AcDbLine
 10
608.5024516844
 20
535.0785803198
 30
0.0
 11
91.3300165754
 21
535.0785803198
 31
0.0
  0
SPLINE
  5
8E
330
1F
100
AcDbEntity
  8
0
  6
Continuous
 62
     7
370
    25
100
AcDbSpline
210
0.0
220
0.0
230
1.0
 70
     8
 71
     3
 72
    14
 73
    10
 74
     0
 42
0.00000001
 43
0.00000001
 40
0.0
 40
0.0
 40
0.0
 40
0.0
 40
0.25
 40
0.25
 40
0.5
 40
0.5
 40
0.75
 40
0.75
 40
1.0
 40
1.0
 40
1.0
 40
1.0
 10
608.5024518758958
 20
535.0785803197638
 30
0.0
 10
609.156710827896
 20
535.0785803197638
 30
0.0
 10
609.8103433118955
 20
534.9487247507636
 30
0.0
 10
611.018215519896
 20
534.4488084827636
 30
0.0
 10
611.5719757353959
 20
534.0789431072637
 30
0.0
 10
612.495962337396
 20
533.1549565052638
 30
0.0
 10
612.8658277128958
 20
532.6011962897636
 30
0.0
 10
613.3657439808957
 20
531.3933240817638
 30
0.0
 10
613.4955995498957
 20
530.7396915977638
 30
0.0
 10
613.4955995498958
 20
530.0854326457637
 30
0.0
  0
LINE
  5
8F
330
1F
100
AcDbEntity
  8
0
  6
Continuous
 62
     7
370
    25
100
AcDbLine
 10
613.4955995499
 20
82.9129970258
 30
0.0
 11
613.4955995499
 21
530.0854327737
 31
0.0
  0
LINE
  5
90
330
1F
100
AcDbEntity
  8
0
  6
Continuous
 62
     7
370
    25
100
AcDbLine
 10
587.8820343308
 20
105.5828836097
 30
0.0
 11
111.950433929
 21
105.5828836097
 31
0.0
  0
SPLINE
  5
91
330
1F
100
AcDbEntity
  8
0
  6
Continuous
 62
     7
370
    25
100
AcDbSpline
210
0.0
220
0.0
230
1.0
 70
     8
 71
     3
 72
    10
 73
     6
 74
     0
 42
0.00000001
 43
0.00000001
 40
0.0
 40
0.0
 40
0.0
 40
0.0
 40
0.5
 40
0.5
 40
1.0
 40
1.0
 40
1.0
 40
1.0
 10
587.8820342288958
 20
105.5828837257637
 30
0.0
 10
589.5819411708958
 20
105.5828837257637
 30
0.0
 10
591.278596448396
 20
105.9192144077638
 30
0.0
 10
594.4122044663958
 20
107.2143213757638
 30
0.0
 10
595.8479141328959
 20
108.1725845267637
 30
0.0
 10
597.0453893188958
 20
109.3700597107637
 30
0.0
  0
SPLINE
  5
92
330
1F
100
AcDbEntity
  8
0
  6
Continuous
 62
     7
370
    25
100
AcDbSpline
210
0.0
220
0.0
230
1.0
 70
     8
 71
     3
 72
    10
 73
     6
 74
     0
 42
0.00000001
 43
0.00000001
 40
0.0
 40
0.0
 40
0.0
 40
0.0
 40
0.5
 40
0.5
 40
1.0
 40
1.0
 40
1.0
 40
1.0
 10
597.0453893188958
 20
109.3700597107637
 30
0.0
 10
598.2428645028957
 20
110.5675348967637
 30
0.0
 10
599.2011276538958
 20
112.0032445632637
 30
0.0
 10
600.4962346218958
 20
115.1368525812637
 30
0.0
 10
600.8325653038958
 20
116.8335078587637
 30
0.0
 10
600.8325653038958
 20
118.5334148007637
 30
0.0
  0
LINE
  5
93
330
1F
100
AcDbEntity
  8
0
  6
Continuous
 62
     7
370
    25
100
AcDbLine
 10
600.8325652189
 20
494.4650151435
 30
0.0
 11
600.8325652189
 21
118.533414656
 31
0.0
  0
SPLINE
  5
94
330
1F
100
AcDbEntity
  8
0
  6
Continuous
 62
     7
370
    25
100
AcDbSpline
210
0.0
220
0.0
230
1.0
 70
     8
 71
     3
 72
    22
 73
    18
 74
     0
 42
0.00000001
 43
0.00000001
 40
0.0
 40
0.0
 40
0.0
 40
0.0
 40
0.0357420937023846
 40
0.0714149616595921
 40
0.1070468222238882
 40
0.1426659912087667
 40
0.1783008146823037
 40
0.2139796014011297
 40
0.2497305556874321
 40
0.3745939937705335
 40
0.4995090653507306
 40
0.6244895325027218
 40
0.7495473013866844
 40
0.8122015178160645
 40
0.8747280979508609
 40
0.9372774955062936
 40
1.0
 40
1.0
 40
1.0
 40
1.0
 10
597.0453894202079
 20
503.6283701181974
 30
0.0
 10
597.1303995241107
 20
503.5419787011275
 30
0.0
 10
597.3002550832571
 20
503.3693631909914
 30
0.0
 10
597.5455297793183
 20
503.1016968357829
 30
0.0
 10
597.7834184017679
 20
502.8280440004472
 30
0.0
 10
598.013269384502
 20
502.5477530732539
 30
0.0
 10
598.2352556896548
 20
502.2610014732514
 30
0.0
 10
598.4493335783496
 20
501.9677334555432
 30
0.0
 10
598.8265640030198
 20
501.4193041146855
 30
0.0
 10
599.3250214349777
 20
500.587228776481
 30
0.0
 10
599.8678690264835
 20
499.4360776086583
 30
0.0
 10
600.2963441446213
 20
498.2369063851047
 30
0.0
 10
600.5531671003073
 20
497.2062992806632
 30
0.0
 10
600.6980559342278
 20
496.3699436911524
 30
0.0
 10
600.7753085471142
 20
495.7378745168144
 30
0.0
 10
600.8236457402725
 20
495.1025362662004
 30
0.0
 10
600.829589321632
 20
494.6777178628202
 30
0.0
 10
600.83256521888
 20
494.4650151435419
 30
0.0
  0
SPLINE
  5
95
330
1F
100
AcDbEntity
  8
0
  6
Continuous
 62
     7
370
    25
100
AcDbSpline
210
0.0
220
0.0
230
1.0
 70
     8
 71
     3
 72
    22
 73
    18
 74
     0
 42
0.00000001
 43
0.00000001
 40
0.0
 40
0.0
 40
0.0
 40
0.0
 40
0.0358737524233693
 40
0.0716700358180374
 40
0.1074167777635247
 40
0.1431420220239941
 40
0.1788738629803296
 40
0.2146403794684745
 40
0.2504695688002128
 40
0.3755273466390955
 40
0.5005078308100125
 40
0.6254229068830884
 40
0.7502863493120696
 40
0.8127974166444956
 40
0.8751522423284991
 40
0.9375025259075034
 40
1.0
 40
1.0
 40
1.0
 40
1.0
 10
587.882034330826
 20
507.4155461898728
 30
0.0
 10
588.0036798842364
 20
507.4145733666533
 30
0.0
 10
588.2467082986362
 20
507.4126298210167
 30
0.0
 10
588.6106698789283
 20
507.396857860717
 30
0.0
 10
588.9735611996801
 20
507.37166545281
 30
0.0
 10
589.3353823147148
 20
507.3361352013442
 30
0.0
 10
589.6961300762079
 20
507.2905136455417
 30
0.0
 10
590.0558130082175
 20
507.234730806365
 30
0.0
 10
590.7116874888875
 20
507.1141769751506
 30
0.0
 10
591.6539446191833
 20
506.879302029417
 30
0.0
 10
592.8530846845741
 20
506.450855261594
 30
0.0
 10
594.004277662244
 20
505.9080050634961
 30
0.0
 10
594.9142214190674
 20
505.3628153229419
 30
0.0
 10
595.6071767538848
 20
504.8756063796019
 30
0.0
 10
596.1076885362482
 20
504.4847708763907
 30
0.0
 10
596.5898155260851
 20
504.0712749538345
 30
0.0
 10
596.8934121460758
 20
503.7761210549575
 30
0.0
 10
597.0453894202079
 20
503.6283701181974
 30
0.0
  0
LINE
  5
96
330
1F
100
AcDbEntity
  8
0
  6
Continuous
 62
     7
370
    25
100
AcDbLine
 10
111.950433929
 20
507.4155461899
 30
0.0
 11
587.8820343308
 21
507.4155461899
 31
0.0
  0
SPLINE
  5
97
330
1F
100
AcDbEntity
  8
0
  6
Continuous
 62
     7
370
    25
100
AcDbSpline
210
0.0
220
0.0
230
1.0
 70
     8
 71
     3
 72
    22
 73
    18
 74
     0
 42
0.00000001
 43
0.00000001
 40
0.0
 40
0.0
 40
0.0
 40
0.0
 40
0.0357420938490523
 40
0.0714149637270063
 40
0.1070468278971555
 40
0.1426660020797126
 40
0.1783008322455885
 40
0.213979627050774
 40
0.2497305907139666
 40
0.3745940144375265
 40
0.4995090717974483
 40
0.6244895372454203
 40
0.7495472963497635
 40
0.8122015114290211
 40
0.8747280918043246
 40
0.9372774914176278
 40
1.0
 40
1.0
 40
1.0
 40
1.0
 10
102.7870788395837
 20
503.6283701181974
 30
0.0
 10
102.8734702681416
 20
503.7133802148302
 30
0.0
 10
103.0460858055201
 20
503.8832357636716
 30
0.0
 10
103.313752194019
 20
504.1285104631295
 30
0.0
 10
103.5874050651641
 20
504.3663991115963
 30
0.0
 10
103.8676960303438
 20
504.5962501427641
 30
0.0
 10
104.1544476685622
 20
504.8182365222336
 30
0.0
 10
104.4477157328253
 20
505.0323144975234
 30
0.0
 10
104.9961449836447
 20
505.4095451040238
 30
0.0
 10
105.828220592904
 20
505.9080019838275
 30
0.0
 10
106.9793713333472
 20
506.4508502517566
 30
0.0
 10
108.1785426065955
 20
506.8793251699778
 30
0.0
 10
109.2091497450077
 20
507.136147827972
 30
0.0
 10
110.0455052864225
 20
507.2810368223211
 30
0.0
 10
110.6775744741694
 20
507.3582894763976
 30
0.0
 10
111.3129127576139
 20
507.406626706112
 30
0.0
 10
111.7377311911564
 20
507.4125702908737
 30
0.0
 10
111.9504339289656
 20
507.4155461898728
 30
0.0
  0
SPLINE
  5
98
330
1F
100
AcDbEntity
  8
0
  6
Continuous
 62
     7
370
    25
100
AcDbSpline
210
0.0
220
0.0
230
1.0
 70
     8
 71
     3
 72
    22
 73
    18
 74
     0
 42
0.00000001
 43
0.00000001
 40
0.0
 40
0.0
 40
0.0
 40
0.0
 40
0.0358737498262664
 40
0.0716700313154117
 40
0.1074167720089756
 40
0.14314201563147
 40
0.1788738565226334
 40
0.2146403734758746
 40
0.2504695637593971
 40
0.37552735138821
 40
0.5005078372734656
 40
0.6254229275771241
 40
0.7502863843759476
 40
0.8127974361293717
 40
0.8751522504243714
 40
0.9375025273409928
 40
1.0
 40
1.0
 40
1.0
 40
1.0
 10
98.99990304091155
 20
494.4650151435419
 30
0.0
 10
99.00087586347
 20
494.5866606855057
 30
0.0
 10
99.00281940780437
 20
494.8296890793633
 30
0.0
 10
99.01859135721874
 20
495.1936506325978
 30
0.0
 10
99.04378374749045
 20
495.5565419337331
 30
0.0
 10
99.07931397453574
 20
495.9183630364787
 30
0.0
 10
99.12493549721223
 20
496.2791107934395
 30
0.0
 10
99.18071830225227
 20
496.6387937270811
 30
0.0
 10
99.30127202000149
 20
497.2946682531542
 30
0.0
 10
99.53614726320481
 20
498.2369253492008
 30
0.0
 10
99.96459421854838
 20
499.4360653690258
 30
0.0
 10
100.5074437573572
 20
500.587258764782
 30
0.0
 10
101.0526340410547
 20
501.4972022293557
 30
0.0
 10
101.5398427156403
 20
502.1901576686222
 30
0.0
 10
101.9306781220324
 20
502.6906693694597
 30
0.0
 10
102.3441739886273
 20
503.1727963022396
 30
0.0
 10
102.6393278935867
 20
503.4763928658962
 30
0.0
 10
102.7870788395837
 20
503.6283701181974
 30
0.0
  0
LINE
  5
99
330
1F
100
AcDbEntity
  8
0
  6
Continuous
 62
     7
370
    25
100
AcDbLine
 10
98.9999030409
 20
118.533414656
 30
0.0
 11
98.9999030409
 21
494.4650151435
 31
0.0
  0
SPLINE
  5
9A
330
1F
100
AcDbEntity
  8
0
  6
Continuous
 62
     7
370
    25
100
AcDbSpline
210
0.0
220
0.0
230
1.0
 70
     8
 71
     3
 72
    10
 73
     6
 74
     0
 42
0.00000001
 43
0.00000001
 40
0.0
 40
0.0
 40
0.0
 40
0.0
 40
0.4999999999999984
 40
0.4999999999999984
 40
1.0
 40
1.0
 40
1.0
 40
1.0
 10
98.99990295589583
 20
118.5334148007637
 30
0.0
 10
98.99990295589578
 20
116.8335078587636
 30
0.0
 10
99.3362336378959
 20
115.1368525812636
 30
0.0
 10
100.6313406058959
 20
112.0032445632637
 30
0.0
 10
101.5896037568958
 20
110.5675348967636
 30
0.0
 10
102.7870789408958
 20
109.3700597107637
 30
0.0
  0
SPLINE
  5
9B
330
1F
100
AcDbEntity
  8
0
  6
Continuous
 62
     7
370
    25
100
AcDbSpline
210
0.0
220
0.0
230
1.0
 70
     8
 71
     3
 72
    10
 73
     6
 74
     0
 42
0.00000001
 43
0.00000001
 40
0.0
 40
0.0
 40
0.0
 40
0.0
 40
0.5
 40
0.5
 40
1.0
 40
1.0
 40
1.0
 40
1.0
 10
102.7870789408958
 20
109.3700597107637
 30
0.0
 10
103.9845541268958
 20
108.1725845267638
 30
0.0
 10
105.4202637933958
 20
107.2143213757637
 30
0.0
 10
108.5538718113958
 20
105.9192144077636
 30
0.0
 10
110.2505270888959
 20
105.5828837257637
 30
0.0
 10
111.9504340308958
 20
105.5828837257637
 30
0.0
  0
SPLINE
  5
9C
330
1F
100
AcDbEntity
  8
0
  6
Continuous
 62
     7
370
    25
100
AcDbSpline
210
0.0
220
0.0
230
1.0
 70
    24
 71
     3
 72
    14
 73
    10
 74
     0
 42
0.00000001
 43
0.00000001
 40
0.0
 40
0.0
 40
0.0
 40
0.0
 40
0.25
 40
0.25
 40
0.5
 40
0.5
 40
0.75
 40
0.75
 40
1.0
 40
1.0
 40
1.0
 40
1.0
 10
608.5024518765975
 20
536.0772098537634
 30
0.0
 10
608.5024518765969
 20
536.0712055712753
 30
0.0
 10
608.5024518765939
 20
536.0444621046338
 30
0.0
 10
608.5024518765817
 20
535.940676267493
 30
0.0
 10
608.5024518765726
 20
535.8633999047696
 30
0.0
 10
608.5024518765501
 20
535.6704698851023
 30
0.0
 10
608.5024518765367
 20
535.5553813370906
 30
0.0
 10
608.5024518765088
 20
535.3164767657112
 30
0.0
 10
608.5024518764943
 20
535.1933060822926
 30
0.0
 10
608.5024518764808
 20
535.0785803197638
 30
0.0
  0
SPLINE
  5
9D
330
1F
100
AcDbEntity
  8
0
  6
Continuous
 62
     7
370
    25
100
AcDbSpline
210
0.0
220
0.0
230
1.0
 70
    24
 71
     3
 72
    14
 73
    10
 74
     0
 42
0.00000001
 43
0.00000001
 40
0.0
 40
0.0
 40
0.0
 40
0.0
 40
0.25
 40
0.25
 40
0.5
 40
0.5
 40
0.75
 40
0.75
 40
1.0
 40
1.0
 40
1.0
 40
1.0
 10
91.3300163842099
 20
535.0785803197638
 30
0.0
 10
91.33001638421712
 20
535.1933060822931
 30
0.0
 10
91.33001638422483
 20
535.3164767657125
 30
0.0
 10
91.33001638423983
 20
535.5553813370932
 30
0.0
 10
91.33001638424693
 20
535.6704698851055
 30
0.0
 10
91.33001638425903
 20
535.8633999047732
 30
0.0
 10
91.33001638426397
 20
535.9406762674965
 30
0.0
 10
91.33001638427041
 20
536.0444621046361
 30
0.0
 10
91.33001638427218
 20
536.0712055712769
 30
0.0
 10
91.33001638427257
 20
536.0772098537639
 30
0.0
  0
LINE
  5
9E
330
1F
100
AcDbEntity
  8
0
  6
Continuous
 62
     7
370
    25
100
AcDbLine
 10
91.3300161233
 20
536.0772098538
 30
0.0
 11
608.5024521365
 21
536.0772098538
 31
0.0
  0
SPLINE
  5
9F
330
1F
100
AcDbEntity
  8
0
  6
Continuous
 62
     7
370
    25
100
AcDbSpline
210
0.0
220
0.0
230
1.0
 70
     8
 71
     3
 72
    14
 73
    10
 74
     0
 42
0.00000001
 43
0.00000001
 40
0.0
 40
0.0
 40
0.0
 40
0.0
 40
0.25
 40
0.25
 40
0.5
 40
0.5
 40
0.75
 40
0.75
 40
1.0
 40
1.0
 40
1.0
 40
1.0
 10
614.4942290838957
 20
530.0854326457637
 30
0.0
 10
614.4938716538958
 20
530.8701858797637
 30
0.0
 10
614.3377588238958
 20
531.6542587902637
 30
0.0
 10
613.7374725358958
 20
533.1033186762637
 30
0.0
 10
613.2935336213955
 20
533.7677304692638
 30
0.0
 10
612.1847496993962
 20
534.8765143912639
 30
0.0
 10
611.5203379063959
 20
535.3204533057636
 30
0.0
 10
610.0712780203959
 20
535.9207395937638
 30
0.0
 10
609.2872051098959
 20
536.0768524237637
 30
0.0
 10
608.5024518758958
 20
536.0772098537637
 30
0.0
  0
SPLINE
  5
A0
330
1F
100
AcDbEntity
  8
0
  6
Continuous
 62
     7
370
    25
100
AcDbSpline
210
0.0
220
0.0
230
1.0
 70
    24
 71
     3
 72
    14
 73
    10
 74
     0
 42
0.00000001
 43
0.00000001
 40
0.0
 40
0.0
 40
0.0
 40
0.0
 40
0.25
 40
0.25
 40
0.5
 40
0.5
 40
0.75
 40
0.75
 40
1.0
 40
1.0
 40
1.0
 40
1.0
 10
613.4955995498958
 20
530.0854326454495
 30
0.0
 10
613.6103253124252
 20
530.0854326454423
 30
0.0
 10
613.7334959958445
 20
530.0854326454345
 30
0.0
 10
613.9724005672252
 20
530.0854326454194
 30
0.0
 10
614.0874891152374
 20
530.0854326454123
 30
0.0
 10
614.2804191349054
 20
530.0854326454001
 30
0.0
 10
614.3576954976287
 20
530.0854326453954
 30
0.0
 10
614.4614813347682
 20
530.085432645389
 30
0.0
 10
614.4882248014088
 20
530.0854326453872
 30
0.0
 10
614.4942290838959
 20
530.0854326453868
 30
0.0
  0
SPLINE
  5
A1
330
1F
100
AcDbEntity
  8
0
  6
Continuous
 62
     7
370
    25
100
AcDbSpline
210
0.0
220
0.0
230
1.0
 70
     8
 71
     3
 72
    14
 73
    10
 74
     0
 42
0.00000001
 43
0.00000001
 40
0.0
 40
0.0
 40
0.0
 40
0.0
 40
0.25
 40
0.25
 40
0.5
 40
0.5
 40
0.75
 40
0.75
 40
1.0
 40
1.0
 40
1.0
 40
1.0
 10
608.5024518758958
 20
76.9212199457637
 30
0.0
 10
609.2872051098959
 20
76.9215773757638
 30
0.0
 10
610.0712780203959
 20
77.07769020576369
 30
0.0
 10
611.5203379063959
 20
77.67797649376371
 30
0.0
 10
612.1847496993958
 20
78.12191540826369
 30
0.0
 10
613.2935336213958
 20
79.23069933026369
 30
0.0
 10
613.7374725358958
 20
79.89511112326362
 30
0.0
 10
614.337758823896
 20
81.34417100926358
 30
0.0
 10
614.4938716538959
 20
82.12824391976373
 30
0.0
 10
614.4942290838957
 20
82.91299715376368
 30
0.0
  0
SPLINE
  5
A2
330
1F
100
AcDbEntity
  8
0
  6
Continuous
 62
     7
370
    25
100
AcDbSpline
210
0.0
220
0.0
230
1.0
 70
    24
 71
     3
 72
    14
 73
    10
 74
     0
 42
0.00000001
 43
0.00000001
 40
0.0
 40
0.0
 40
0.0
 40
0.0
 40
0.25
 40
0.25
 40
0.5
 40
0.5
 40
0.75
 40
0.75
 40
1.0
 40
1.0
 40
1.0
 40
1.0
 10
608.5024518755818
 20
77.91984947976368
 30
0.0
 10
608.5024518755745
 20
77.80512371723431
 30
0.0
 10
608.5024518755669
 20
77.6819530338148
 30
0.0
 10
608.5024518755517
 20
77.44304846243419
 30
0.0
 10
608.5024518755447
 20
77.3279599144219
 30
0.0
 10
608.5024518755324
 20
77.13502989475415
 30
0.0
 10
608.5024518755276
 20
77.05775353203079
 30
0.0
 10
608.502451875521
 20
76.95396769489135
 30
0.0
 10
608.5024518755195
 20
76.92722422825055
 30
0.0
 10
608.5024518755191
 20
76.92121994576354
 30
0.0
  0
SPLINE
  5
A3
330
1F
100
AcDbEntity
  8
0
  6
Continuous
 62
     7
370
    25
100
AcDbSpline
210
0.0
220
0.0
230
1.0
 70
    24
 71
     3
 72
    14
 73
    10
 74
     0
 42
0.00000001
 43
0.00000001
 40
0.0
 40
0.0
 40
0.0
 40
0.0
 40
0.25
 40
0.25
 40
0.5
 40
0.5
 40
0.75
 40
0.75
 40
1.0
 40
1.0
 40
1.0
 40
1.0
 10
614.4942290838956
 20
82.912997153062
 30
0.0
 10
614.4882248014073
 20
82.91299715306275
 30
0.0
 10
614.4614813347656
 20
82.91299715306593
 30
0.0
 10
614.3576954976251
 20
82.91299715307815
 30
0.0
 10
614.2804191349016
 20
82.91299715308709
 30
0.0
 10
614.0874891152346
 20
82.91299715310969
 30
0.0
 10
613.9724005672227
 20
82.91299715312309
 30
0.0
 10
613.7334959958431
 20
82.91299715315098
 30
0.0
 10
613.6103253124245
 20
82.91299715316525
 30
0.0
 10
613.4955995498958
 20
82.91299715317865
 30
0.0
  0
LINE
  5
A4
330
1F
100
AcDbEntity
  8
0
  6
Continuous
 62
     7
370
    25
100
AcDbLine
 10
608.5024521365
 20
76.9212199458
 30
0.0
 11
91.3300161233
 21
76.9212199458
 31
0.0
  0
SPLINE
  5
A5
330
1F
100
AcDbEntity
  8
0
  6
Continuous
 62
     7
370
    25
100
AcDbSpline
210
0.0
220
0.0
230
1.0
 70
    24
 71
     3
 72
    14
 73
    10
 74
     0
 42
0.00000001
 43
0.00000001
 40
0.0
 40
0.0
 40
0.0
 40
0.0
 40
0.25
 40
0.25
 40
0.5
 40
0.5
 40
0.75
 40
0.75
 40
1.0
 40
1.0
 40
1.0
 40
1.0
 10
91.33001638319405
 20
76.92121994576404
 30
0.0
 10
91.33001638319472
 20
76.92722422825213
 30
0.0
 10
91.33001638319772
 20
76.95396769489368
 30
0.0
 10
91.33001638320992
 20
77.05775353203443
 30
0.0
 10
91.33001638321886
 20
77.13502989475782
 30
0.0
 10
91.33001638324146
 20
77.32795991442507
 30
0.0
 10
91.33001638325494
 20
77.44304846243679
 30
0.0
 10
91.33001638328287
 20
77.68195303381628
 30
0.0
 10
91.33001638329735
 20
77.80512371723486
 30
0.0
 10
91.33001638331079
 20
77.91984947976368
 30
0.0
  0
SPLINE
  5
A6
330
1F
100
AcDbEntity
  8
0
  6
Continuous
 62
     7
370
    25
100
AcDbSpline
210
0.0
220
0.0
230
1.0
 70
     8
 71
     3
 72
    14
 73
    10
 74
     0
 42
0.00000001
 43
0.00000001
 40
0.0
 40
0.0
 40
0.0
 40
0.0
 40
0.25
 40
0.25
 40
0.5
 40
0.5
 40
0.75
 40
0.75
 40
1.0
 40
1.0
 40
1.0
 40
1.0
 10
91.33001638389582
 20
536.0772098537637
 30
0.0
 10
90.54526314989575
 20
536.0768524237636
 30
0.0
 10
89.76119023939572
 20
535.9207395937638
 30
0.0
 10
88.31213035339586
 20
535.3204533057637
 30
0.0
 10
87.64771856039589
 20
534.8765143912638
 30
0.0
 10
86.53893463839579
 20
533.7677304692637
 30
0.0
 10
86.09499572389578
 20
533.1033186762638
 30
0.0
 10
85.49470943589554
 20
531.6542587902638
 30
0.0
 10
85.33859660589577
 20
530.8701858797637
 30
0.0
 10
85.33823917589584
 20
530.0854326457637
 30
0.0
  0
SPLINE
  5
A7
330
1F
100
AcDbEntity
  8
0
  6
Continuous
 62
     7
370
    25
100
AcDbSpline
210
0.0
220
0.0
230
1.0
 70
    24
 71
     3
 72
    14
 73
    10
 74
     0
 42
0.00000001
 43
0.00000001
 40
0.0
 40
0.0
 40
0.0
 40
0.0
 40
0.25
 40
0.25
 40
0.5
 40
0.5
 40
0.75
 40
0.75
 40
1.0
 40
1.0
 40
1.0
 40
1.0
 10
85.33823917589616
 20
530.0854326464655
 30
0.0
 10
85.34424345838431
 20
530.0854326464647
 30
0.0
 10
85.37098692502599
 20
530.0854326464614
 30
0.0
 10
85.47477276216652
 20
530.0854326464492
 30
0.0
 10
85.55204912488995
 20
530.0854326464404
 30
0.0
 10
85.74497914455709
 20
530.0854326464178
 30
0.0
 10
85.86006769256899
 20
530.0854326464043
 30
0.0
 10
86.09897226394841
 20
530.0854326463764
 30
0.0
 10
86.22214294736702
 20
530.0854326463622
 30
0.0
 10
86.33686870989582
 20
530.0854326463487
 30
0.0
  0
SPLINE
  5
A8
330
1F
100
AcDbEntity
  8
0
  6
Continuous
 62
     7
370
    25
100
AcDbSpline
210
0.0
220
0.0
230
1.0
 70
     8
 71
     3
 72
    14
 73
    10
 74
     0
 42
0.00000001
 43
0.00000001
 40
0.0
 40
0.0
 40
0.0
 40
0.0
 40
0.25
 40
0.25
 40
0.5
 40
0.5
 40
0.75
 40
0.75
 40
1.0
 40
1.0
 40
1.0
 40
1.0
 10
85.33823917589584
 20
82.91299715376368
 30
0.0
 10
85.33859660589582
 20
82.12824391976373
 30
0.0
 10
85.49470943589577
 20
81.34417100926369
 30
0.0
 10
86.09499572389578
 20
79.89511112326365
 30
0.0
 10
86.53893463839613
 20
79.23069933026358
 30
0.0
 10
87.64771856039549
 20
78.1219154082636
 30
0.0
 10
88.3121303533958
 20
77.67797649376374
 30
0.0
 10
89.76119023939572
 20
77.07769020576372
 30
0.0
 10
90.54526314989575
 20
76.92157737576372
 30
0.0
 10
91.33001638389582
 20
76.9212199457637
 30
0.0
  0
SPLINE
  5
A9
330
1F
100
AcDbEntity
  8
0
  6
Continuous
 62
     7
370
    25
100
AcDbSpline
210
0.0
220
0.0
230
1.0
 70
    24
 71
     3
 72
    14
 73
    10
 74
     0
 42
0.00000001
 43
0.00000001
 40
0.0
 40
0.0
 40
0.0
 40
0.0
 40
0.25
 40
0.25
 40
0.5
 40
0.5
 40
0.75
 40
0.75
 40
1.0
 40
1.0
 40
1.0
 40
1.0
 10
86.33686870989582
 20
82.91299715407787
 30
0.0
 10
86.22214294736646
 20
82.91299715408515
 30
0.0
 10
86.09897226394708
 20
82.91299715409286
 30
0.0
 10
85.86006769256643
 20
82.91299715410794
 30
0.0
 10
85.74497914455415
 20
82.91299715411513
 30
0.0
 10
85.55204912488657
 20
82.91299715412731
 30
0.0
 10
85.47477276216291
 20
82.91299715413203
 30
0.0
 10
85.37098692502337
 20
82.91299715413852
 30
0.0
 10
85.3442434583827
 20
82.91299715414013
 30
0.0
 10
85.33823917589567
 20
82.91299715414053
 30
0.0
  0
LINE
  5
AA
330
1F
100
AcDbEntity
  8
0
  6
Continuous
 62
     7
370
    25
100
AcDbLine
 10
85.3382391759
 20
82.912996943
 30
0.0
 11
85.3382391759
 21
530.0854328565
 31
0.0
  0
LINE
  5
AB
330
1F
100
AcDbEntity
  8
0
  6
Continuous
 62
     7
370
    25
100
AcDbLine
 10
614.4942290839
 20
530.0854328565
 30
0.0
 11
614.4942290839
 21
82.912996943
 31
0.0
  0
SPLINE
  5
AC
330
1F
100
AcDbEntity
  8
0
  6
Continuous
 62
     7
370
    25
100
AcDbSpline
210
0.0
220
0.0
230
1.0
 70
    24
 71
     3
 72
    14
 73
    10
 74
     0
 42
0.00000001
 43
0.00000001
 40
0.0
 40
0.0
 40
0.0
 40
0.0
 40
0.25
 40
0.25
 40
0.5
 40
0.5
 40
0.75
 40
0.75
 40
1.0
 40
1.0
 40
1.0
 40
1.0
 10
103.4888346988958
 20
110.0718154687637
 30
0.0
 10
103.4792508938361
 20
110.062231663704
 30
0.0
 10
103.4558506367502
 20
110.0388314066181
 30
0.0
 10
103.3773922941628
 20
109.9603730640307
 30
0.0
 10
103.3222380543071
 20
109.9052188241751
 30
0.0
 10
103.1885140060833
 20
109.7714947759512
 30
0.0
 10
103.110264281498
 20
109.6932450513658
 30
0.0
 10
102.9483913805469
 20
109.5313721504147
 30
0.0
 10
102.8651284557694
 20
109.4481092256372
 30
0.0
 10
102.7870789408958
 20
109.3700597107637
 30
0.0
  0
SPLINE
  5
AD
330
1F
100
AcDbEntity
  8
0
  6
Continuous
 62
     7
370
    25
100
AcDbSpline
210
0.0
220
0.0
230
1.0
 70
    24
 71
     3
 72
    14
 73
    10
 74
     0
 42
0.00000001
 43
0.00000001
 40
0.0
 40
0.0
 40
0.0
 40
0.0
 40
0.25
 40
0.25
 40
0.5
 40
0.5
 40
0.75
 40
0.75
 40
1.0
 40
1.0
 40
1.0
 40
1.0
 10
99.99609765389624
 20
118.5334148014317
 30
0.0
 10
99.98628405951632
 20
118.5334148014323
 30
0.0
 10
99.95629697518163
 20
118.5334148014338
 30
0.0
 10
99.84877748818066
 20
118.5334148014398
 30
0.0
 10
99.77106365539163
 20
118.533414801444
 30
0.0
 10
99.57992267156723
 20
118.5334148014547
 30
0.0
 10
99.46700284719128
 20
118.5334148014609
 30
0.0
 10
99.23300461343403
 20
118.5334148014739
 30
0.0
 10
99.11250132382987
 20
118.5334148014806
 30
0.0
 10
98.99990295589583
 20
118.5334148014869
 30
0.0
  0
SPLINE
  5
AE
330
1F
100
AcDbEntity
  8
0
  6
Continuous
 62
     7
370
    25
100
AcDbSpline
210
0.0
220
0.0
230
1.0
 70
    24
 71
     3
 72
    14
 73
    10
 74
     0
 42
0.00000001
 43
0.00000001
 40
0.0
 40
0.0
 40
0.0
 40
0.0
 40
0.25
 40
0.25
 40
0.5
 40
0.5
 40
0.75
 40
0.75
 40
1.0
 40
1.0
 40
1.0
 40
1.0
 10
98.99990295589583
 20
494.465015000384
 30
0.0
 10
99.11250132382898
 20
494.46501500037
 30
0.0
 10
99.23300461343187
 20
494.4650150003551
 30
0.0
 10
99.46700284718696
 20
494.465015000326
 30
0.0
 10
99.5799226715619
 20
494.4650150003121
 30
0.0
 10
99.77106365538552
 20
494.4650150002884
 30
0.0
 10
99.84877748817472
 20
494.4650150002787
 30
0.0
 10
99.95629697517724
 20
494.4650150002653
 30
0.0
 10
99.98628405951327
 20
494.4650150002615
 30
0.0
 10
99.99609765389492
 20
494.4650150002603
 30
0.0
  0
LINE
  5
AF
330
1F
100
AcDbEntity
  8
0
  6
Continuous
 62
     7
370
    25
100
AcDbLine
 10
99.9960976539
 20
494.4650149053
 30
0.0
 11
99.9960976539
 21
118.5334148942
 31
0.0
  0
SPLINE
  5
B0
330
1F
100
AcDbEntity
  8
0
  6
Continuous
 62
     7
370
    25
100
AcDbSpline
210
0.0
220
0.0
230
1.0
 70
    24
 71
     3
 72
    14
 73
    10
 74
     0
 42
0.00000001
 43
0.00000001
 40
0.0
 40
0.0
 40
0.0
 40
0.0
 40
0.25
 40
0.25
 40
0.5
 40
0.5
 40
0.75
 40
0.75
 40
1.0
 40
1.0
 40
1.0
 40
1.0
 10
600.8325653038958
 20
118.5334147991435
 30
0.0
 10
600.7199669359626
 20
118.5334147991575
 30
0.0
 10
600.5994636463597
 20
118.5334147991723
 30
0.0
 10
600.3654654126047
 20
118.5334147992014
 30
0.0
 10
600.2525455882297
 20
118.5334147992154
 30
0.0
 10
600.0614046044061
 20
118.5334147992391
 30
0.0
 10
599.9836907716169
 20
118.5334147992488
 30
0.0
 10
599.8761712846143
 20
118.5334147992621
 30
0.0
 10
599.8461842002783
 20
118.5334147992659
 30
0.0
 10
599.8363706058967
 20
118.5334147992671
 30
0.0
  0
LINE
  5
B1
330
1F
100
AcDbEntity
  8
0
  6
Continuous
 62
     7
370
    25
100
AcDbLine
 10
599.8363706059
 20
118.5334148942
 30
0.0
 11
599.8363706059
 21
494.4650149053
 31
0.0
  0
SPLINE
  5
B2
330
1F
100
AcDbEntity
  8
0
  6
Continuous
 62
     7
370
    25
100
AcDbSpline
210
0.0
220
0.0
230
1.0
 70
    24
 71
     3
 72
    14
 73
    10
 74
     0
 42
0.00000001
 43
0.00000001
 40
0.0
 40
0.0
 40
0.0
 40
0.0
 40
0.2500000000000001
 40
0.2500000000000001
 40
0.5
 40
0.5
 40
0.7499999999999999
 40
0.7499999999999999
 40
1.0
 40
1.0
 40
1.0
 40
1.0
 10
599.8363706058954
 20
494.4650149980957
 30
0.0
 10
599.8461842002754
 20
494.4650149980952
 30
0.0
 10
599.8761712846099
 20
494.4650149980936
 30
0.0
 10
599.983690771611
 20
494.4650149980877
 30
0.0
 10
600.0614046044
 20
494.4650149980833
 30
0.0
 10
600.2525455882244
 20
494.4650149980727
 30
0.0
 10
600.3654654126003
 20
494.4650149980665
 30
0.0
 10
600.5994636463577
 20
494.4650149980535
 30
0.0
 10
600.7199669359618
 20
494.4650149980469
 30
0.0
 10
600.8325653038958
 20
494.4650149980405
 30
0.0
  0
SPLINE
  5
B3
330
1F
100
AcDbEntity
  8
0
  6
Continuous
 62
     7
370
    25
100
AcDbSpline
210
0.0
220
0.0
230
1.0
 70
    24
 71
     3
 72
    14
 73
    10
 74
     0
 42
0.00000001
 43
0.00000001
 40
0.0
 40
0.0
 40
0.0
 40
0.0
 40
0.25
 40
0.25
 40
0.5
 40
0.5
 40
0.75
 40
0.75
 40
1.0
 40
1.0
 40
1.0
 40
1.0
 10
596.3436335608958
 20
502.9266143307637
 30
0.0
 10
596.3532173659555
 20
502.9361981358234
 30
0.0
 10
596.3766176230414
 20
502.9595983929094
 30
0.0
 10
596.4550759656288
 20
503.0380567354966
 30
0.0
 10
596.5102302054844
 20
503.0932109753523
 30
0.0
 10
596.6439542537082
 20
503.2269350235762
 30
0.0
 10
596.7222039782936
 20
503.3051847481615
 30
0.0
 10
596.8840768792447
 20
503.4670576491127
 30
0.0
 10
596.9673398040222
 20
503.5503205738901
 30
0.0
 10
597.0453893188958
 20
503.6283700887637
 30
0.0
  0
SPLINE
  5
B4
330
1F
100
AcDbEntity
  8
0
  6
Continuous
 62
     7
370
    25
100
AcDbSpline
210
0.0
220
0.0
230
1.0
 70
    24
 71
     3
 72
    14
 73
    10
 74
     0
 42
0.00000001
 43
0.00000001
 40
0.0
 40
0.0
 40
0.0
 40
0.0
 40
0.25
 40
0.25
 40
0.5
 40
0.5
 40
0.75
 40
0.75
 40
1.0
 40
1.0
 40
1.0
 40
1.0
 10
103.4888346988958
 20
502.9266143307637
 30
0.0
 10
103.4792508938362
 20
502.9361981358234
 30
0.0
 10
103.4558506367502
 20
502.9595983929094
 30
0.0
 10
103.3773922941629
 20
503.0380567354966
 30
0.0
 10
103.3222380543072
 20
503.0932109753523
 30
0.0
 10
103.1885140060834
 20
503.2269350235762
 30
0.0
 10
103.110264281498
 20
503.3051847481615
 30
0.0
 10
102.9483913805469
 20
503.4670576491127
 30
0.0
 10
102.8651284557694
 20
503.5503205738901
 30
0.0
 10
102.7870789408958
 20
503.6283700887637
 30
0.0
  0
SPLINE
  5
B5
330
1F
100
AcDbEntity
  8
0
  6
Continuous
 62
     7
370
    25
100
AcDbSpline
210
0.0
220
0.0
230
1.0
 70
    24
 71
     3
 72
    14
 73
    10
 74
     0
 42
0.00000001
 43
0.00000001
 40
0.0
 40
0.0
 40
0.0
 40
0.0
 40
0.25
 40
0.25
 40
0.5
 40
0.5
 40
0.75
 40
0.75
 40
1.0
 40
1.0
 40
1.0
 40
1.0
 10
596.3436335608958
 20
110.0718154687637
 30
0.0
 10
596.3532173659555
 20
110.062231663704
 30
0.0
 10
596.3766176230414
 20
110.0388314066181
 30
0.0
 10
596.4550759656289
 20
109.9603730640308
 30
0.0
 10
596.5102302054844
 20
109.905218824175
 30
0.0
 10
596.6439542537083
 20
109.7714947759512
 30
0.0
 10
596.7222039782937
 20
109.6932450513659
 30
0.0
 10
596.8840768792447
 20
109.5313721504148
 30
0.0
 10
596.9673398040222
 20
109.4481092256373
 30
0.0
 10
597.0453893188958
 20
109.3700597107637
 30
0.0
  0
SPLINE
  5
B6
330
1F
100
AcDbEntity
  8
0
  6
Continuous
 62
     7
370
    25
100
AcDbSpline
210
0.0
220
0.0
230
1.0
 70
    24
 71
     3
 72
    14
 73
    10
 74
     0
 42
0.00000001
 43
0.00000001
 40
0.0
 40
0.0
 40
0.0
 40
0.0
 40
0.2500000000000001
 40
0.2500000000000001
 40
0.5000000000000001
 40
0.5000000000000001
 40
0.7500000000000001
 40
0.7500000000000001
 40
1.0
 40
1.0
 40
1.0
 40
1.0
 10
111.9504340315638
 20
506.4193513757633
 30
0.0
 10
111.9504340315643
 20
506.4291649701433
 30
0.0
 10
111.950434031566
 20
506.459152054478
 30
0.0
 10
111.9504340315719
 20
506.566671541479
 30
0.0
 10
111.9504340315763
 20
506.6443853742679
 30
0.0
 10
111.9504340315868
 20
506.8355263580924
 30
0.0
 10
111.9504340315931
 20
506.9484461824684
 30
0.0
 10
111.9504340316062
 20
507.1824444162255
 30
0.0
 10
111.9504340316128
 20
507.3029477058295
 30
0.0
 10
111.950434031619
 20
507.4155460737637
 30
0.0
  0
SPLINE
  5
B7
330
1F
100
AcDbEntity
  8
0
  6
Continuous
 62
     7
370
    25
100
AcDbSpline
210
0.0
220
0.0
230
1.0
 70
    24
 71
     3
 72
    14
 73
    10
 74
     0
 42
0.00000001
 43
0.00000001
 40
0.0
 40
0.0
 40
0.0
 40
0.0
 40
0.25
 40
0.25
 40
0.5
 40
0.5
 40
0.75
 40
0.75
 40
1.0
 40
1.0
 40
1.0
 40
1.0
 10
587.8820342305161
 20
507.4155460737637
 30
0.0
 10
587.8820342305021
 20
507.3029477058305
 30
0.0
 10
587.8820342304871
 20
507.1824444162276
 30
0.0
 10
587.8820342304581
 20
506.9484461824726
 30
0.0
 10
587.8820342304441
 20
506.8355263580976
 30
0.0
 10
587.8820342304205
 20
506.6443853742739
 30
0.0
 10
587.8820342304108
 20
506.5666715414849
 30
0.0
 10
587.8820342303973
 20
506.4591520544823
 30
0.0
 10
587.8820342303936
 20
506.4291649701464
 30
0.0
 10
587.8820342303923
 20
506.4193513757647
 30
0.0
  0
LINE
  5
B8
330
1F
100
AcDbEntity
  8
0
  6
Continuous
 62
     7
370
    25
100
AcDbLine
 10
587.8820341107
 20
506.4193513758
 30
0.0
 11
111.9504341491
 21
506.4193513758
 31
0.0
  0
SPLINE
  5
B9
330
1F
100
AcDbEntity
  8
0
  6
Continuous
 62
     7
370
    25
100
AcDbSpline
210
0.0
220
0.0
230
1.0
 70
    24
 71
     3
 72
    14
 73
    10
 74
     0
 42
0.00000001
 43
0.00000001
 40
0.0
 40
0.0
 40
0.0
 40
0.0
 40
0.2499999999999999
 40
0.2499999999999999
 40
0.4999999999999999
 40
0.4999999999999999
 40
0.7499999999999999
 40
0.7499999999999999
 40
1.0
 40
1.0
 40
1.0
 40
1.0
 10
587.8820342282278
 20
106.5790784237641
 30
0.0
 10
587.8820342282273
 20
106.5692648293841
 30
0.0
 10
587.8820342282256
 20
106.5392777450495
 30
0.0
 10
587.8820342282196
 20
106.4317582580485
 30
0.0
 10
587.8820342282154
 20
106.3540444252596
 30
0.0
 10
587.8820342282047
 20
106.1629034414352
 30
0.0
 10
587.8820342281986
 20
106.0499836170591
 30
0.0
 10
587.8820342281855
 20
105.8159853833019
 30
0.0
 10
587.882034228179
 20
105.6954820936978
 30
0.0
 10
587.8820342281726
 20
105.5828837257637
 30
0.0
  0
SPLINE
  5
BA
330
1F
100
AcDbEntity
  8
0
  6
Continuous
 62
     7
370
    25
100
AcDbSpline
210
0.0
220
0.0
230
1.0
 70
    24
 71
     3
 72
    14
 73
    10
 74
     0
 42
0.00000001
 43
0.00000001
 40
0.0
 40
0.0
 40
0.0
 40
0.0
 40
0.2500000000000001
 40
0.2500000000000001
 40
0.5000000000000001
 40
0.5000000000000001
 40
0.7500000000000002
 40
0.7500000000000002
 40
1.0
 40
1.0
 40
1.0
 40
1.0
 10
111.9504340292755
 20
105.5828837257637
 30
0.0
 10
111.9504340292895
 20
105.6954820936968
 30
0.0
 10
111.9504340293044
 20
105.8159853832998
 30
0.0
 10
111.9504340293335
 20
106.0499836170548
 30
0.0
 10
111.9504340293475
 20
106.1629034414298
 30
0.0
 10
111.9504340293713
 20
106.3540444252533
 30
0.0
 10
111.9504340293809
 20
106.4317582580424
 30
0.0
 10
111.9504340293941
 20
106.5392777450451
 30
0.0
 10
111.950434029398
 20
106.569264829381
 30
0.0
 10
111.9504340293992
 20
106.5790784237628
 30
0.0
  0
LINE
  5
BB
330
1F
100
AcDbEntity
  8
0
  6
Continuous
 62
     7
370
    25
100
AcDbLine
 10
111.9504341491
 20
106.5790784238
 30
0.0
 11
587.8820341107
 21
106.5790784238
 31
0.0
  0
LINE
  5
BC
330
1F
100
AcDbEntity
  8
0
  6
Continuous
 62
     7
370
    25
100
AcDbLine
 10
614.4942290839
 20
82.912996943
 30
0.0
 11
614.9162341299
 21
82.4909922194
 31
0.0
  0
SPLINE
  5
BD
330
1F
100
AcDbEntity
  8
0
  6
Continuous
 62
     7
370
    25
100
AcDbSpline
210
0.0
220
0.0
230
1.0
 70
     8
 71
     3
 72
    26
 73
    22
 74
     0
 42
0.00000001
 43
0.00000001
 40
0.0
 40
0.0
 40
0.0
 40
0.0
 40
0.0260249598959855
 40
0.0518283514913737
 40
0.0774103049147971
 40
0.1027709537295106
 40
0.1279104350519736
 40
0.1528288896755493
 40
0.1775264621995612
 40
0.2020033011638941
 40
0.2262595591895587
 40
0.2502953931253625
 40
0.3759818374187608
 40
0.5000241309686467
 40
0.6240664249946325
 40
0.7497528694463224
 40
0.7980362904140734
 40
0.847201557361039
 40
0.8972498581456837
 40
0.9481823172497178
 40
1.0
 40
1.0
 40
1.0
 40
1.0
 10
614.9162341303715
 20
82.4909921082517
 30
0.0
 10
614.9152749998018
 20
82.40940081353507
 30
0.0
 10
614.9133649043976
 20
82.24691286665217
 30
0.0
 10
614.8980202492405
 20
82.00462408538456
 30
0.0
 10
614.8738551180884
 20
81.76519996981854
 30
0.0
 10
614.8402623223435
 20
81.52899886569337
 30
0.0
 10
614.7977735340539
 20
81.29635796857862
 30
0.0
 10
614.7466314960366
 20
81.06759386441308
 30
0.0
 10
614.6871648489554
 20
80.84300076595865
 30
0.0
 10
614.6196918687809
 20
80.62285738845509
 30
0.0
 10
614.5445281688458
 20
80.40740234264283
 30
0.0
 10
614.345511340606
 20
79.89957256112218
 30
0.0
 10
613.9377436219681
 20
79.13710543258517
 30
0.0
 10
613.1892286973044
 20
78.22623861105416
 30
0.0
 10
612.2782922192249
 20
77.47768319817261
 30
0.0
 10
611.4484841518208
 20
77.03387339361615
 30
0.0
 10
610.7920117545398
 20
76.79099348978158
 30
0.0
 10
610.3469094747732
 20
76.66379048312442
 30
0.0
 10
609.8851539727336
 20
76.57065807634628
 30
0.0
 10
609.409145003961
 20
76.51055854568955
 30
0.0
 10
609.0869448994674
 20
76.50301777011163
 30
0.0
 10
608.9244569213931
 20
76.49921489928794
 30
0.0
  0
LINE
  5
BE
330
1F
100
AcDbEntity
  8
0
  6
Continuous
 62
     7
370
    25
100
AcDbLine
 10
608.9244567929
 20
76.4992148998
 30
0.0
 11
608.5024521365
 21
76.9212199458
 31
0.0
  0
LINE
  5
BF
330
1F
100
AcDbEntity
  8
0
  6
Continuous
 62
     7
370
    25
100
AcDbLine
 10
91.3300161233
 20
76.9212199458
 30
0.0
 11
90.9080114669
 21
76.4992148998
 31
0.0
  0
SPLINE
  5
C0
330
1F
100
AcDbEntity
  8
0
  6
Continuous
 62
     7
370
    25
100
AcDbSpline
210
0.0
220
0.0
230
1.0
 70
     8
 71
     3
 72
    26
 73
    22
 74
     0
 42
0.00000001
 43
0.00000001
 40
0.0
 40
0.0
 40
0.0
 40
0.0
 40
0.0260249598958189
 40
0.0518283514910118
 40
0.0774103049142852
 40
0.1027709537288475
 40
0.1279104350511591
 40
0.1528288896746045
 40
0.1775264621984816
 40
0.2020033011627098
 40
0.2262595591882575
 40
0.2502953931239805
 40
0.3759818370996394
 40
0.5000241309668989
 40
0.6240664249930095
 40
0.7497528694451006
 40
0.7980362902091642
 40
0.8472015570544373
 40
0.8972498578393747
 40
0.9481823170456158
 40
1.0
 40
1.0
 40
1.0
 40
1.0
 10
90.90801133732246
 20
76.4992148992909
 30
0.0
 10
90.82642004260593
 20
76.50017402987567
 30
0.0
 10
90.66393209572327
 20
76.50208412530988
 30
0.0
 10
90.4216433144583
 20
76.51742878051132
 30
0.0
 10
90.1822191988964
 20
76.54159391170745
 30
0.0
 10
89.94601809477709
 20
76.57518670749566
 30
0.0
 10
89.71337719766976
 20
76.6176754958278
 30
0.0
 10
89.48461309351313
 20
76.66881753388718
 30
0.0
 10
89.260019995069
 20
76.72828418100944
 30
0.0
 10
89.03987661757728
 20
76.79575716122424
 30
0.0
 10
88.82442157177789
 20
76.87092086119887
 30
0.0
 10
88.31659179121759
 20
77.06993768916972
 30
0.0
 10
87.55412466268004
 20
77.4777054077318
 30
0.0
 10
86.64325784105542
 20
78.22622033237384
 30
0.0
 10
85.89470242770247
 20
79.1371568113663
 30
0.0
 10
85.45089262358957
 20
79.96696487829236
 30
0.0
 10
85.20801272010937
 20
80.6234372746842
 30
0.0
 10
85.08080971362025
 20
81.0685395535047
 30
0.0
 10
84.9876773067057
 20
81.53029505552203
 30
0.0
 10
84.9275777758155
 20
82.00630402524295
 30
0.0
 10
84.92003700024198
 20
82.32850413070148
 30
0.0
 10
84.9162341294169
 20
82.49099210941807
 30
0.0
  0
LINE
  5
C1
330
1F
100
AcDbEntity
  8
0
  6
Continuous
 62
     7
370
    25
100
AcDbLine
 10
84.9162341299
 20
82.4909922194
 30
0.0
 11
85.3382391759
 21
82.912996943
 31
0.0
  0
LINE
  5
C2
330
1F
100
AcDbEntity
  8
0
  6
Continuous
 62
     7
370
    25
100
AcDbLine
 10
608.5024521365
 20
536.0772098538
 30
0.0
 11
608.9244567929
 21
536.4992148998
 31
0.0
  0
SPLINE
  5
C3
330
1F
100
AcDbEntity
  8
0
  6
Continuous
 62
     7
370
    25
100
AcDbSpline
210
0.0
220
0.0
230
1.0
 70
     8
 71
     3
 72
    26
 73
    22
 74
     0
 42
0.00000001
 43
0.00000001
 40
0.0
 40
0.0
 40
0.0
 40
0.0
 40
0.0260249600107571
 40
0.0518283516954365
 40
0.0774103051826606
 40
0.1027709540356933
 40
0.1279104353709777
 40
0.1528288899818828
 40
0.1775264624677206
 40
0.2020033013683607
 40
0.2262595593048311
 40
0.2502953931259255
 40
0.3759818375782364
 40
0.5000241316045169
 40
0.6240664256306839
 40
0.7497528700826124
 40
0.7980362908210776
 40
0.8472015575897823
 40
0.8972498582471887
 40
0.9481823172749826
 40
1.0
 40
1.0
 40
1.0
 40
1.0
 10
608.924456918545
 20
536.499214898899
 30
0.0
 10
609.0060482136037
 20
536.498255768358
 30
0.0
 10
609.1685361610913
 20
536.4963456730119
 30
0.0
 10
609.4108249431475
 20
536.4810010178534
 30
0.0
 10
609.6502490592597
 20
536.456835886668
 30
0.0
 10
609.88645016369
 20
536.4232430908828
 30
0.0
 10
610.1190910608709
 20
536.3807543025756
 30
0.0
 10
610.3478551648682
 20
536.3296122645908
 30
0.0
 10
610.5724482629266
 20
536.2701456176197
 30
0.0
 10
610.7925916398152
 20
536.2026726376586
 30
0.0
 10
611.0080466848041
 20
536.1275089380653
 30
0.0
 10
611.515876466157
 20
535.9284921101184
 30
0.0
 10
612.2783435961242
 20
535.520724391046
 30
0.0
 10
613.1892104189346
 20
534.7722094650928
 30
0.0
 10
613.9377658321185
 20
533.8612729856627
 30
0.0
 10
614.3815756358064
 20
533.031464918846
 30
0.0
 10
614.6244555389071
 20
532.3749925228277
 30
0.0
 10
614.7516585450587
 20
531.9298902447727
 30
0.0
 10
614.8447909516755
 20
531.4681347440313
 30
0.0
 10
614.9048904824031
 20
530.992125776101
 30
0.0
 10
614.91243125812
 20
530.6699256720008
 30
0.0
 10
614.9162341290157
 20
530.5074376940435
 30
0.0
  0
LINE
  5
C4
330
1F
100
AcDbEntity
  8
0
  6
Continuous
 62
     7
370
    25
100
AcDbLine
 10
614.9162341299
 20
530.5074375802
 30
0.0
 11
614.4942290839
 21
530.0854328565
 31
0.0
  0
LINE
  5
C5
330
1F
100
AcDbEntity
  8
0
  6
Continuous
 62
     7
370
    25
100
AcDbLine
 10
85.3382391759
 20
530.0854328565
 30
0.0
 11
84.9162341299
 21
530.5074375802
 31
0.0
  0
SPLINE
  5
C6
330
1F
100
AcDbEntity
  8
0
  6
Continuous
 62
     7
370
    25
100
AcDbSpline
210
0.0
220
0.0
230
1.0
 70
     8
 71
     3
 72
    26
 73
    22
 74
     0
 42
0.00000001
 43
0.00000001
 40
0.0
 40
0.0
 40
0.0
 40
0.0
 40
0.0260249600105811
 40
0.0518283516950694
 40
0.0774103051821393
 40
0.1027709540350147
 40
0.1279104353701532
 40
0.1528288899809188
 40
0.1775264624666163
 40
0.2020033013671546
 40
0.2262595593035011
 40
0.250295393124508
 40
0.3759818375764346
 40
0.5000241316026065
 40
0.6240664256288789
 40
0.749752870081194
 40
0.7980362908198697
 40
0.8472015575888195
 40
0.8972498582465118
 40
0.9481823172746124
 40
1.0
 40
1.0
 40
1.0
 40
1.0
 10
84.91623413067173
 20
530.5074376891278
 30
0.0
 10
84.91719326122183
 20
530.5890289841866
 30
0.0
 10
84.9191033565862
 20
530.751516931674
 30
0.0
 10
84.93444801177164
 20
530.9938057137286
 30
0.0
 10
84.95861314298358
 20
531.2332298298385
 30
0.0
 10
84.99220593879481
 20
531.4694309342653
 30
0.0
 10
85.03469472712771
 20
531.702071831442
 30
0.0
 10
85.08583676513798
 20
531.930835935434
 30
0.0
 10
85.14530341213388
 20
532.1554290334866
 30
0.0
 10
85.21277639211932
 20
532.3755724103681
 30
0.0
 10
85.2879400917364
 20
532.5910274553495
 30
0.0
 10
85.48695691973963
 20
533.0988572366829
 30
0.0
 10
85.89472463889747
 20
533.8613243666096
 30
0.0
 10
86.6432395649544
 20
534.7721911893445
 30
0.0
 10
87.55417604447346
 20
535.5207466024365
 30
0.0
 10
88.38398411134668
 20
535.964556406038
 30
0.0
 10
89.04045650739911
 20
536.2074363090697
 30
0.0
 10
89.48555878547366
 20
536.334639315174
 30
0.0
 10
89.9473142862312
 20
536.4277717217412
 30
0.0
 10
90.42332325417502
 20
536.4878712524168
 30
0.0
 10
90.74552335828056
 20
536.4954120280981
 30
0.0
 10
90.90801133624055
 20
536.4992148989759
 30
0.0
  0
LINE
  5
C7
330
1F
100
AcDbEntity
  8
0
  6
Continuous
 62
     7
370
    25
100
AcDbLine
 10
90.9080114669
 20
536.4992148998
 30
0.0
 11
91.3300161233
 21
536.0772098538
 31
0.0
  0
SPLINE
  5
C8
330
1F
100
AcDbEntity
  8
0
  6
Continuous
 62
     7
370
    25
100
AcDbSpline
210
0.0
220
0.0
230
1.0
 70
     8
 71
     3
 72
    28
 73
    24
 74
     0
 42
0.00000001
 43
0.00000001
 40
0.0
 40
0.0
 40
0.0
 40
0.0
 40
0.0451552760642377
 40
0.0868213415770927
 40
0.124998202509122
 40
0.1924077001932839
 40
0.24999498158641
 40
0.3124926177940071
 40
0.3749900784263555
 40
0.4062393160384276
 40
0.4374896587983618
 40
0.4687422337632798
 40
0.4999986007004444
 40
0.531255186597392
 40
0.562507970688805
 40
0.5937585095525213
 40
0.6250079346124626
 40
0.6875057496925027
 40
0.7500037263544527
 40
0.8075912748176929
 40
0.8750011594822377
 40
0.9335751790643474
 40
0.9999999999999999
 40
0.9999999999999999
 40
0.9999999999999999
 40
0.9999999999999999
 10
127.8903320951526
 20
490.4794534653471
 30
0.0
 10
134.5728307887022
 20
490.4600628617555
 30
0.0
 10
147.4214622716717
 20
490.4227799932945
 30
0.0
 10
165.9201195569358
 20
490.3697817075758
 30
0.0
 10
187.7124859344306
 20
490.3080848315063
 30
0.0
 10
211.8616407672509
 20
490.2412131885685
 30
0.0
 10
239.6113122002552
 20
490.1675008596074
 30
0.0
 10
266.6356167551051
 20
490.1005060345198
 30
0.0
 10
289.7639120879979
 20
490.0504723423981
 30
0.0
 10
308.2687773470142
 20
490.0184145845988
 30
0.0
 10
322.1491755147638
 20
489.9996839739095
 30
0.0
 10
336.0316344065972
 20
489.987646276536
 30
0.0
 10
349.9156447454856
 20
489.9834769787407
 30
0.0
 10
363.7996860818897
 20
489.9876455647739
 30
0.0
 10
377.6822374634158
 20
489.999682765636
 30
0.0
 10
391.562723459496
 20
490.018413068125
 30
0.0
 10
410.0676980601836
 20
490.0504706144617
 30
0.0
 10
433.1961242038095
 20
490.100504036042
 30
0.0
 10
460.2205706630059
 20
490.1675004119067
 30
0.0
 10
487.9703912793323
 20
490.2412079952941
 30
0.0
 10
515.1383463333082
 20
490.316459823159
 30
0.0
 10
543.6134427629967
 20
490.3973441798082
 30
0.0
 10
562.1119596218973
 20
490.4509611956473
 30
0.0
 10
571.9421361646391
 20
490.4794534653471
 30
0.0
  0
SPLINE
  5
C9
330
1F
100
AcDbEntity
  8
0
  6
Continuous
 62
     7
370
    25
100
AcDbSpline
210
0.0
220
0.0
230
1.0
 70
     8
 71
     3
 72
    12
 73
     8
 74
     0
 42
0.00000001
 43
0.00000001
 40
0.0
 40
0.0
 40
0.0
 40
0.0
 40
0.2500000000000008
 40
0.2500000000000008
 40
0.5000000000000017
 40
0.5000000000000017
 40
1.0
 40
1.0
 40
1.0
 40
1.0
 10
372.9162341298958
 20
503.7870663305597
 30
0.0
 10
373.04854351458
 20
503.7870663305597
 30
0.0
 10
373.1783857237996
 20
503.7847829529913
 30
0.0
 10
373.4206942388915
 20
503.7759851975215
 30
0.0
 10
373.5316239507216
 20
503.7694753019466
 30
0.0
 10
373.808041498913
 20
503.7452629937545
 30
0.0
 10
373.9162341298959
 20
503.7226382464887
 30
0.0
 10
373.9162341298959
 20
503.6995776670354
 30
0.0
  0
LINE
  5
CA
330
1F
100
AcDbEntity
  8
0
  6
Continuous
 62
     7
370
    25
100
AcDbLine
 10
372.9162341299
 20
503.7870663306
 30
0.0
 11
326.9162341299
 21
503.7870663306
 31
0.0
  0
SPLINE
  5
CB
330
1F
100
AcDbEntity
  8
0
  6
Continuous
 62
     7
370
    25
100
AcDbSpline
210
0.0
220
0.0
230
1.0
 70
     8
 71
     3
 72
    12
 73
     8
 74
     0
 42
0.00000001
 43
0.00000001
 40
0.0
 40
0.0
 40
0.0
 40
0.0
 40
0.2500000000000008
 40
0.2500000000000008
 40
0.5000000000000017
 40
0.5000000000000017
 40
1.0
 40
1.0
 40
1.0
 40
1.0
 10
325.9162341298958
 20
503.6995776670354
 30
0.0
 10
325.9162341298958
 20
503.7111087141832
 30
0.0
 10
325.942094718776
 20
503.7224219541396
 30
0.0
 10
326.0420926614119
 20
503.7435839818338
 30
0.0
 10
326.1160983427201
 20
503.7532812292445
 30
0.0
 10
326.3924035547146
 20
503.7775183283229
 30
0.0
 10
326.6515976629515
 20
503.7870663305597
 30
0.0
 10
326.9162341298958
 20
503.7870663305597
 30
0.0
  0
LINE
  5
CC
330
1F
100
AcDbEntity
  8
0
  6
Continuous
 62
     7
370
    25
100
AcDbLine
 10
325.9162341299
 20
503.699577667
 30
0.0
 11
325.9162341299
 21
501.7748270695
 31
0.0
  0
SPLINE
  5
CD
330
1F
100
AcDbEntity
  8
0
  6
Continuous
 62
     7
370
    25
100
AcDbSpline
210
0.0
220
0.0
230
1.0
 70
     8
 71
     3
 72
    12
 73
     8
 74
     0
 42
0.00000001
 43
0.00000001
 40
0.0
 40
0.0
 40
0.0
 40
0.0
 40
0.2500000000000008
 40
0.2500000000000008
 40
0.5000000000000017
 40
0.5000000000000017
 40
1.0
 40
1.0
 40
1.0
 40
1.0
 10
326.9162341298958
 20
501.6873384059754
 30
0.0
 10
326.7839247452116
 20
501.6873384059754
 30
0.0
 10
326.6540825359919
 20
501.6896217835438
 30
0.0
 10
326.4117740209001
 20
501.6984195390136
 30
0.0
 10
326.30084430907
 20
501.7049294345885
 30
0.0
 10
326.0244267608785
 20
501.7291417427806
 30
0.0
 10
325.9162341298958
 20
501.7517664900464
 30
0.0
 10
325.9162341298958
 20
501.7748270694997
 30
0.0
  0
LINE
  5
CE
330
1F
100
AcDbEntity
  8
0
  6
Continuous
 62
     7
370
    25
100
AcDbLine
 10
326.9162341299
 20
501.687338406
 30
0.0
 11
372.9162341299
 21
501.687338406
 31
0.0
  0
SPLINE
  5
CF
330
1F
100
AcDbEntity
  8
0
  6
Continuous
 62
     7
370
    25
100
AcDbSpline
210
0.0
220
0.0
230
1.0
 70
     8
 71
     3
 72
    12
 73
     8
 74
     0
 42
0.00000001
 43
0.00000001
 40
0.0
 40
0.0
 40
0.0
 40
0.0
 40
0.2500000000000008
 40
0.2500000000000008
 40
0.5000000000000017
 40
0.5000000000000017
 40
1.0
 40
1.0
 40
1.0
 40
1.0
 10
373.9162341298958
 20
501.7748270694997
 30
0.0
 10
373.9162341298958
 20
501.7632960223518
 30
0.0
 10
373.8903735410155
 20
501.7519827823955
 30
0.0
 10
373.7903755983797
 20
501.7308207547013
 30
0.0
 10
373.7163699170715
 20
501.7211235072906
 30
0.0
 10
373.4400647050771
 20
501.6968864082122
 30
0.0
 10
373.1808705968401
 20
501.6873384059754
 30
0.0
 10
372.9162341298958
 20
501.6873384059754
 30
0.0
  0
LINE
  5
D0
330
1F
100
AcDbEntity
  8
0
  6
Continuous
 62
     7
370
    25
100
AcDbLine
 10
373.9162341299
 20
501.7748270695
 30
0.0
 11
373.9162341299
 21
503.699577667
 31
0.0
  0
SPLINE
  5
D1
330
1F
100
AcDbEntity
  8
0
  6
Continuous
 62
     7
370
    25
100
AcDbSpline
210
0.0
220
0.0
230
1.0
 70
     8
 71
     3
 72
    23
 73
    19
 74
     0
 42
0.00000001
 43
0.00000001
 40
0.0
 40
0.0
 40
0.0
 40
0.0
 40
0.025419832702733
 40
0.0506301702835411
 40
0.0756310514018255
 40
0.1004225156968564
 40
0.1250046038209744
 40
0.1876037457744905
 40
0.2500004049741905
 40
0.3120235173979513
 40
0.3749928335823006
 40
0.4999869652705846
 40
0.6249862960555412
 40
0.7499907562783255
 40
0.8109794472812215
 40
0.8749952733458815
 40
0.9359918675732062
 40
1.0
 40
1.0
 40
1.0
 40
1.0
 10
583.8964726973214
 20
478.5251171905103
 30
0.0
 10
583.8938015209392
 20
475.6065654482159
 30
0.0
 10
583.8884811824195
 20
469.7935149288943
 30
0.0
 10
583.8817069816962
 20
461.1098809676214
 30
0.0
 10
583.8758615978617
 20
452.4983113563054
 30
0.0
 10
583.8710271836189
 20
443.958795549934
 30
0.0
 10
583.86518894738
 20
431.1022314848926
 30
0.0
 10
583.8608947791587
 20
413.9276908150016
 30
0.0
 10
583.8618666402076
 20
392.4540894002884
 30
0.0
 10
583.8692239717944
 20
370.9381464199418
 30
0.0
 10
583.8872158623609
 20
342.2353175545883
 30
0.0
 10
583.9244054021107
 20
306.3031570688468
 30
0.0
 10
583.9883288419978
 20
263.251898060913
 30
0.0
 10
584.0538470790193
 20
227.5514907795273
 30
0.0
 10
584.1121653570214
 20
198.8531840598268
 30
0.0
 10
584.1580390880505
 20
177.5029656129068
 30
0.0
 10
584.2067013968637
 20
155.8067508115421
 30
0.0
 10
584.2404072786185
 20
141.4588830472309
 30
0.0
 10
584.2576662303451
 20
134.1121190929265
 30
0.0
  0
SPLINE
  5
D2
330
1F
100
AcDbEntity
  8
0
  6
Continuous
 62
     7
370
    25
100
AcDbSpline
210
0.0
220
0.0
230
1.0
 70
     8
 71
     3
 72
    22
 73
    18
 74
     0
 42
0.00000001
 43
0.00000001
 40
0.0
 40
0.0
 40
0.0
 40
0.0
 40
0.0430065738049226
 40
0.0846746858516386
 40
0.1250043542265362
 40
0.189018130042377
 40
0.2500049598026674
 40
0.3750015522469716
 40
0.4999946876946748
 40
0.62498638335681
 40
0.6879568295370055
 40
0.7499808684859398
 40
0.8123810687961442
 40
0.8749836313290882
 40
0.9160739292075601
 40
0.9577459909007603
 40
1.0
 40
1.0
 40
1.0
 40
1.0
 10
115.5748020313485
 20
134.1121190929265
 30
0.0
 10
115.586433587851
 20
139.0483422542434
 30
0.0
 10
115.6093347005342
 20
148.7671621577777
 30
0.0
 10
115.6421495157895
 20
163.1152593508519
 30
0.0
 10
115.679546278916
 20
179.8748559023497
 30
0.0
 10
115.7202950675695
 20
198.8523717080409
 30
0.0
 10
115.7786204369211
 20
227.5493228024023
 30
0.0
 10
115.8441312518121
 20
263.2479029793573
 30
0.0
 10
115.9080553778597
 20
306.2972663938424
 30
0.0
 10
115.9452466636519
 20
342.2285649201611
 30
0.0
 10
115.9632407653302
 20
370.9313496360849
 30
0.0
 10
115.9706014607896
 20
392.4479350179648
 30
0.0
 10
115.9715705370038
 20
413.9224418173684
 30
0.0
 10
115.9668185917156
 20
432.9932553904531
 30
0.0
 10
115.9585565946029
 20
449.6838362791121
 30
0.0
 10
115.9489650013288
 20
464.0378445206881
 30
0.0
 10
115.9403386451378
 20
473.6737543467133
 30
0.0
 10
115.9359955592582
 20
478.5251171905103
 30
0.0
  0
SPLINE
  5
D3
330
1F
100
AcDbEntity
  8
0
  6
Continuous
 62
     7
370
    25
100
AcDbSpline
210
0.0
220
0.0
230
1.0
 70
     8
 71
     3
 72
    25
 73
    21
 74
     0
 42
0.00000001
 43
0.00000001
 40
0.0
 40
0.0
 40
0.0
 40
0.0
 40
0.0259674563668956
 40
0.0514515013717125
 40
0.0764521490344263
 40
0.1009694142042915
 40
0.1250033126265316
 40
0.1887932593878726
 40
0.2499993338626641
 40
0.3133868687138372
 40
0.3749896698703746
 40
0.4999782604638042
 40
0.6249712970536764
 40
0.6865804582699269
 40
0.7499744583651293
 40
0.8111885091793141
 40
0.8749870252444344
 40
0.9153150771468536
 40
0.9569860457954102
 40
1.0
 40
1.0
 40
1.0
 40
1.0
 10
572.3033297177667
 20
122.1577828094099
 30
0.0
 10
568.4539967872719
 20
122.1651708600247
 30
0.0
 10
560.8269902851636
 20
122.1798094249644
 30
0.0
 10
549.4937431969466
 20
122.2006587182137
 30
0.0
 10
538.3753098001773
 20
122.2204282670268
 30
0.0
 10
527.4716742236666
 20
122.2390568856378
 30
0.0
 10
510.8174877985371
 20
122.2663289994963
 30
0.0
 10
488.7236633184559
 20
122.2994836229615
 30
0.0
 10
460.794502109258
 20
122.3352583078982
 30
0.0
 10
433.18853789522
 20
122.3637442696557
 30
0.0
 10
396.1248355193914
 20
122.3919030343748
 30
0.0
 10
349.9252463913395
 20
122.4065164948774
 30
0.0
 10
303.7247137583189
 20
122.3919123523046
 30
0.0
 10
266.6584500382658
 20
122.3637574247972
 30
0.0
 10
239.0494010974764
 20
122.3352725550689
 30
0.0
 10
211.1168285080788
 20
122.2994925495424
 30
0.0
 10
186.6049256361718
 20
122.2627213211029
 30
0.0
 10
164.9910600393129
 20
122.2267515675387
 30
0.0
 10
146.4588687402824
 20
122.1938987886146
 30
0.0
 10
133.9054087694048
 20
122.1699480775106
 30
0.0
 10
127.5291385420249
 20
122.1577828094099
 30
0.0
  0
LINE
  5
D4
330
1F
100
AcDbEntity
  8
0
  6
Continuous
 62
     7
370
    25
100
AcDbLine
 10
90.9080114669
 20
76.4992148998
 30
0.0
 11
608.9244567929
 21
76.4992148998
 31
0.0
  0
LINE
  5
D5
330
1F
100
AcDbEntity
  8
0
  6
Continuous
 62
     7
370
    25
100
AcDbLine
 10
608.9244567929
 20
536.4992148998
 30
0.0
 11
90.9080114669
 21
536.4992148998
 31
0.0
  0
LINE
  5
D6
330
1F
100
AcDbEntity
  8
0
  6
Continuous
 62
     7
370
    25
100
AcDbLine
 10
84.9162341299
 20
530.5074375802
 30
0.0
 11
84.9162341299
 21
82.4909922194
 31
0.0
  0
LINE
  5
D7
330
1F
100
AcDbEntity
  8
0
  6
Continuous
 62
     7
370
    25
100
AcDbLine
 10
614.9162341299
 20
82.4909922194
 30
0.0
 11
614.9162341299
 21
530.5074375802
 31
0.0
  0
SPLINE
  5
D8
330
1F
100
AcDbEntity
  8
0
  6
Continuous
 62
     7
370
    25
100
AcDbSpline
210
0.0
220
0.0
230
1.0
 70
     8
 71
     3
 72
    10
 73
     6
 74
     0
 42
0.00000001
 43
0.00000001
 40
0.0
 40
0.0
 40
0.0
 40
0.0
 40
0.4999999999999998
 40
0.4999999999999998
 40
0.9999999999999999
 40
0.9999999999999999
 40
0.9999999999999999
 40
0.9999999999999999
 10
572.5681869455276
 20
133.7877133019634
 30
0.0
 10
572.5607247013701
 20
130.843261360465
 30
0.0
 10
572.5296076431337
 20
128.0306500822512
 30
0.0
 10
572.4319287381691
 20
123.7415489785398
 30
0.0
 10
572.3687688441155
 20
122.4144396050074
 30
0.0
 10
572.3033298462452
 20
122.1577827937364
 30
0.0
  0
SPLINE
  5
D9
330
1F
100
AcDbEntity
  8
0
  6
Continuous
 62
     7
370
    25
100
AcDbSpline
210
0.0
220
0.0
230
1.0
 70
     8
 71
     3
 72
    10
 73
     6
 74
     0
 42
0.00000001
 43
0.00000001
 40
0.0
 40
0.0
 40
0.0
 40
0.0
 40
0.5
 40
0.5
 40
1.0
 40
1.0
 40
1.0
 40
1.0
 10
584.2576662354189
 20
134.1121191802195
 30
0.0
 10
584.000144608149
 20
134.0317322538399
 30
0.0
 10
582.6647301620986
 20
133.9541653536898
 30
0.0
 10
578.3506279155595
 20
133.8344406331408
 30
0.0
 10
575.5232816541678
 20
133.7964828345402
 30
0.0
 10
572.5681870617105
 20
133.7877134180337
 30
0.0
  0
SPLINE
  5
DA
330
1F
100
AcDbEntity
  8
0
  6
Continuous
 62
     7
370
    25
100
AcDbSpline
210
0.0
220
0.0
230
1.0
 70
     8
 71
     3
 72
    10
 73
     6
 74
     0
 42
0.00000001
 43
0.00000001
 40
0.0
 40
0.0
 40
0.0
 40
0.0
 40
0.4999999999999999
 40
0.4999999999999999
 40
1.0
 40
1.0
 40
1.0
 40
1.0
 10
127.2642811980982
 20
133.7877134187426
 30
0.0
 10
124.3091866056398
 20
133.7964828347185
 30
0.0
 10
121.4818403442468
 20
133.8344406328071
 30
0.0
 10
117.1677380977058
 20
133.9541653525658
 30
0.0
 10
115.8323236516548
 20
134.0317322524653
 30
0.0
 10
115.5748020243846
 20
134.112119178787
 30
0.0
  0
SPLINE
  5
DB
330
1F
100
AcDbEntity
  8
0
  6
Continuous
 62
     7
370
    25
100
AcDbSpline
210
0.0
220
0.0
230
1.0
 70
     8
 71
     3
 72
    10
 73
     6
 74
     0
 42
0.00000001
 43
0.00000001
 40
0.0
 40
0.0
 40
0.0
 40
0.0
 40
0.5
 40
0.5
 40
1.0
 40
1.0
 40
1.0
 40
1.0
 10
127.5291384150116
 20
122.1577827937582
 30
0.0
 10
127.4636994170811
 20
122.414439605029
 30
0.0
 10
127.4005395227761
 20
123.7415489785609
 30
0.0
 10
127.3028606170222
 20
128.0306500822708
 30
0.0
 10
127.2717435582752
 20
130.8432613604836
 30
0.0
 10
127.2642813135889
 20
133.787713301981
 30
0.0
  0
SPLINE
  5
DC
330
1F
100
AcDbEntity
  8
0
  6
Continuous
 62
     7
370
    25
100
AcDbSpline
210
0.0
220
0.0
230
1.0
 70
     8
 71
     3
 72
    10
 73
     6
 74
     0
 42
0.00000001
 43
0.00000001
 40
0.0
 40
0.0
 40
0.0
 40
0.0
 40
0.5000000000000002
 40
0.5000000000000002
 40
1.0
 40
1.0
 40
1.0
 40
1.0
 10
572.3404935931349
 20
478.6543454084496
 30
0.0
 10
575.2713665161099
 20
478.6543454086733
 30
0.0
 10
578.0654465899057
 20
478.6427798871766
 30
0.0
 10
582.3234353311617
 20
478.6008913206114
 30
0.0
 10
583.6404055712536
 20
478.5720138031076
 30
0.0
 10
583.8963445126607
 20
478.5406630903705
 30
0.0
  0
SPLINE
  5
DD
330
1F
100
AcDbEntity
  8
0
  6
Continuous
 62
     7
370
    25
100
AcDbSpline
210
0.0
220
0.0
230
1.0
 70
     8
 71
     3
 72
    16
 73
    12
 74
     0
 42
0.00000001
 43
0.00000001
 40
0.0
 40
0.0
 40
0.0
 40
0.0
 40
0.25
 40
0.25
 40
0.5
 40
0.5
 40
0.75
 40
0.75
 40
0.875
 40
0.875
 40
1.0
 40
1.0
 40
1.0
 40
1.0
 10
572.5681869458958
 20
133.7877134177637
 30
0.0
 10
572.5168383738959
 20
162.4969467917637
 30
0.0
 10
572.4719086148958
 20
191.2110982037637
 30
0.0
 10
572.3997257428958
 20
248.6573612077637
 30
0.0
 10
572.3727077533957
 20
277.3898280607637
 30
0.0
 10
572.3373503953959
 20
334.8743057967637
 30
0.0
 10
572.3287066463959
 20
363.6274369317638
 30
0.0
 10
572.3254737278958
 20
406.7633338467637
 30
0.0
 10
572.3260241648959
 20
421.1427619127637
 30
0.0
 10
572.3305169758959
 20
449.9002008127637
 30
0.0
 10
572.3344792008958
 20
464.2781920777637
 30
0.0
 10
572.3404934778958
 20
478.6543454087637
 30
0.0
  0
SPLINE
  5
DE
330
1F
100
AcDbEntity
  8
0
  6
Continuous
 62
     7
370
    25
100
AcDbSpline
210
0.0
220
0.0
230
1.0
 70
     8
 71
     3
 72
    18
 73
    14
 74
     0
 42
0.00000001
 43
0.00000001
 40
0.0
 40
0.0
 40
0.0
 40
0.0
 40
0.25
 40
0.25
 40
0.375
 40
0.375
 40
0.5
 40
0.5
 40
0.625
 40
0.625
 40
0.75
 40
0.75
 40
1.0
 40
1.0
 40
1.0
 40
1.0
 10
127.2642813138958
 20
133.7877134177637
 30
0.0
 10
164.3537381758957
 20
133.8379054697637
 30
0.0
 10
201.4551009828964
 20
133.8759134087636
 30
0.0
 10
257.1244762008963
 20
133.9126224727638
 30
0.0
 10
275.6831806468961
 20
133.9215630797636
 30
0.0
 10
312.803351926896
 20
133.9333378384303
 30
0.0
 10
331.3647871828959
 20
133.9361997202637
 30
0.0
 10
368.4870533668957
 20
133.9361977102637
 30
0.0
 10
387.0478142122288
 20
133.933333809097
 30
0.0
 10
424.1653695268959
 20
133.9215560757638
 30
0.0
 10
442.7221351158961
 20
133.9126145227636
 30
0.0
 10
498.3841020993963
 20
133.8759062137637
 30
0.0
 10
535.4806510638958
 20
133.8379028697637
 30
0.0
 10
572.5681869458958
 20
133.7877134177637
 30
0.0
  0
SPLINE
  5
DF
330
1F
100
AcDbEntity
  8
0
  6
Continuous
 62
     7
370
    25
100
AcDbSpline
210
0.0
220
0.0
230
1.0
 70
     8
 71
     3
 72
    10
 73
     6
 74
     0
 42
0.00000001
 43
0.00000001
 40
0.0
 40
0.0
 40
0.0
 40
0.0
 40
0.5
 40
0.5
 40
1.0
 40
1.0
 40
1.0
 40
1.0
 10
115.9359955506098
 20
478.525117091503
 30
0.0
 10
116.1915866302872
 20
478.5569305235129
 30
0.0
 10
117.5084217733101
 20
478.5876459060073
 30
0.0
 10
121.7665337941206
 20
478.6352635631782
 30
0.0
 10
124.5608407432309
 20
478.6505223010842
 30
0.0
 10
127.4919746664702
 20
478.6543454089176
 30
0.0
  0
SPLINE
  5
E0
330
1F
100
AcDbEntity
  8
0
  6
Continuous
 62
     7
370
    25
100
AcDbSpline
210
0.0
220
0.0
230
1.0
 70
     8
 71
     3
 72
    16
 73
    12
 74
     0
 42
0.00000001
 43
0.00000001
 40
0.0
 40
0.0
 40
0.0
 40
0.0
 40
0.125
 40
0.125
 40
0.25
 40
0.25
 40
0.5
 40
0.5
 40
0.75
 40
0.75
 40
1.0
 40
1.0
 40
1.0
 40
1.0
 10
127.4919747818958
 20
478.6543454087637
 30
0.0
 10
127.4979897338958
 20
464.2765777007639
 30
0.0
 10
127.5019520748958
 20
449.897221074764
 30
0.0
 10
127.5064445728958
 20
421.1376127467642
 30
0.0
 10
127.5069945828958
 20
406.757382019764
 30
0.0
 10
127.5037600548958
 20
363.6199404152636
 30
0.0
 10
127.4951146623958
 20
334.8669490767639
 30
0.0
 10
127.4597559203957
 20
277.3845224287641
 30
0.0
 10
127.4327392158959
 20
248.6544933537639
 30
0.0
 10
127.3605592318958
 20
191.2110095097637
 30
0.0
 10
127.3156303238958
 20
162.4971918517637
 30
0.0
 10
127.2642813138958
 20
133.7877134177637
 30
0.0
  0
SPLINE
  5
E1
330
1F
100
AcDbEntity
  8
0
  6
Continuous
 62
     7
370
    25
100
AcDbSpline
210
0.0
220
0.0
230
1.0
 70
     8
 71
     3
 72
    10
 73
     6
 74
     0
 42
0.00000001
 43
0.00000001
 40
0.0
 40
0.0
 40
0.0
 40
0.0
 40
0.5000000000000001
 40
0.5000000000000001
 40
0.9999999999999999
 40
0.9999999999999999
 40
0.9999999999999999
 40
0.9999999999999999
 10
571.9421363228139
 20
490.4794534801373
 30
0.0
 10
572.0415133424491
 20
490.2199396472752
 30
0.0
 10
572.1373466171416
 20
488.8655021361341
 30
0.0
 10
572.2846011422492
 20
484.4942974658177
 30
0.0
 10
572.3307713551061
 20
481.6334057195157
 30
0.0
 10
572.3404934778202
 20
478.6543455240667
 30
0.0
  0
SPLINE
  5
E2
330
1F
100
AcDbEntity
  8
0
  6
Continuous
 62
     7
370
    25
100
AcDbSpline
210
0.0
220
0.0
230
1.0
 70
     8
 71
     3
 72
    10
 73
     6
 74
     0
 42
0.00000001
 43
0.00000001
 40
0.0
 40
0.0
 40
0.0
 40
0.0
 40
0.4999999999999999
 40
0.4999999999999999
 40
1.0
 40
1.0
 40
1.0
 40
1.0
 10
127.491974782603
 20
478.6543455242578
 30
0.0
 10
127.5016969060075
 20
481.6334057197036
 30
0.0
 10
127.5478671194207
 20
484.4942974659605
 30
0.0
 10
127.6951216451558
 20
488.8655021361204
 30
0.0
 10
127.7909549198971
 20
490.2199396471557
 30
0.0
 10
127.8903319393068
 20
490.4794534799051
 30
0.0
  0
SPLINE
  5
E3
330
1F
100
AcDbEntity
  8
0
  6
Continuous
 62
     7
370
    25
100
AcDbSpline
210
0.0
220
0.0
230
1.0
 70
     8
 71
     3
 72
    30
 73
    26
 74
     0
 42
0.00000001
 43
0.00000001
 40
0.0
 40
0.0
 40
0.0
 40
0.0
 40
0.1250000000000001
 40
0.1250000000000001
 40
0.2500000000000002
 40
0.2500000000000002
 40
0.3125000000000001
 40
0.3125000000000001
 40
0.3750000000000001
 40
0.3750000000000001
 40
0.4375000000000001
 40
0.4375000000000001
 40
0.5000000000000001
 40
0.5000000000000001
 40
0.5625000000000001
 40
0.5625000000000001
 40
0.6250000000000001
 40
0.6250000000000001
 40
0.6875
 40
0.6875
 40
0.75
 40
0.75
 40
0.875
 40
0.875
 40
1.0
 40
1.0
 40
1.0
 40
1.0
 10
572.3404934778958
 20
478.6543454087637
 30
0.0
 10
553.8388438598961
 20
478.6101908407637
 30
0.0
 10
535.3361197718958
 20
478.5685787662637
 30
0.0
 10
498.3246807518959
 20
478.4955460802637
 30
0.0
 10
479.816406863396
 20
478.4639927282637
 30
0.0
 10
452.040103704896
 20
478.4325701327637
 30
0.0
 10
442.7789177508961
 20
478.4248388137636
 30
0.0
 10
424.2472933028961
 20
478.4166792724304
 30
0.0
 10
414.9768328473956
 20
478.4163926532636
 30
0.0
 10
396.419388557396
 20
478.4230241512637
 30
0.0
 10
387.1319329093964
 20
478.4301198522637
 30
0.0
 10
368.535904655396
 20
478.4436536702636
 30
0.0
 10
359.2268947188957
 20
478.4493244832637
 30
0.0
 10
340.604322490896
 20
478.4493240332638
 30
0.0
 10
331.2954441638963
 20
478.4436529087637
 30
0.0
 10
312.699537603896
 20
478.4301190727637
 30
0.0
 10
303.4121392878956
 20
478.4230236012637
 30
0.0
 10
284.854805031896
 20
478.4163925712638
 30
0.0
 10
275.5843973322296
 20
478.4166794247637
 30
0.0
 10
257.0528758908961
 20
478.4248393007637
 30
0.0
 10
247.791740177896
 20
478.4325707257637
 30
0.0
 10
220.0155856483956
 20
478.4639934937637
 30
0.0
 10
201.5074081458958
 20
478.4955467742637
 30
0.0
 10
164.4961600618959
 20
478.5685791922638
 30
0.0
 10
145.9935304098958
 20
478.6101910667637
 30
0.0
 10
127.4919747818958
 20
478.6543454087637
 30
0.0
  0
SPLINE
  5
E4
330
1F
100
AcDbEntity
  8
0
  6
Continuous
 62
     7
370
    25
100
AcDbSpline
210
0.0
220
0.0
230
1.0
 70
     8
 71
     3
 72
    22
 73
    18
 74
     0
 42
0.00000001
 43
0.00000001
 40
0.0
 40
0.0
 40
0.0
 40
0.0
 40
0.125
 40
0.125
 40
0.25
 40
0.25
 40
0.375
 40
0.375
 40
0.5
 40
0.5
 40
0.625
 40
0.625
 40
0.75
 40
0.75
 40
0.875
 40
0.875
 40
1.0
 40
1.0
 40
1.0
 40
1.0
 10
299.6703346469127
 20
367.588590341784
 30
0.0
 10
301.5807911096363
 20
365.1215879617718
 30
0.0
 10
303.6245230291338
 20
362.8587711366159
 30
0.0
 10
307.8718203603605
 20
358.7532399986719
 30
0.0
 10
310.0751251076765
 20
356.9102417540506
 30
0.0
 10
314.5469743923298
 20
353.6277132057315
 30
0.0
 10
316.8154130704122
 20
352.1878812344226
 30
0.0
 10
321.3413394621999
 20
349.6761499168795
 30
0.0
 10
323.5988381209037
 20
348.6039906783579
 30
0.0
 10
328.0463540472574
 20
346.7817914329794
 30
0.0
 10
330.2364516799714
 20
346.0315590022645
 30
0.0
 10
334.5107426291909
 20
344.8039794383774
 30
0.0
 10
336.5950454211738
 20
344.3265083599425
 30
0.0
 10
340.6344373050193
 20
343.5965301017242
 30
0.0
 10
342.5896377694717
 20
343.3439555255167
 30
0.0
 10
346.3592224797532
 20
343.0199783812169
 30
0.0
 10
348.1737051937606
 20
342.9485491413523
 30
0.0
 10
349.9162341298958
 20
342.9485491413523
 30
0.0
  0
SPLINE
  5
E5
330
1F
100
AcDbEntity
  8
0
  6
Continuous
 62
     7
370
    25
100
AcDbSpline
210
0.0
220
0.0
230
1.0
 70
     8
 71
     3
 72
    22
 73
    18
 74
     0
 42
0.00000001
 43
0.00000001
 40
0.0
 40
0.0
 40
0.0
 40
0.0
 40
0.125
 40
0.125
 40
0.25
 40
0.25
 40
0.375
 40
0.375
 40
0.4999999999999999
 40
0.4999999999999999
 40
0.6249999999999999
 40
0.6249999999999999
 40
0.75
 40
0.75
 40
0.875
 40
0.875
 40
1.0
 40
1.0
 40
1.0
 40
1.0
 10
349.9162341298958
 20
342.9485491413523
 30
0.0
 10
351.6587703213987
 20
342.9485491413523
 30
0.0
 10
353.473260892521
 20
343.0199789740658
 30
0.0
 10
357.2428624641039
 20
343.3439589795082
 30
0.0
 10
359.1980719348613
 20
343.5965358247079
 30
0.0
 10
363.2374827714507
 20
344.3265208734684
 30
0.0
 10
365.3217955122464
 20
344.8039964752687
 30
0.0
 10
369.5961068700092
 20
346.0315879669579
 30
0.0
 10
371.7862149645568
 20
346.7818278054914
 30
0.0
 10
376.2337516043831
 20
348.6040453512047
 30
0.0
 10
378.4912605155952
 20
349.6762154874321
 30
0.0
 10
383.0172061403815
 20
352.187972535781
 30
0.0
 10
385.2856537972281
 20
353.6278193468341
 30
0.0
 10
389.757518372121
 20
356.9103816280522
 30
0.0
 10
391.9608294252121
 20
358.7533987725344
 30
0.0
 10
396.2081350783744
 20
362.8589713420146
 30
0.0
 10
398.2518690038114
 20
365.1218107030019
 30
0.0
 10
400.1623245220546
 20
367.5888368670446
 30
0.0
  0
SPLINE
  5
E6
330
1F
100
AcDbEntity
  8
0
  6
Continuous
 62
     7
370
    25
100
AcDbSpline
210
0.0
220
0.0
230
1.0
 70
     8
 71
     3
 72
    22
 73
    18
 74
     0
 42
0.00000001
 43
0.00000001
 40
0.0
 40
0.0
 40
0.0
 40
0.0
 40
0.1250000000000001
 40
0.1250000000000001
 40
0.2500000000000002
 40
0.2500000000000002
 40
0.3750000000000003
 40
0.3750000000000003
 40
0.5000000000000004
 40
0.5000000000000004
 40
0.6250000000000006
 40
0.6250000000000006
 40
0.7500000000000007
 40
0.7500000000000007
 40
0.8750000000000003
 40
0.8750000000000003
 40
1.0
 40
1.0
 40
1.0
 40
1.0
 10
400.1623245220546
 20
367.5888368670446
 30
0.0
 10
402.1485492189532
 20
370.153705950949
 30
0.0
 10
403.9902409952574
 20
372.939605796938
 30
0.0
 10
407.2620457061772
 20
378.9002388994023
 30
0.0
 10
408.6915274218088
 20
382.0749270346965
 30
0.0
 10
411.0296571898447
 20
388.7163450199403
 30
0.0
 10
411.9377107118095
 20
392.1827021480793
 30
0.0
 10
413.1570798778102
 20
399.27276875667
 30
0.0
 10
413.4680314204609
 20
402.8958250217825
 30
0.0
 10
413.4657621242514
 20
410.1424070671389
 30
0.0
 10
413.152541999728
 20
413.7651687811853
 30
0.0
 10
411.9288298174566
 20
420.8540989085508
 30
0.0
 10
411.018703015766
 20
424.3196148862439
 30
0.0
 10
408.6767761009506
 20
430.9589178189285
 30
0.0
 10
407.2455710115452
 20
434.1323332479723
 30
0.0
 10
403.9707579956383
 20
440.09014442817
 30
0.0
 10
402.127781084511
 20
442.8744961868086
 30
0.0
 10
400.1404998001088
 20
445.4377595083384
 30
0.0
  0
SPLINE
  5
E7
330
1F
100
AcDbEntity
  8
0
  6
Continuous
 62
     7
370
    25
100
AcDbSpline
210
0.0
220
0.0
230
1.0
 70
     8
 71
     3
 72
    22
 73
    18
 74
     0
 42
0.00000001
 43
0.00000001
 40
0.0
 40
0.0
 40
0.0
 40
0.0
 40
0.125
 40
0.125
 40
0.25
 40
0.25
 40
0.375
 40
0.375
 40
0.5
 40
0.5
 40
0.625
 40
0.625
 40
0.75
 40
0.75
 40
0.875
 40
0.875
 40
1.0
 40
1.0
 40
1.0
 40
1.0
 10
299.6921596098373
 20
445.438006059091
 30
0.0
 10
297.7048531577749
 20
442.8747362612735
 30
0.0
 10
295.8618513950361
 20
440.0903739503801
 30
0.0
 10
292.5869923914942
 20
434.1325335732724
 30
0.0
 10
291.1557661898759
 20
430.9590994939838
 30
0.0
 10
288.8138038853897
 20
424.3197526332027
 30
0.0
 10
287.9036628320796
 20
420.8542113872688
 30
0.0
 10
286.6799313287884
 20
413.7652269538562
 30
0.0
 10
286.3667061519181
 20
410.1424362262971
 30
0.0
 10
286.3644368230323
 20
402.8957961168269
 30
0.0
 10
286.6753933853867
 20
399.2727108315468
 30
0.0
 10
287.8947818129481
 20
392.1825898918795
 30
0.0
 10
288.8028495597658
 20
388.7162074771659
 30
0.0
 10
291.1410146738398
 20
382.0747455196471
 30
0.0
 10
292.5705174848289
 20
378.9000387083209
 30
0.0
 10
295.8423681608612
 20
372.9393763550951
 30
0.0
 10
297.6840847830862
 20
370.1534659288324
 30
0.0
 10
299.6703346469127
 20
367.5885903417839
 30
0.0
  0
SPLINE
  5
E8
330
1F
100
AcDbEntity
  8
0
  6
Continuous
 62
     7
370
    25
100
AcDbSpline
210
0.0
220
0.0
230
1.0
 70
     8
 71
     3
 72
    22
 73
    18
 74
     0
 42
0.00000001
 43
0.00000001
 40
0.0
 40
0.0
 40
0.0
 40
0.0
 40
0.1249999999999999
 40
0.1249999999999999
 40
0.2499999999999997
 40
0.2499999999999997
 40
0.3749999999999996
 40
0.3749999999999996
 40
0.4999999999999997
 40
0.4999999999999997
 40
0.6249999999999998
 40
0.6249999999999998
 40
0.7499999999999998
 40
0.7499999999999998
 40
0.8749999999999999
 40
0.8749999999999999
 40
1.0
 40
1.0
 40
1.0
 40
1.0
 10
400.1404998001088
 20
445.4377595083384
 30
0.0
 10
398.2299376055177
 20
447.9020679257399
 30
0.0
 10
396.1864339657747
 20
450.1623323253594
 30
0.0
 10
391.9400810460085
 20
454.2631710439456
 30
0.0
 10
389.7374912743716
 20
456.1040288235316
 30
0.0
 10
385.2673750875494
 20
459.3827370779342
 30
0.0
 10
382.9999538871781
 20
460.8208884611784
 30
0.0
 10
378.476206747962
 20
463.3297057963382
 30
0.0
 10
376.2198696692213
 20
464.400630888673
 30
0.0
 10
371.7747004187052
 20
466.2207576427859
 30
0.0
 10
369.5857879804668
 20
466.9701511412246
 30
0.0
 10
365.3138090315526
 20
468.196379873097
 30
0.0
 10
363.230633283493
 20
468.6733386691328
 30
0.0
 10
359.1933884522264
 20
469.4025478717889
 30
0.0
 10
357.2392082651102
 20
469.6548654694376
 30
0.0
 10
353.4715337067102
 20
469.9785185662558
 30
0.0
 10
351.657941107016
 20
470.049880658175
 30
0.0
 10
349.9162341298958
 20
470.049880658175
 30
0.0
  0
SPLINE
  5
E9
330
1F
100
AcDbEntity
  8
0
  6
Continuous
 62
     7
370
    25
100
AcDbSpline
210
0.0
220
0.0
230
1.0
 70
     8
 71
     3
 72
    22
 73
    18
 74
     0
 42
0.00000001
 43
0.00000001
 40
0.0
 40
0.0
 40
0.0
 40
0.0
 40
0.125
 40
0.125
 40
0.25
 40
0.25
 40
0.375
 40
0.375
 40
0.5
 40
0.5
 40
0.625
 40
0.625
 40
0.75
 40
0.75
 40
0.875
 40
0.875
 40
1.0
 40
1.0
 40
1.0
 40
1.0
 10
349.9162341298958
 20
470.049880658175
 30
0.0
 10
348.1745344134392
 20
470.049880658175
 30
0.0
 10
346.3609496763033
 20
469.9785191592588
 30
0.0
 10
342.5932919904299
 20
469.6548689240685
 30
0.0
 10
340.6391208153979
 20
469.402553595742
 30
0.0
 10
336.6018949489491
 20
468.6733511842834
 30
0.0
 10
334.5187291559942
 20
468.1963969119349
 30
0.0
 10
330.2467706291222
 20
466.9701801083377
 30
0.0
 10
328.0578686599231
 20
466.2207940178625
 30
0.0
 10
323.6127201388999
 20
464.400685564199
 30
0.0
 10
321.356393321485
 20
463.3297713695304
 30
0.0
 10
316.8326654354937
 20
460.8209797653205
 30
0.0
 10
314.5652532253058
 20
459.3828432219943
 30
0.0
 10
310.0951523552487
 20
456.1041687021669
 30
0.0
 10
307.8925689045129
 20
454.2633298239393
 30
0.0
 10
303.646224341392
 20
450.1625325432729
 30
0.0
 10
301.6027227271982
 20
447.9022906843802
 30
0.0
 10
299.6921596098373
 20
445.438006059091
 30
0.0
  0
SPLINE
  5
EA
330
1F
100
AcDbEntity
  8
0
  6
Continuous
 62
     7
370
    25
100
AcDbSpline
210
0.0
220
0.0
230
1.0
 70
     8
 71
     3
 72
    54
 73
    50
 74
     0
 42
0.00000001
 43
0.00000001
 40
0.0
 40
0.0
 40
0.0
 40
0.0
 40
0.0624999999999999
 40
0.0624999999999999
 40
0.1249999999999998
 40
0.1249999999999998
 40
0.1874999999999997
 40
0.1874999999999997
 40
0.2499999999999996
 40
0.2499999999999996
 40
0.2812499999999997
 40
0.2812499999999997
 40
0.3124999999999997
 40
0.3124999999999997
 40
0.3437499999999998
 40
0.3437499999999998
 40
0.3749999999999998
 40
0.3749999999999998
 40
0.4062499999999999
 40
0.4062499999999999
 40
0.4374999999999999
 40
0.4374999999999999
 40
0.46875
 40
0.46875
 40
0.5
 40
0.5
 40
0.53125
 40
0.53125
 40
0.5625000000000001
 40
0.5625000000000001
 40
0.5937500000000002
 40
0.5937500000000002
 40
0.6250000000000002
 40
0.6250000000000002
 40
0.6562500000000002
 40
0.6562500000000002
 40
0.6875000000000003
 40
0.6875000000000003
 40
0.7187500000000004
 40
0.7187500000000004
 40
0.7500000000000004
 40
0.7500000000000004
 40
0.8125000000000003
 40
0.8125000000000003
 40
0.8750000000000002
 40
0.8750000000000002
 40
0.9375000000000001
 40
0.9375000000000001
 40
1.0
 40
1.0
 40
1.0
 40
1.0
 10
349.9162341298958
 20
465.9493203831399
 30
0.0
 10
352.3933218583546
 20
465.9493203831399
 30
0.0
 10
355.0267673837543
 20
465.7956784784527
 30
0.0
 10
360.5889147210847
 20
465.0507480314842
 30
0.0
 10
363.5184182644089
 20
464.4591044056899
 30
0.0
 10
369.6061090658693
 20
462.6835279219197
 30
0.0
 10
372.7651089931852
 20
461.4986307540979
 30
0.0
 10
379.1696989034032
 20
458.3763931728475
 30
0.0
 10
382.4156251272756
 20
456.4373035057998
 30
0.0
 10
387.1716335659165
 20
452.8702971767972
 30
0.0
 10
388.7373713614917
 20
451.5720129597643
 30
0.0
 10
391.7913056522896
 20
448.7498504678043
 30
0.0
 10
393.279446742481
 20
447.2259025368399
 30
0.0
 10
396.1353722451365
 20
443.9534878983604
 30
0.0
 10
397.5030717288383
 20
442.2049658710487
 30
0.0
 10
400.0729863286452
 20
438.4946516675549
 30
0.0
 10
401.2750911157963
 20
436.5328322027843
 30
0.0
 10
403.4693279963688
 20
432.4186380516854
 30
0.0
 10
404.4613355378834
 20
430.2662764126717
 30
0.0
 10
406.1951029430697
 20
425.8054373597171
 30
0.0
 10
406.9367416136807
 20
423.4970202072
 30
0.0
 10
408.1374695824105
 20
418.7691538302972
 30
0.0
 10
408.5964618420131
 20
416.3498099793269
 30
0.0
 10
409.2109239132492
 20
411.4533153491347
 30
0.0
 10
409.3663396129076
 20
408.9763026282377
 30
0.0
 10
409.3663396129076
 20
404.0221271712896
 30
0.0
 10
409.2109239132492
 20
401.5451144503928
 30
0.0
 10
408.5964618420131
 20
396.6486198202005
 30
0.0
 10
408.1374695824106
 20
394.2292759692302
 30
0.0
 10
406.9367416136807
 20
389.5014095923274
 30
0.0
 10
406.1951029430697
 20
387.1929924398104
 30
0.0
 10
404.4613355378834
 20
382.7321533868557
 30
0.0
 10
403.4693279963689
 20
380.5797917478419
 30
0.0
 10
401.2750911157963
 20
376.4655975967431
 30
0.0
 10
400.0729863286452
 20
374.5037781319726
 30
0.0
 10
397.5030717288383
 20
370.7934639284787
 30
0.0
 10
396.1353722451365
 20
369.044941901167
 30
0.0
 10
393.2794467424811
 20
365.7725272626875
 30
0.0
 10
391.7913056522896
 20
364.2485793317232
 30
0.0
 10
388.7373713614917
 20
361.426416839763
 30
0.0
 10
387.1716335659165
 20
360.1281326227302
 30
0.0
 10
382.4156251272756
 20
356.5611262937276
 30
0.0
 10
379.1696989034032
 20
354.6220366266799
 30
0.0
 10
372.7651089931852
 20
351.4997990454294
 30
0.0
 10
369.6061090658692
 20
350.3149018776076
 30
0.0
 10
363.5184182644089
 20
348.5393253938374
 30
0.0
 10
360.5889147210847
 20
347.9476817680431
 30
0.0
 10
355.0267673837543
 20
347.2027513210746
 30
0.0
 10
352.3933218583546
 20
347.0491094163874
 30
0.0
 10
349.9162341298958
 20
347.0491094163874
 30
0.0
  0
SPLINE
  5
EB
330
1F
100
AcDbEntity
  8
0
  6
Continuous
 62
     7
370
    25
100
AcDbSpline
210
0.0
220
0.0
230
1.0
 70
     8
 71
     3
 72
    54
 73
    50
 74
     0
 42
0.00000001
 43
0.00000001
 40
0.0
 40
0.0
 40
0.0
 40
0.0
 40
0.0624999999999999
 40
0.0624999999999999
 40
0.1249999999999998
 40
0.1249999999999998
 40
0.1874999999999997
 40
0.1874999999999997
 40
0.2499999999999996
 40
0.2499999999999996
 40
0.2812499999999997
 40
0.2812499999999997
 40
0.3124999999999997
 40
0.3124999999999997
 40
0.3437499999999998
 40
0.3437499999999998
 40
0.3749999999999998
 40
0.3749999999999998
 40
0.4062499999999999
 40
0.4062499999999999
 40
0.4374999999999999
 40
0.4374999999999999
 40
0.46875
 40
0.46875
 40
0.5
 40
0.5
 40
0.53125
 40
0.53125
 40
0.5625000000000001
 40
0.5625000000000001
 40
0.5937500000000002
 40
0.5937500000000002
 40
0.6250000000000002
 40
0.6250000000000002
 40
0.6562500000000002
 40
0.6562500000000002
 40
0.6875000000000003
 40
0.6875000000000003
 40
0.7187500000000004
 40
0.7187500000000004
 40
0.7500000000000004
 40
0.7500000000000004
 40
0.8125000000000003
 40
0.8125000000000003
 40
0.8750000000000002
 40
0.8750000000000002
 40
0.9375000000000001
 40
0.9375000000000001
 40
1.0
 40
1.0
 40
1.0
 40
1.0
 10
349.9162341298958
 20
347.0491094163874
 30
0.0
 10
347.439146401437
 20
347.0491094163874
 30
0.0
 10
344.8057008760373
 20
347.2027513210746
 30
0.0
 10
339.2435535387069
 20
347.9476817680431
 30
0.0
 10
336.3140499953827
 20
348.5393253938374
 30
0.0
 10
330.2263591939223
 20
350.3149018776076
 30
0.0
 10
327.0673592666064
 20
351.4997990454295
 30
0.0
 10
320.6627693563884
 20
354.6220366266799
 30
0.0
 10
317.4168431325161
 20
356.5611262937276
 30
0.0
 10
312.6608346938751
 20
360.1281326227302
 30
0.0
 10
311.0950968983
 20
361.426416839763
 30
0.0
 10
308.041162607502
 20
364.2485793317232
 30
0.0
 10
306.5530215173106
 20
365.7725272626875
 30
0.0
 10
303.6970960146552
 20
369.044941901167
 30
0.0
 10
302.3293965309533
 20
370.7934639284787
 30
0.0
 10
299.7594819311464
 20
374.5037781319726
 30
0.0
 10
298.5573771439953
 20
376.4655975967431
 30
0.0
 10
296.3631402634228
 20
380.5797917478419
 30
0.0
 10
295.3711327219082
 20
382.7321533868557
 30
0.0
 10
293.6373653167219
 20
387.1929924398104
 30
0.0
 10
292.8957266461109
 20
389.5014095923273
 30
0.0
 10
291.6949986773811
 20
394.2292759692302
 30
0.0
 10
291.2360064177785
 20
396.6486198202005
 30
0.0
 10
290.6215443465424
 20
401.5451144503928
 30
0.0
 10
290.4661286468841
 20
404.0221271712896
 30
0.0
 10
290.4661286468841
 20
408.9763026282377
 30
0.0
 10
290.6215443465424
 20
411.4533153491347
 30
0.0
 10
291.2360064177785
 20
416.3498099793269
 30
0.0
 10
291.694998677381
 20
418.7691538302972
 30
0.0
 10
292.8957266461109
 20
423.4970202072001
 30
0.0
 10
293.6373653167219
 20
425.805437359717
 30
0.0
 10
295.3711327219082
 20
430.2662764126717
 30
0.0
 10
296.3631402634227
 20
432.4186380516855
 30
0.0
 10
298.5573771439953
 20
436.5328322027843
 30
0.0
 10
299.7594819311464
 20
438.4946516675549
 30
0.0
 10
302.3293965309533
 20
442.2049658710487
 30
0.0
 10
303.6970960146551
 20
443.9534878983605
 30
0.0
 10
306.5530215173106
 20
447.2259025368399
 30
0.0
 10
308.041162607502
 20
448.7498504678044
 30
0.0
 10
311.0950968983
 20
451.5720129597644
 30
0.0
 10
312.6608346938751
 20
452.8702971767972
 30
0.0
 10
317.4168431325161
 20
456.4373035057997
 30
0.0
 10
320.6627693563884
 20
458.3763931728475
 30
0.0
 10
327.0673592666064
 20
461.4986307540979
 30
0.0
 10
330.2263591939223
 20
462.6835279219198
 30
0.0
 10
336.3140499953827
 20
464.4591044056899
 30
0.0
 10
339.2435535387069
 20
465.0507480314843
 30
0.0
 10
344.8057008760373
 20
465.7956784784527
 30
0.0
 10
347.439146401437
 20
465.9493203831399
 30
0.0
 10
349.9162341298958
 20
465.9493203831399
 30
0.0
  0
SPLINE
  5
EC
330
1F
100
AcDbEntity
  8
0
  6
Continuous
 62
     7
370
    25
100
AcDbSpline
210
0.0
220
0.0
230
1.0
 70
     8
 71
     3
 72
    18
 73
    14
 74
     0
 42
0.00000001
 43
0.00000001
 40
0.0
 40
0.0
 40
0.0
 40
0.0
 40
0.1666666666666666
 40
0.1666666666666666
 40
0.3333333333333333
 40
0.3333333333333333
 40
0.4999999999999999
 40
0.4999999999999999
 40
0.6666666666666665
 40
0.6666666666666665
 40
0.8333333333333333
 40
0.8333333333333333
 40
0.9999999999999999
 40
0.9999999999999999
 40
0.9999999999999999
 40
0.9999999999999999
 10
349.9162341298958
 20
347.4992148997637
 30
0.0
 10
360.27257777141
 20
347.4992148997637
 30
0.0
 10
370.4473774498704
 20
350.2255442571284
 30
0.0
 10
388.3850908169078
 20
360.5818878998689
 30
0.0
 10
395.8335611376806
 20
368.0303582221695
 30
0.0
 10
406.1899047767421
 20
385.9680715913311
 30
0.0
 10
408.91623413202
 20
396.1428712703506
 30
0.0
 10
408.9162341277716
 20
416.855558553379
 30
0.0
 10
406.18990476832
 20
427.0303582312802
 30
0.0
 10
395.8335611219005
 20
444.9680715961935
 30
0.0
 10
388.3850907980722
 20
452.4165419154386
 30
0.0
 10
370.4473774267865
 20
462.772885550821
 30
0.0
 10
360.2725777472078
 20
465.4992149040119
 30
0.0
 10
349.9162341056936
 20
465.4992148997637
 30
0.0
  0
SPLINE
  5
ED
330
1F
100
AcDbEntity
  8
0
  6
Continuous
 62
     7
370
    25
100
AcDbSpline
210
0.0
220
0.0
230
1.0
 70
     8
 71
     3
 72
    14
 73
    10
 74
     0
 42
0.00000001
 43
0.00000001
 40
0.0
 40
0.0
 40
0.0
 40
0.0
 40
0.25
 40
0.25
 40
0.5000000000000001
 40
0.5000000000000001
 40
0.75
 40
0.75
 40
1.0
 40
1.0
 40
1.0
 40
1.0
 10
349.9162341056936
 20
465.4992148997637
 30
0.0
 10
334.2689040527217
 20
465.4992148933451
 30
0.0
 10
319.2612672139406
 20
459.2828481696357
 30
0.0
 10
297.1326008439141
 20
437.1541817879801
 30
0.0
 10
290.9162341280916
 20
422.1465449459323
 30
0.0
 10
290.9162341317002
 20
390.8518848399884
 30
0.0
 10
297.1326008509838
 20
375.8442479993743
 30
0.0
 10
319.2612672261137
 20
353.7155816228221
 30
0.0
 10
334.2689040663283
 20
347.4992149025737
 30
0.0
 10
349.9162341193003
 20
347.4992148997637
 30
0.0
  0
SPLINE
  5
EE
330
1F
100
AcDbEntity
  8
0
  6
Continuous
 62
     7
370
    25
100
AcDbSpline
210
0.0
220
0.0
230
1.0
 70
     8
 71
     3
 72
    12
 73
     8
 74
     0
 42
0.00000001
 43
0.00000001
 40
0.0
 40
0.0
 40
0.0
 40
0.0
 40
0.3333333333333333
 40
0.3333333333333333
 40
0.6666666666666665
 40
0.6666666666666665
 40
0.9999999999999999
 40
0.9999999999999999
 40
0.9999999999999999
 40
0.9999999999999999
 10
349.9162341298958
 20
360.4992148997637
 30
0.0
 10
366.3480519360164
 20
360.4992148997637
 30
0.0
 10
381.5374938060104
 20
369.2688432536295
 30
0.0
 10
397.9693116082394
 20
397.7295865567922
 30
0.0
 10
397.9693116046421
 20
415.2688432624469
 30
0.0
 10
381.5374937907383
 20
443.7295865588692
 30
0.0
 10
366.348051917147
 20
452.4992149065041
 30
0.0
 10
349.9162341110264
 20
452.4992148997637
 30
0.0
  0
SPLINE
  5
EF
330
1F
100
AcDbEntity
  8
0
  6
Continuous
 62
     7
370
    25
100
AcDbSpline
210
0.0
220
0.0
230
1.0
 70
     8
 71
     3
 72
    14
 73
    10
 74
     0
 42
0.00000001
 43
0.00000001
 40
0.0
 40
0.0
 40
0.0
 40
0.0
 40
0.25
 40
0.25
 40
0.5000000000000001
 40
0.5000000000000001
 40
0.75
 40
0.75
 40
1.0
 40
1.0
 40
1.0
 40
1.0
 10
349.9162341110263
 20
452.4992148997637
 30
0.0
 10
337.7166208493871
 20
452.4992148947593
 30
0.0
 10
326.0157514496596
 20
447.6525560932232
 30
0.0
 10
308.7628929238762
 20
430.3996975583731
 30
0.0
 10
303.9162341284891
 20
418.6988281560986
 30
0.0
 10
303.9162341313025
 20
394.2996016328203
 30
0.0
 10
308.7628929293882
 20
382.5987322316635
 30
0.0
 10
326.0157514591505
 20
365.3458737007923
 30
0.0
 10
337.7166208599957
 20
360.4992149019546
 30
0.0
 10
349.9162341216349
 20
360.4992148997637
 30
0.0
  0
LINE
  5
F0
330
1F
100
AcDbEntity
  8
0
  6
Continuous
 62
     8
370
    25
100
AcDbLine
 10
372.9162341299
 20
501.687338406
 30
0.0
 11
372.9162341299
 21
503.7870663306
 31
0.0
  0
LINE
  5
F1
330
1F
100
AcDbEntity
  8
0
  6
Continuous
 62
     8
370
    25
100
AcDbLine
 10
326.9162341299
 20
503.7870663306
 30
0.0
 11
326.9162341299
 21
501.687338406
 31
0.0
  0
ENDSEC
  0
SECTION
  2
OBJECTS
  0
DICTIONARY
  5
C
330
0
100
AcDbDictionary
281
     1
  3
ACAD_DETAILVIEWSTYLE
350
F9
  3
ACAD_GROUP
350
D
  3
ACAD_LAYOUT
350
1A
  3
ACAD_MATERIAL
350
43
  3
ACAD_MLEADERSTYLE
350
6B
  3
ACAD_MLINESTYLE
350
17
  3
ACAD_PLOTSETTINGS
350
19
  3
ACAD_PLOTSTYLENAME
350
E
  3
ACAD_SCALELIST
350
47
  3
ACAD_SECTIONVIEWSTYLE
350
FA
  3
ACAD_TABLESTYLE
350
69
  3
ACAD_VISUALSTYLE
350
2A
  3
ACDB_RECOMPOSE_DATA
350
F6
  3
AcDbVariableDictionary
350
F2
  0
SUN
  5
6D
330
29
100
AcDbSun
 90
        1
290
     0
 63
     7
421
 16777215
 40
1.0
291
     1
 91
  2455826
 92
 54000000
292
     0
 70
     2
 71
   256
280
     1
  0
DICTIONARY
  5
F9
102
{ACAD_REACTORS
330
C
102
}
330
C
100
AcDbDictionary
281
     1
  0
DICTIONARY
  5
D
102
{ACAD_REACTORS
330
C
102
}
330
C
100
AcDbDictionary
281
     1
  0
DICTIONARY
  5
1A
102
{ACAD_REACTORS
330
C
102
}
330
C
100
AcDbDictionary
281
     1
  3
Layout1
350
1E
  3
Layout2
350
26
  3
Model
350
22
  0
DICTIONARY
  5
43
102
{ACAD_REACTORS
330
C
102
}
330
C
100
AcDbDictionary
281
     1
  3
ByBlock
350
45
  3
ByLayer
350
44
  3
Global
350
46
  0
DICTIONARY
  5
6B
102
{ACAD_REACTORS
330
C
102
}
330
C
100
AcDbDictionary
281
     1
  3
Standard
350
6C
  0
DICTIONARY
  5
17
102
{ACAD_REACTORS
330
C
102
}
330
C
100
AcDbDictionary
281
     1
  3
Standard
350
18
  0
DICTIONARY
  5
19
102
{ACAD_REACTORS
330
C
102
}
330
C
100
AcDbDictionary
281
     1
  0
ACDBDICTIONARYWDFLT
  5
E
102
{ACAD_REACTORS
330
C
102
}
330
C
100
AcDbDictionary
281
     1
  3
Normal
350
F
100
AcDbDictionaryWithDefault
340
F
  0
DICTIONARY
  5
47
102
{ACAD_REACTORS
330
C
102
}
330
C
100
AcDbDictionary
281
     1
  3
A0
350
48
  3
A1
350
49
  3
A2
350
4A
  3
A3
350
4B
  3
A4
350
4C
  3
A5
350
4D
  3
A6
350
4E
  3
A7
350
4F
  3
A8
350
50
  3
A9
350
51
  3
B0
350
52
  3
B1
350
53
  3
B2
350
54
  3
B3
350
55
  3
B4
350
56
  3
B5
350
57
  3
B6
350
58
  3
B7
350
59
  3
B8
350
5A
  3
B9
350
5B
  3
C0
350
5C
  3
C1
350
5D
  3
C2
350
5E
  3
C3
350
5F
  3
C4
350
60
  3
C5
350
61
  3
C6
350
62
  3
C7
350
63
  3
C8
350
64
  3
C9
350
65
  3
D0
350
66
  3
D1
350
67
  3
D2
350
68
  0
DICTIONARY
  5
FA
102
{ACAD_REACTORS
330
C
102
}
330
C
100
AcDbDictionary
281
     1
  0
DICTIONARY
  5
69
102
{ACAD_REACTORS
330
C
102
}
330
C
100
AcDbDictionary
281
     1
  3
Standard
350
6A
  0
DICTIONARY
  5
2A
102
{ACAD_REACTORS
330
C
102
}
330
C
100
AcDbDictionary
281
     1
  3
2dWireframe
350
2F
  3
Basic
350
32
  3
Brighten
350
36
  3
ColorChange
350
3A
  3
Conceptual
350
34
  3
Dim
350
35
  3
EdgeColorOff
350
3D
  3
Facepattern
350
39
  3
Flat
350
2B
  3
FlatWithEdges
350
2C
  3
Gouraud
350
2D
  3
GouraudWithEdges
350
2E
  3
Hidden
350
31
  3
JitterOff
350
3B
  3
Linepattern
350
38
  3
OverhangOff
350
3C
  3
Realistic
350
33
  3
Shaded
350
42
  3
Shaded with edges
350
41
  3
Shades of Gray
350
3E
  3
Sketchy
350
3F
  3
Thicken
350
37
  3
Wireframe
350
30
  3
X-Ray
350
40
  0
XRECORD
  5
F6
102
{ACAD_REACTORS
330
C
102
}
330
C
100
AcDbXrecord
280
     1
 90
        1
330
6A
  0
DICTIONARY
  5
F2
102
{ACAD_REACTORS
330
C
102
}
330
C
100
AcDbDictionary
281
     1
  3
CANNOSCALE
350
F3
  3
CENTEREXE
350
FB
  3
CENTERLTYPEFILE
350
FC
  3
CMLEADERSTYLE
350
F8
  3
CTABLESTYLE
350
F7
  0
LAYOUT
  5
1E
102
{ACAD_REACTORS
330
1A
102
}
330
1A
100
AcDbPlotSettings
  1

  2
none_device
  4

  6

 40
0.0
 41
0.0
 42
0.0
 43
0.0
 44
0.0
 45
0.0
 46
0.0
 47
0.0
 48
0.0
 49
0.0
140
0.0
141
0.0
142
1.0
143
1.0
 70
   688
 72
     1
 73
     0
 74
     5
  7

 75
    16
 76
     0
 77
     2
 78
   300
147
1.0
148
0.0
149
0.0
100
AcDbLayout
  1
Layout1
 70
     1
 71
     1
 10
0.0
 20
0.0
 11
420.0
 21
297.0
 12
0.0
 22
0.0
 32
0.0
 14
1.0000000000E+20
 24
1.0000000000E+20
 34
1.0000000000E+20
 15
-1.0000000000E+20
 25
-1.0000000000E+20
 35
-1.0000000000E+20
146
0.0
 13
0.0
 23
0.0
 33
0.0
 16
1.0
 26
0.0
 36
0.0
 17
0.0
 27
1.0
 37
0.0
 76
     0
330
1B
  0
LAYOUT
  5
26
102
{ACAD_REACTORS
330
1A
102
}
330
1A
100
AcDbPlotSettings
  1

  2
none_device
  4

  6

 40
0.0
 41
0.0
 42
0.0
 43
0.0
 44
0.0
 45
0.0
 46
0.0
 47
0.0
 48
0.0
 49
0.0
140
0.0
141
0.0
142
1.0
143
1.0
 70
   688
 72
     1
 73
     0
 74
     5
  7

 75
    16
 76
     0
 77
     2
 78
   300
147
1.0
148
0.0
149
0.0
100
AcDbLayout
  1
Layout2
 70
     1
 71
     2
 10
0.0
 20
0.0
 11
0.0
 21
0.0
 12
0.0
 22
0.0
 32
0.0
 14
0.0
 24
0.0
 34
0.0
 15
0.0
 25
0.0
 35
0.0
146
0.0
 13
0.0
 23
0.0
 33
0.0
 16
1.0
 26
0.0
 36
0.0
 17
0.0
 27
1.0
 37
0.0
 76
     0
330
23
  0
LAYOUT
  5
22
102
{ACAD_REACTORS
330
1A
102
}
330
1A
100
AcDbPlotSettings
  1

  2
none_device
  4
Letter_(8.50_x_11.00_Inches)
  6

 40
6.35
 41
6.35
 42
6.35000508
 43
6.35000508
 44
215.9
 45
279.4
 46
0.0
 47
0.0
 48
0.0
 49
0.0
140
0.0
141
0.0
142
1.0
143
1.0
 70
  1712
 72
     1
 73
     0
 74
     0
  7

 75
     0
 76
     0
 77
     2
 78
   300
147
1.0
148
0.0
149
0.0
100
AcDbLayout
  1
Model
 70
     1
 71
     0
 10
0.0
 20
0.0
 11
700.0
 21
600.0
 12
0.0
 22
0.0
 32
0.0
 14
0.0
 24
0.0
 34
0.0
 15
700.0
 25
600.0
 35
0.0
146
0.0
 13
0.0
 23
0.0
 33
0.0
 16
1.0
 26
0.0
 36
0.0
 17
0.0
 27
1.0
 37
0.0
 76
     0
330
1F
331
29
  0
MATERIAL
  5
45
102
{ACAD_REACTORS
330
43
102
}
330
43
100
AcDbMaterial
  1
ByBlock
 72
     1
 94
      127
  0
MATERIAL
  5
44
102
{ACAD_REACTORS
330
43
102
}
330
43
100
AcDbMaterial
  1
ByLayer
 72
     1
 94
      127
  0
MATERIAL
  5
46
102
{ACAD_REACTORS
330
43
102
}
330
43
100
AcDbMaterial
  1
Global
 72
     1
 94
      127
  0
MLEADERSTYLE
  5
6C
102
{ACAD_REACTORS
330
6B
102
}
330
6B
100
AcDbMLeaderStyle
179
     2
170
     2
171
     1
172
     0
 90
        2
 40
0.0
 41
0.0
173
     1
 91
-1056964608
340
14
 92
       -2
290
     1
 42
2.0
291
     1
 43
8.0
  3
Standard
341
0
 44
4.0
300

342
11
174
     1
178
     6
175
     1
176
     0
 93
-1056964608
 45
4.0
292
     0
297
     0
 46
4.0
343
0
 94
-1056964608
 47
1.0
 49
1.0
140
1.0
293
     1
141
0.0
294
     1
177
     0
142
1.0
295
     0
296
     0
143
3.75
271
     0
272
     9
273
     9
298
     0
  0
MLINESTYLE
  5
18
102
{ACAD_REACTORS
330
17
102
}
330
17
100
AcDbMlineStyle
  2
Standard
 70
     0
  3

 62
   256
 51
90.0
 52
90.0
 71
     2
 49
0.5
 62
   256
  6
BYLAYER
 49
-0.5
 62
   256
  6
BYLAYER
  0
ACDBPLACEHOLDER
  5
F
102
{ACAD_REACTORS
330
E
102
}
330
E
  0
SCALE
  5
48
102
{ACAD_REACTORS
330
47
102
}
330
47
100
AcDbScale
 70
     0
300
1:1
140
1.0
141
1.0
290
     1
  0
SCALE
  5
49
102
{ACAD_REACTORS
330
47
102
}
330
47
100
AcDbScale
 70
     0
300
1:2
140
1.0
141
2.0
290
     0
  0
SCALE
  5
4A
102
{ACAD_REACTORS
330
47
102
}
330
47
100
AcDbScale
 70
     0
300
1:4
140
1.0
141
4.0
290
     0
  0
SCALE
  5
4B
102
{ACAD_REACTORS
330
47
102
}
330
47
100
AcDbScale
 70
     0
300
1:5
140
1.0
141
5.0
290
     0
  0
SCALE
  5
4C
102
{ACAD_REACTORS
330
47
102
}
330
47
100
AcDbScale
 70
     0
300
1:8
140
1.0
141
8.0
290
     0
  0
SCALE
  5
4D
102
{ACAD_REACTORS
330
47
102
}
330
47
100
AcDbScale
 70
     0
300
1:10
140
1.0
141
10.0
290
     0
  0
SCALE
  5
4E
102
{ACAD_REACTORS
330
47
102
}
330
47
100
AcDbScale
 70
     0
300
1:16
140
1.0
141
16.0
290
     0
  0
SCALE
  5
4F
102
{ACAD_REACTORS
330
47
102
}
330
47
100
AcDbScale
 70
     0
300
1:20
140
1.0
141
20.0
290
     0
  0
SCALE
  5
50
102
{ACAD_REACTORS
330
47
102
}
330
47
100
AcDbScale
 70
     0
300
1:30
140
1.0
141
30.0
290
     0
  0
SCALE
  5
51
102
{ACAD_REACTORS
330
47
102
}
330
47
100
AcDbScale
 70
     0
300
1:40
140
1.0
141
40.0
290
     0
  0
SCALE
  5
52
102
{ACAD_REACTORS
330
47
102
}
330
47
100
AcDbScale
 70
     0
300
1:50
140
1.0
141
50.0
290
     0
  0
SCALE
  5
53
102
{ACAD_REACTORS
330
47
102
}
330
47
100
AcDbScale
 70
     0
300
1:100
140
1.0
141
100.0
290
     0
  0
SCALE
  5
54
102
{ACAD_REACTORS
330
47
102
}
330
47
100
AcDbScale
 70
     0
300
2:1
140
2.0
141
1.0
290
     0
  0
SCALE
  5
55
102
{ACAD_REACTORS
330
47
102
}
330
47
100
AcDbScale
 70
     0
300
4:1
140
4.0
141
1.0
290
     0
  0
SCALE
  5
56
102
{ACAD_REACTORS
330
47
102
}
330
47
100
AcDbScale
 70
     0
300
8:1
140
8.0
141
1.0
290
     0
  0
SCALE
  5
57
102
{ACAD_REACTORS
330
47
102
}
330
47
100
AcDbScale
 70
     0
300
10:1
140
10.0
141
1.0
290
     0
  0
SCALE
  5
58
102
{ACAD_REACTORS
330
47
102
}
330
47
100
AcDbScale
 70
     0
300
100:1
140
100.0
141
1.0
290
     0
  0
SCALE
  5
59
102
{ACAD_REACTORS
330
47
102
}
330
47
100
AcDbScale
 70
     0
300
1/128" = 1'-0"
140
0.0078125
141
12.0
290
     0
  0
SCALE
  5
5A
102
{ACAD_REACTORS
330
47
102
}
330
47
100
AcDbScale
 70
     0
300
1/64" = 1'-0"
140
0.015625
141
12.0
290
     0
  0
SCALE
  5
5B
102
{ACAD_REACTORS
330
47
102
}
330
47
100
AcDbScale
 70
     0
300
1/32" = 1'-0"
140
0.03125
141
12.0
290
     0
  0
SCALE
  5
5C
102
{ACAD_REACTORS
330
47
102
}
330
47
100
AcDbScale
 70
     0
300
1/16" = 1'-0"
140
0.0625
141
12.0
290
     0
  0
SCALE
  5
5D
102
{ACAD_REACTORS
330
47
102
}
330
47
100
AcDbScale
 70
     0
300
3/32" = 1'-0"
140
0.09375
141
12.0
290
     0
  0
SCALE
  5
5E
102
{ACAD_REACTORS
330
47
102
}
330
47
100
AcDbScale
 70
     0
300
1/8" = 1'-0"
140
0.125
141
12.0
290
     0
  0
SCALE
  5
5F
102
{ACAD_REACTORS
330
47
102
}
330
47
100
AcDbScale
 70
     0
300
3/16" = 1'-0"
140
0.1875
141
12.0
290
     0
  0
SCALE
  5
60
102
{ACAD_REACTORS
330
47
102
}
330
47
100
AcDbScale
 70
     0
300
1/4" = 1'-0"
140
0.25
141
12.0
290
     0
  0
SCALE
  5
61
102
{ACAD_REACTORS
330
47
102
}
330
47
100
AcDbScale
 70
     0
300
3/8" = 1'-0"
140
0.375
141
12.0
290
     0
  0
SCALE
  5
62
102
{ACAD_REACTORS
330
47
102
}
330
47
100
AcDbScale
 70
     0
300
1/2" = 1'-0"
140
0.5
141
12.0
290
     0
  0
SCALE
  5
63
102
{ACAD_REACTORS
330
47
102
}
330
47
100
AcDbScale
 70
     0
300
3/4" = 1'-0"
140
0.75
141
12.0
290
     0
  0
SCALE
  5
64
102
{ACAD_REACTORS
330
47
102
}
330
47
100
AcDbScale
 70
     0
300
1" = 1'-0"
140
1.0
141
12.0
290
     0
  0
SCALE
  5
65
102
{ACAD_REACTORS
330
47
102
}
330
47
100
AcDbScale
 70
     0
300
1-1/2" = 1'-0"
140
1.5
141
12.0
290
     0
  0
SCALE
  5
66
102
{ACAD_REACTORS
330
47
102
}
330
47
100
AcDbScale
 70
     0
300
3" = 1'-0"
140
3.0
141
12.0
290
     0
  0
SCALE
  5
67
102
{ACAD_REACTORS
330
47
102
}
330
47
100
AcDbScale
 70
     0
300
6" = 1'-0"
140
6.0
141
12.0
290
     0
  0
SCALE
  5
68
102
{ACAD_REACTORS
330
47
102
}
330
47
100
AcDbScale
 70
     0
300
1'-0" = 1'-0"
140
12.0
141
12.0
290
     0
  0
TABLESTYLE
  5
6A
102
{ACAD_REACTORS
330
69
102
}
102
{ACAD_XDICTIONARY
360
F4
102
}
330
69
100
AcDbTableStyle
  3
Standard
 70
     0
 71
     0
 40
0.06
 41
0.06
280
     0
281
     0
  7
Standard
140
4.5
170
     2
 62
     0
 63
   257
283
     0
 90
        4
 91
        0
  1

274
    -2
284
     1
 64
     0
275
    -2
285
     1
 65
     0
276
    -2
286
     1
 66
     0
277
    -2
287
     1
 67
     0
278
    -2
288
     1
 68
     0
279
    -2
289
     1
 69
     0
  7
Standard
140
6.0
170
     5
 62
     0
 63
   257
283
     0
 90
        4
 91
        0
  1

274
    -2
284
     1
 64
     0
275
    -2
285
     1
 65
     0
276
    -2
286
     1
 66
     0
277
    -2
287
     1
 67
     0
278
    -2
288
     1
 68
     0
279
    -2
289
     1
 69
     0
  7
Standard
140
4.5
170
     5
 62
     0
 63
   257
283
     0
 90
        4
 91
        0
  1

274
    -2
284
     1
 64
     0
275
    -2
285
     1
 65
     0
276
    -2
286
     1
 66
     0
277
    -2
287
     1
 67
     0
278
    -2
288
     1
 68
     0
279
    -2
289
     1
 69
     0
  0
VISUALSTYLE
  5
2F
102
{ACAD_REACTORS
330
2A
102
}
330
2A
100
AcDbVisualStyle
  2
2dWireframe
 70
     4
177
     3
291
     0
 70
    58
 90
        0
176
     1
 90
        2
176
     1
 90
        0
176
     1
 90
        0
176
     1
 40
0.6
176
     1
 40
30.0
176
     1
 62
     7
420
 16777215
176
     1
 90
        1
176
     1
 90
        4
176
     1
 62
     7
176
     1
 62
   257
176
     1
 90
        1
176
     1
 90
        1
176
     1
 40
1.0
176
     1
 90
        0
176
     1
 62
   257
176
     1
 40
1.0
176
     1
 90
        1
176
     1
 90
        6
176
     1
 90
        2
176
     1
 62
     7
176
     1
 90
        5
176
     1
 90
        0
176
     1
 90
        0
176
     1
290
     0
176
     1
 90
        1
176
     1
 40
0.0
176
     1
 90
        0
176
     1
290
     1
176
     1
290
     1
176
     1
290
     0
176
     1
290
     0
176
     1
290
     0
176
     1
290
     0
176
     1
290
     0
176
     1
290
     0
176
     1
290
     0
176
     1
 90
       50
176
     1
 40
0.0
176
     1
 40
1.0
176
     1
 90
        0
176
     1
 62
    18
420
        0
176
     1
 90
       50
176
     1
 90
        3
176
     1
 62
     5
420
      255
176
     1
290
     0
176
     1
 90
       50
176
     1
 90
       50
176
     1
 90
       50
176
     1
290
     0
176
     1
 90
       50
176
     1
 62
   256
176
     0
 40
1.0
176
     0
 90
        2
176
     1
  1
strokes_ogs.tif
176
     1
290
     0
176
     1
 40
1.0
176
     1
 40
1.0
176
     1
  0
VISUALSTYLE
  5
32
102
{ACAD_REACTORS
330
2A
102
}
330
2A
100
AcDbVisualStyle
  2
Basic
 70
     7
177
     3
291
     1
 70
    58
 90
        1
176
     1
 90
        0
176
     1
 90
        1
176
     1
 90
        0
176
     1
 40
0.6
176
     1
 40
30.0
176
     1
 62
     7
420
 16777215
176
     1
 90
        0
176
     1
 90
        4
176
     1
 62
     7
176
     1
 62
   257
176
     1
 90
        1
176
     1
 90
        1
176
     1
 40
1.0
176
     1
 90
        8
176
     1
 62
     7
176
     1
 40
1.0
176
     1
 90
        1
176
     1
 90
        6
176
     1
 90
        2
176
     1
 62
     7
176
     1
 90
        5
176
     1
 90
        0
176
     1
 90
        0
176
     1
290
     0
176
     1
 90
        1
176
     1
 40
0.0
176
     1
 90
        0
176
     1
290
     0
176
     1
290
     1
176
     1
290
     1
176
     1
290
     0
176
     1
290
     0
176
     1
290
     0
176
     1
290
     0
176
     1
290
     0
176
     1
290
     0
176
     1
 90
       50
176
     1
 40
0.0
176
     1
 40
1.0
176
     1
 90
        0
176
     1
 62
    18
420
        0
176
     1
 90
       50
176
     1
 90
        3
176
     1
 62
     5
420
      255
176
     1
290
     0
176
     1
 90
       50
176
     1
 90
       50
176
     1
 90
       50
176
     1
290
     0
176
     1
 90
       50
176
     1
 62
   256
176
     0
 40
1.0
176
     0
 90
        2
176
     1
  1
strokes_ogs.tif
176
     1
290
     0
176
     1
 40
1.0
176
     1
 40
1.0
176
     1
  0
VISUALSTYLE
  5
36
102
{ACAD_REACTORS
330
2A
102
}
330
2A
100
AcDbVisualStyle
  2
Brighten
 70
    12
177
     3
291
     1
 70
    58
 90
        2
176
     1
 90
        2
176
     1
 90
        0
176
     1
 90
        0
176
     1
 40
0.6
176
     1
 40
30.0
176
     1
 62
     7
420
 16777215
176
     1
 90
        1
176
     1
 90
        4
176
     1
 62
     7
176
     1
 62
   257
176
     1
 90
        1
176
     1
 90
        1
176
     1
 40
1.0
176
     1
 90
        8
176
     1
 62
     7
176
     1
 40
1.0
176
     1
 90
        1
176
     1
 90
        6
176
     1
 90
        2
176
     1
 62
     7
176
     1
 90
        5
176
     1
 90
        0
176
     1
 90
        0
176
     1
290
     0
176
     1
 90
        1
176
     1
 40
50.0
176
     1
 90
        0
176
     1
290
     0
176
     1
290
     1
176
     1
290
     1
176
     1
290
     0
176
     1
290
     0
176
     1
290
     0
176
     1
290
     0
176
     1
290
     0
176
     1
290
     0
176
     1
 90
       50
176
     1
 40
0.0
176
     1
 40
1.0
176
     1
 90
        0
176
     1
 62
    18
420
        0
176
     1
 90
       50
176
     1
 90
        3
176
     1
 62
     5
420
      255
176
     1
290
     0
176
     1
 90
       50
176
     1
 90
       50
176
     1
 90
       50
176
     1
290
     0
176
     1
 90
       50
176
     1
 62
   256
176
     0
 40
1.0
176
     0
 90
        2
176
     1
  1
strokes_ogs.tif
176
     1
290
     0
176
     1
 40
1.0
176
     1
 40
1.0
176
     1
  0
VISUALSTYLE
  5
3A
102
{ACAD_REACTORS
330
2A
102
}
330
2A
100
AcDbVisualStyle
  2
ColorChange
 70
    16
177
     3
291
     1
 70
    58
 90
        2
176
     1
 90
        2
176
     1
 90
        3
176
     1
 90
        0
176
     1
 40
0.6
176
     1
 40
30.0
176
     1
 62
     8
420
  8421504
176
     1
 90
        1
176
     1
 90
        4
176
     1
 62
     7
176
     1
 62
   257
176
     1
 90
        1
176
     1
 90
        1
176
     1
 40
1.0
176
     1
 90
        8
176
     1
 62
     8
420
  8421504
176
     1
 40
1.0
176
     1
 90
        1
176
     1
 90
        6
176
     1
 90
        2
176
     1
 62
     7
176
     1
 90
        5
176
     1
 90
        0
176
     1
 90
        0
176
     1
290
     0
176
     1
 90
        1
176
     1
 40
0.0
176
     1
 90
        0
176
     1
290
     0
176
     1
290
     1
176
     1
290
     1
176
     1
290
     0
176
     1
290
     0
176
     1
290
     0
176
     1
290
     0
176
     1
290
     0
176
     1
290
     0
176
     1
 90
       50
176
     1
 40
0.0
176
     1
 40
1.0
176
     1
 90
        0
176
     1
 62
    18
420
        0
176
     1
 90
       50
176
     1
 90
        3
176
     1
 62
     5
420
      255
176
     1
290
     0
176
     1
 90
       50
176
     1
 90
       50
176
     1
 90
       50
176
     1
290
     0
176
     1
 90
       50
176
     1
 62
   256
176
     0
 40
1.0
176
     0
 90
        2
176
     1
  1
strokes_ogs.tif
176
     1
290
     0
176
     1
 40
1.0
176
     1
 40
1.0
176
     1
  0
VISUALSTYLE
  5
34
102
{ACAD_REACTORS
330
2A
102
}
330
2A
100
AcDbVisualStyle
  2
Conceptual
 70
     9
177
     3
291
     0
 70
    58
 90
        3
176
     1
 90
        2
176
     1
 90
        0
176
     1
 90
        0
176
     1
 40
0.6
176
     1
 40
30.0
176
     1
 62
     7
420
 16777215
176
     1
 90
        2
176
     1
 90
        2
176
     1
 62
     7
176
     1
 62
   257
176
     1
 90
        1
176
     1
 90
        1
176
     1
 40
179.0
176
     1
 90
        8
176
     1
 62
     7
176
     1
 40
1.0
176
     1
 90
        1
176
     1
 90
        6
176
     1
 90
        2
176
     1
 62
     7
176
     1
 90
        3
176
     1
 90
        0
176
     1
 90
        0
176
     1
290
     0
176
     1
 90
        1
176
     1
 40
0.0
176
     1
 90
        0
176
     1
290
     0
176
     1
290
     1
176
     1
290
     1
176
     1
290
     0
176
     1
290
     0
176
     1
290
     0
176
     1
290
     0
176
     1
290
     0
176
     1
290
     0
176
     1
 90
       50
176
     1
 40
0.0
176
     1
 40
1.0
176
     1
 90
        0
176
     1
 62
    18
420
        0
176
     1
 90
       50
176
     1
 90
        3
176
     1
 62
     5
420
      255
176
     1
290
     0
176
     1
 90
       50
176
     1
 90
       50
176
     1
 90
       50
176
     1
290
     0
176
     1
 90
       50
176
     1
 62
   256
176
     0
 40
1.0
176
     0
 90
        2
176
     1
  1
strokes_ogs.tif
176
     1
290
     0
176
     1
 40
1.0
176
     1
 40
1.0
176
     1
  0
VISUALSTYLE
  5
35
102
{ACAD_REACTORS
330
2A
102
}
330
2A
100
AcDbVisualStyle
  2
Dim
 70
    11
177
     3
291
     1
 70
    58
 90
        2
176
     1
 90
        2
176
     1
 90
        0
176
     1
 90
        0
176
     1
 40
0.6
176
     1
 40
30.0
176
     1
 62
     7
420
 16777215
176
     1
 90
        1
176
     1
 90
        4
176
     1
 62
     7
176
     1
 62
   257
176
     1
 90
        1
176
     1
 90
        1
176
     1
 40
1.0
176
     1
 90
        8
176
     1
 62
     7
176
     1
 40
1.0
176
     1
 90
        1
176
     1
 90
        6
176
     1
 90
        2
176
     1
 62
     7
176
     1
 90
        5
176
     1
 90
        0
176
     1
 90
        0
176
     1
290
     0
176
     1
 90
        1
176
     1
 40
-50.0
176
     1
 90
        0
176
     1
290
     0
176
     1
290
     1
176
     1
290
     1
176
     1
290
     0
176
     1
290
     0
176
     1
290
     0
176
     1
290
     0
176
     1
290
     0
176
     1
290
     0
176
     1
 90
       50
176
     1
 40
0.0
176
     1
 40
1.0
176
     1
 90
        0
176
     1
 62
    18
420
        0
176
     1
 90
       50
176
     1
 90
        3
176
     1
 62
     5
420
      255
176
     1
290
     0
176
     1
 90
       50
176
     1
 90
       50
176
     1
 90
       50
176
     1
290
     0
176
     1
 90
       50
176
     1
 62
   256
176
     0
 40
1.0
176
     0
 90
        2
176
     1
  1
strokes_ogs.tif
176
     1
290
     0
176
     1
 40
1.0
176
     1
 40
1.0
176
     1
  0
VISUALSTYLE
  5
3D
102
{ACAD_REACTORS
330
2A
102
}
330
2A
100
AcDbVisualStyle
  2
EdgeColorOff
 70
    22
177
     3
291
     1
 70
    58
 90
        2
176
     0
 90
        2
176
     0
 90
        0
176
     0
 90
        0
176
     0
 40
0.6
176
     0
 40
30.0
176
     0
 62
     7
420
 16777215
176
     0
 90
        1
176
     0
 90
        4
176
     0
 62
     7
176
     0
 62
   257
176
     0
 90
        1
176
     0
 90
        1
176
     0
 40
1.0
176
     0
 90
        8
176
     2
 62
     7
176
     0
 40
1.0
176
     0
 90
        1
176
     0
 90
        6
176
     0
 90
        2
176
     0
 62
     7
176
     0
 90
        5
176
     0
 90
        0
176
     0
 90
        0
176
     0
290
     0
176
     0
 90
        1
176
     0
 40
0.0
176
     0
 90
        0
176
     0
290
     0
176
     0
290
     1
176
     0
290
     1
176
     0
290
     0
176
     0
290
     0
176
     0
290
     0
176
     0
290
     0
176
     0
290
     0
176
     0
290
     0
176
     0
 90
       50
176
     0
 40
0.0
176
     0
 40
1.0
176
     0
 90
        0
176
     0
 62
    18
420
        0
176
     0
 90
       50
176
     0
 90
        3
176
     0
 62
     5
420
      255
176
     0
290
     0
176
     0
 90
       50
176
     0
 90
       50
176
     0
 90
       50
176
     0
290
     0
176
     0
 90
       50
176
     0
 62
   256
176
     0
 40
1.0
176
     0
 90
        2
176
     0
  1
strokes_ogs.tif
176
     0
290
     0
176
     0
 40
1.0
176
     0
 40
1.0
176
     0
  0
VISUALSTYLE
  5
39
102
{ACAD_REACTORS
330
2A
102
}
330
2A
100
AcDbVisualStyle
  2
Facepattern
 70
    15
177
     3
291
     1
 70
    58
 90
        2
176
     1
 90
        2
176
     1
 90
        0
176
     1
 90
        0
176
     1
 40
0.6
176
     1
 40
30.0
176
     1
 62
     7
420
 16777215
176
     1
 90
        1
176
     1
 90
        4
176
     1
 62
     7
176
     1
 62
   257
176
     1
 90
        1
176
     1
 90
        1
176
     1
 40
1.0
176
     1
 90
        8
176
     1
 62
     7
176
     1
 40
1.0
176
     1
 90
        1
176
     1
 90
        6
176
     1
 90
        2
176
     1
 62
     7
176
     1
 90
        5
176
     1
 90
        0
176
     1
 90
        0
176
     1
290
     0
176
     1
 90
        1
176
     1
 40
0.0
176
     1
 90
        0
176
     1
290
     0
176
     1
290
     1
176
     1
290
     1
176
     1
290
     0
176
     1
290
     0
176
     1
290
     0
176
     1
290
     0
176
     1
290
     0
176
     1
290
     0
176
     1
 90
       50
176
     1
 40
0.0
176
     1
 40
1.0
176
     1
 90
        0
176
     1
 62
    18
420
        0
176
     1
 90
       50
176
     1
 90
        3
176
     1
 62
     5
420
      255
176
     1
290
     0
176
     1
 90
       50
176
     1
 90
       50
176
     1
 90
       50
176
     1
290
     0
176
     1
 90
       50
176
     1
 62
   256
176
     0
 40
1.0
176
     0
 90
        2
176
     1
  1
strokes_ogs.tif
176
     1
290
     0
176
     1
 40
1.0
176
     1
 40
1.0
176
     1
  0
VISUALSTYLE
  5
2B
102
{ACAD_REACTORS
330
2A
102
}
330
2A
100
AcDbVisualStyle
  2
Flat
 70
     0
177
     3
291
     1
 70
    58
 90
        2
176
     1
 90
        1
176
     1
 90
        1
176
     1
 90
        2
176
     1
 40
0.6
176
     1
 40
30.0
176
     1
 62
     7
420
 16777215
176
     1
 90
        0
176
     1
 90
        0
176
     1
 62
     7
176
     1
 62
   257
176
     1
 90
        1
176
     1
 90
        1
176
     1
 40
1.0
176
     1
 90
        8
176
     1
 62
     7
176
     1
 40
1.0
176
     1
 90
        1
176
     1
 90
        6
176
     1
 90
        2
176
     1
 62
     7
176
     1
 90
        5
176
     1
 90
        0
176
     1
 90
        0
176
     1
290
     0
176
     1
 90
       13
176
     1
 40
0.0
176
     1
 90
        0
176
     1
290
     0
176
     1
290
     1
176
     1
290
     1
176
     1
290
     0
176
     1
290
     0
176
     1
290
     0
176
     1
290
     0
176
     1
290
     0
176
     1
290
     0
176
     1
 90
       50
176
     1
 40
0.0
176
     1
 40
1.0
176
     1
 90
        0
176
     1
 62
    18
420
        0
176
     1
 90
       50
176
     1
 90
        3
176
     1
 62
     5
420
      255
176
     1
290
     0
176
     1
 90
       50
176
     1
 90
       50
176
     1
 90
       50
176
     1
290
     0
176
     1
 90
       50
176
     1
 62
   256
176
     0
 40
1.0
176
     0
 90
        2
176
     1
  1
strokes_ogs.tif
176
     1
290
     0
176
     1
 40
1.0
176
     1
 40
1.0
176
     1
  0
VISUALSTYLE
  5
2C
102
{ACAD_REACTORS
330
2A
102
}
330
2A
100
AcDbVisualStyle
  2
FlatWithEdges
 70
     1
177
     3
291
     1
 70
    58
 90
        2
176
     1
 90
        1
176
     1
 90
        1
176
     1
 90
        2
176
     1
 40
0.6
176
     1
 40
30.0
176
     1
 62
     7
420
 16777215
176
     1
 90
        1
176
     1
 90
        0
176
     1
 62
     7
176
     1
 62
   257
176
     1
 90
        1
176
     1
 90
        1
176
     1
 40
1.0
176
     1
 90
        0
176
     1
 62
   257
176
     1
 40
1.0
176
     1
 90
        1
176
     1
 90
        6
176
     1
 90
        2
176
     1
 62
     7
176
     1
 90
        5
176
     1
 90
        0
176
     1
 90
        0
176
     1
290
     0
176
     1
 90
       13
176
     1
 40
0.0
176
     1
 90
        0
176
     1
290
     0
176
     1
290
     1
176
     1
290
     1
176
     1
290
     0
176
     1
290
     0
176
     1
290
     0
176
     1
290
     0
176
     1
290
     0
176
     1
290
     0
176
     1
 90
       50
176
     1
 40
0.0
176
     1
 40
1.0
176
     1
 90
        0
176
     1
 62
    18
420
        0
176
     1
 90
       50
176
     1
 90
        3
176
     1
 62
     5
420
      255
176
     1
290
     0
176
     1
 90
       50
176
     1
 90
       50
176
     1
 90
       50
176
     1
290
     0
176
     1
 90
       50
176
     1
 62
   256
176
     0
 40
1.0
176
     0
 90
        2
176
     1
  1
strokes_ogs.tif
176
     1
290
     0
176
     1
 40
1.0
176
     1
 40
1.0
176
     1
  0
VISUALSTYLE
  5
2D
102
{ACAD_REACTORS
330
2A
102
}
330
2A
100
AcDbVisualStyle
  2
Gouraud
 70
     2
177
     3
291
     1
 70
    58
 90
        2
176
     1
 90
        2
176
     1
 90
        1
176
     1
 90
        2
176
     1
 40
0.6
176
     1
 40
30.0
176
     1
 62
     7
420
 16777215
176
     1
 90
        0
176
     1
 90
        0
176
     1
 62
     7
176
     1
 62
   257
176
     1
 90
        1
176
     1
 90
        1
176
     1
 40
1.0
176
     1
 90
        0
176
     1
 62
     7
176
     1
 40
1.0
176
     1
 90
        1
176
     1
 90
        6
176
     1
 90
        2
176
     1
 62
     7
176
     1
 90
        5
176
     1
 90
        0
176
     1
 90
        0
176
     1
290
     0
176
     1
 90
       13
176
     1
 40
0.0
176
     1
 90
        0
176
     1
290
     0
176
     1
290
     1
176
     1
290
     1
176
     1
290
     0
176
     1
290
     0
176
     1
290
     0
176
     1
290
     0
176
     1
290
     0
176
     1
290
     0
176
     1
 90
       50
176
     1
 40
0.0
176
     1
 40
1.0
176
     1
 90
        0
176
     1
 62
    18
420
        0
176
     1
 90
       50
176
     1
 90
        3
176
     1
 62
     5
420
      255
176
     1
290
     0
176
     1
 90
       50
176
     1
 90
       50
176
     1
 90
       50
176
     1
290
     0
176
     1
 90
       50
176
     1
 62
   256
176
     0
 40
1.0
176
     0
 90
        2
176
     1
  1
strokes_ogs.tif
176
     1
290
     0
176
     1
 40
1.0
176
     1
 40
1.0
176
     1
  0
VISUALSTYLE
  5
2E
102
{ACAD_REACTORS
330
2A
102
}
330
2A
100
AcDbVisualStyle
  2
GouraudWithEdges
 70
     3
177
     3
291
     1
 70
    58
 90
        2
176
     1
 90
        2
176
     1
 90
        1
176
     1
 90
        2
176
     1
 40
0.6
176
     1
 40
30.0
176
     1
 62
     7
420
 16777215
176
     1
 90
        1
176
     1
 90
        0
176
     1
 62
     7
176
     1
 62
   257
176
     1
 90
        1
176
     1
 90
        1
176
     1
 40
1.0
176
     1
 90
        0
176
     1
 62
   257
176
     1
 40
1.0
176
     1
 90
        1
176
     1
 90
        6
176
     1
 90
        2
176
     1
 62
     7
176
     1
 90
        5
176
     1
 90
        0
176
     1
 90
        0
176
     1
290
     0
176
     1
 90
       13
176
     1
 40
0.0
176
     1
 90
        0
176
     1
290
     0
176
     1
290
     1
176
     1
290
     1
176
     1
290
     0
176
     1
290
     0
176
     1
290
     0
176
     1
290
     0
176
     1
290
     0
176
     1
290
     0
176
     1
 90
       50
176
     1
 40
0.0
176
     1
 40
1.0
176
     1
 90
        0
176
     1
 62
    18
420
        0
176
     1
 90
       50
176
     1
 90
        3
176
     1
 62
     5
420
      255
176
     1
290
     0
176
     1
 90
       50
176
     1
 90
       50
176
     1
 90
       50
176
     1
290
     0
176
     1
 90
       50
176
     1
 62
   256
176
     0
 40
1.0
176
     0
 90
        2
176
     1
  1
strokes_ogs.tif
176
     1
290
     0
176
     1
 40
1.0
176
     1
 40
1.0
176
     1
  0
VISUALSTYLE
  5
31
102
{ACAD_REACTORS
330
2A
102
}
330
2A
100
AcDbVisualStyle
  2
Hidden
 70
     6
177
     3
291
     0
 70
    58
 90
        1
176
     1
 90
        2
176
     1
 90
        2
176
     1
 90
        0
176
     1
 40
0.6
176
     1
 40
30.0
176
     1
 62
     7
420
 16777215
176
     1
 90
        2
176
     1
 90
        2
176
     1
 62
     7
176
     1
 62
   257
176
     1
 90
        2
176
     1
 90
        1
176
     1
 40
40.0
176
     1
 90
        0
176
     1
 62
   257
176
     1
 40
1.0
176
     1
 90
        1
176
     1
 90
        6
176
     1
 90
        2
176
     1
 62
     7
176
     1
 90
        3
176
     1
 90
        0
176
     1
 90
        0
176
     1
290
     0
176
     1
 90
        1
176
     1
 40
0.0
176
     1
 90
        0
176
     1
290
     0
176
     1
290
     1
176
     1
290
     1
176
     1
290
     0
176
     1
290
     0
176
     1
290
     0
176
     1
290
     0
176
     1
290
     0
176
     1
290
     0
176
     1
 90
       50
176
     1
 40
0.0
176
     1
 40
1.0
176
     1
 90
        0
176
     1
 62
    18
420
        0
176
     1
 90
       50
176
     1
 90
        3
176
     1
 62
     5
420
      255
176
     1
290
     0
176
     1
 90
       50
176
     1
 90
       50
176
     1
 90
       50
176
     1
290
     0
176
     1
 90
       50
176
     1
 62
   256
176
     0
 40
1.0
176
     0
 90
        2
176
     1
  1
strokes_ogs.tif
176
     1
290
     0
176
     1
 40
1.0
176
     1
 40
1.0
176
     1
  0
VISUALSTYLE
  5
3B
102
{ACAD_REACTORS
330
2A
102
}
330
2A
100
AcDbVisualStyle
  2
JitterOff
 70
    20
177
     3
291
     1
 70
    58
 90
        2
176
     0
 90
        2
176
     0
 90
        0
176
     0
 90
        0
176
     0
 40
0.6
176
     0
 40
30.0
176
     0
 62
     7
420
 16777215
176
     0
 90
        1
176
     0
 90
        4
176
     0
 62
     7
176
     0
 62
   257
176
     0
 90
        1
176
     0
 90
        1
176
     0
 40
1.0
176
     0
 90
       10
176
     2
 62
     7
176
     0
 40
1.0
176
     0
 90
        1
176
     0
 90
        6
176
     0
 90
        2
176
     0
 62
     7
176
     0
 90
        5
176
     0
 90
        0
176
     0
 90
        0
176
     0
290
     0
176
     0
 90
        1
176
     0
 40
0.0
176
     0
 90
        0
176
     0
290
     0
176
     0
290
     1
176
     0
290
     1
176
     0
290
     0
176
     0
290
     0
176
     0
290
     0
176
     0
290
     0
176
     0
290
     0
176
     0
290
     0
176
     0
 90
       50
176
     0
 40
0.0
176
     0
 40
1.0
176
     0
 90
        0
176
     0
 62
    18
420
        0
176
     0
 90
       50
176
     0
 90
        3
176
     0
 62
     5
420
      255
176
     0
290
     0
176
     0
 90
       50
176
     0
 90
       50
176
     0
 90
       50
176
     0
290
     0
176
     0
 90
       50
176
     0
 62
   256
176
     0
 40
1.0
176
     0
 90
        2
176
     0
  1
strokes_ogs.tif
176
     0
290
     0
176
     0
 40
1.0
176
     0
 40
1.0
176
     0
  0
VISUALSTYLE
  5
38
102
{ACAD_REACTORS
330
2A
102
}
330
2A
100
AcDbVisualStyle
  2
Linepattern
 70
    14
177
     3
291
     1
 70
    58
 90
        2
176
     1
 90
        2
176
     1
 90
        0
176
     1
 90
        0
176
     1
 40
0.6
176
     1
 40
30.0
176
     1
 62
     7
420
 16777215
176
     1
 90
        1
176
     1
 90
        4
176
     1
 62
     7
176
     1
 62
   257
176
     1
 90
        7
176
     1
 90
        7
176
     1
 40
1.0
176
     1
 90
        8
176
     1
 62
     7
176
     1
 40
1.0
176
     1
 90
        1
176
     1
 90
        6
176
     1
 90
        2
176
     1
 62
     7
176
     1
 90
        5
176
     1
 90
        0
176
     1
 90
        0
176
     1
290
     0
176
     1
 90
        1
176
     1
 40
0.0
176
     1
 90
        0
176
     1
290
     0
176
     1
290
     1
176
     1
290
     1
176
     1
290
     0
176
     1
290
     0
176
     1
290
     0
176
     1
290
     0
176
     1
290
     0
176
     1
290
     0
176
     1
 90
       50
176
     1
 40
0.0
176
     1
 40
1.0
176
     1
 90
        0
176
     1
 62
    18
420
        0
176
     1
 90
       50
176
     1
 90
        3
176
     1
 62
     5
420
      255
176
     1
290
     0
176
     1
 90
       50
176
     1
 90
       50
176
     1
 90
       50
176
     1
290
     0
176
     1
 90
       50
176
     1
 62
   256
176
     0
 40
1.0
176
     0
 90
        2
176
     1
  1
strokes_ogs.tif
176
     1
290
     0
176
     1
 40
1.0
176
     1
 40
1.0
176
     1
  0
VISUALSTYLE
  5
3C
102
{ACAD_REACTORS
330
2A
102
}
330
2A
100
AcDbVisualStyle
  2
OverhangOff
 70
    21
177
     3
291
     1
 70
    58
 90
        2
176
     0
 90
        2
176
     0
 90
        0
176
     0
 90
        0
176
     0
 40
0.6
176
     0
 40
30.0
176
     0
 62
     7
420
 16777215
176
     0
 90
        1
176
     0
 90
        4
176
     0
 62
     7
176
     0
 62
   257
176
     0
 90
        1
176
     0
 90
        1
176
     0
 40
1.0
176
     0
 90
        9
176
     2
 62
     7
176
     0
 40
1.0
176
     0
 90
        1
176
     0
 90
        6
176
     0
 90
        2
176
     0
 62
     7
176
     0
 90
        5
176
     0
 90
        0
176
     0
 90
        0
176
     0
290
     0
176
     0
 90
        1
176
     0
 40
0.0
176
     0
 90
        0
176
     0
290
     0
176
     0
290
     1
176
     0
290
     1
176
     0
290
     0
176
     0
290
     0
176
     0
290
     0
176
     0
290
     0
176
     0
290
     0
176
     0
290
     0
176
     0
 90
       50
176
     0
 40
0.0
176
     0
 40
1.0
176
     0
 90
        0
176
     0
 62
    18
420
        0
176
     0
 90
       50
176
     0
 90
        3
176
     0
 62
     5
420
      255
176
     0
290
     0
176
     0
 90
       50
176
     0
 90
       50
176
     0
 90
       50
176
     0
290
     0
176
     0
 90
       50
176
     0
 62
   256
176
     0
 40
1.0
176
     0
 90
        2
176
     0
  1
strokes_ogs.tif
176
     0
290
     0
176
     0
 40
1.0
176
     0
 40
1.0
176
     0
  0
VISUALSTYLE
  5
33
102
{ACAD_REACTORS
330
2A
102
}
330
2A
100
AcDbVisualStyle
  2
Realistic
 70
     8
177
     3
291
     0
 70
    58
 90
        2
176
     1
 90
        3
176
     1
 90
        0
176
     1
 90
        2
176
     1
 40
0.6
176
     1
 40
30.0
176
     1
 62
     7
420
 16777215
176
     1
 90
        0
176
     1
 90
        0
176
     1
 62
     7
176
     1
 62
   257
176
     1
 90
        1
176
     1
 90
        1
176
     1
 40
1.0
176
     1
 90
        8
176
     1
 62
   257
176
     1
 40
1.0
176
     1
 90
        1
176
     1
 90
        6
176
     1
 90
        2
176
     1
 62
     7
176
     1
 90
        3
176
     1
 90
        0
176
     1
 90
        0
176
     1
290
     0
176
     1
 90
       13
176
     1
 40
0.0
176
     1
 90
        0
176
     1
290
     0
176
     1
290
     1
176
     1
290
     1
176
     1
290
     0
176
     1
290
     0
176
     1
290
     0
176
     1
290
     0
176
     1
290
     0
176
     1
290
     0
176
     1
 90
       50
176
     1
 40
0.0
176
     1
 40
1.0
176
     1
 90
        0
176
     1
 62
    18
420
        0
176
     1
 90
       50
176
     1
 90
        3
176
     1
 62
     5
420
      255
176
     1
290
     0
176
     1
 90
       50
176
     1
 90
       50
176
     1
 90
       50
176
     1
290
     0
176
     1
 90
       50
176
     1
 62
   256
176
     0
 40
1.0
176
     0
 90
        2
176
     1
  1
strokes_ogs.tif
176
     1
290
     0
176
     1
 40
1.0
176
     1
 40
1.0
176
     1
  0
VISUALSTYLE
  5
42
102
{ACAD_REACTORS
330
2A
102
}
330
2A
100
AcDbVisualStyle
  2
Shaded
 70
    27
177
     3
291
     0
 70
    58
 90
        2
176
     1
 90
        2
176
     1
 90
        1
176
     1
 90
        2
176
     1
 40
0.6
176
     1
 40
30.0
176
     1
 62
     7
420
 16777215
176
     1
 90
        0
176
     1
 90
        4
176
     1
 62
     7
176
     1
 62
   257
176
     1
 90
        1
176
     1
 90
        1
176
     1
 40
1.0
176
     1
 90
        8
176
     1
 62
   257
176
     1
 40
1.0
176
     1
 90
        1
176
     1
 90
        6
176
     1
 90
        2
176
     1
 62
     8
420
  7895160
176
     1
 90
        3
176
     1
 90
        0
176
     1
 90
        0
176
     1
290
     0
176
     1
 90
        5
176
     1
 40
0.0
176
     1
 90
        0
176
     1
290
     0
176
     1
290
     1
176
     1
290
     1
176
     1
290
     0
176
     1
290
     0
176
     1
290
     0
176
     1
290
     0
176
     1
290
     0
176
     1
290
     0
176
     1
 90
       50
176
     1
 40
0.0
176
     1
 40
1.0
176
     1
 90
        0
176
     1
 62
    18
420
        0
176
     1
 90
       50
176
     1
 90
        3
176
     1
 62
     5
420
      255
176
     1
290
     0
176
     1
 90
       50
176
     1
 90
       50
176
     1
 90
       50
176
     1
290
     0
176
     1
 90
       50
176
     1
 62
   256
176
     0
 40
1.0
176
     0
 90
        2
176
     1
  1
strokes_ogs.tif
176
     1
290
     0
176
     1
 40
1.0
176
     1
 40
1.0
176
     1
  0
VISUALSTYLE
  5
41
102
{ACAD_REACTORS
330
2A
102
}
330
2A
100
AcDbVisualStyle
  2
Shaded with edges
 70
    26
177
     3
291
     0
 70
    58
 90
        2
176
     1
 90
        2
176
     1
 90
        1
176
     1
 90
        2
176
     1
 40
0.6
176
     1
 40
30.0
176
     1
 62
     7
420
 16777215
176
     1
 90
        1
176
     1
 90
       10
176
     1
 62
     7
176
     1
 62
   257
176
     1
 90
        2
176
     1
 90
        1
176
     1
 40
1.0
176
     1
 90
        8
176
     1
 62
   257
176
     1
 40
1.0
176
     1
 90
        1
176
     1
 90
        6
176
     1
 90
        2
176
     1
 62
     7
176
     1
 90
        3
176
     1
 90
        0
176
     1
 90
        0
176
     1
290
     0
176
     1
 90
        5
176
     1
 40
0.0
176
     1
 90
        0
176
     1
290
     0
176
     1
290
     1
176
     1
290
     1
176
     1
290
     0
176
     1
290
     0
176
     1
290
     0
176
     1
290
     0
176
     1
290
     0
176
     1
290
     0
176
     1
 90
       50
176
     1
 40
0.0
176
     1
 40
1.0
176
     1
 90
        0
176
     1
 62
    18
420
        0
176
     1
 90
       50
176
     1
 90
        3
176
     1
 62
     5
420
      255
176
     1
290
     0
176
     1
 90
       50
176
     1
 90
       50
176
     1
 90
       50
176
     1
290
     0
176
     1
 90
       50
176
     1
 62
   256
176
     0
 40
1.0
176
     0
 90
        2
176
     1
  1
strokes_ogs.tif
176
     1
290
     0
176
     1
 40
1.0
176
     1
 40
1.0
176
     1
  0
VISUALSTYLE
  5
3E
102
{ACAD_REACTORS
330
2A
102
}
330
2A
100
AcDbVisualStyle
  2
Shades of Gray
 70
    23
177
     3
291
     0
 70
    58
 90
        2
176
     1
 90
        2
176
     1
 90
        3
176
     1
 90
        0
176
     1
 40
0.6
176
     1
 40
30.0
176
     1
 62
     7
420
 16777215
176
     1
 90
        2
176
     1
 90
        2
176
     1
 62
     7
176
     1
 62
     7
176
     1
 90
        1
176
     1
 90
        1
176
     1
 40
40.0
176
     1
 90
        8
176
     1
 62
     7
176
     1
 40
1.0
176
     1
 90
        1
176
     1
 90
        6
176
     1
 90
        2
176
     1
 62
     7
176
     1
 90
        3
176
     1
 90
        0
176
     1
 90
        0
176
     1
290
     0
176
     1
 90
        1
176
     1
 40
0.0
176
     1
 90
        0
176
     1
290
     0
176
     1
290
     1
176
     1
290
     1
176
     1
290
     0
176
     1
290
     0
176
     1
290
     0
176
     1
290
     0
176
     1
290
     0
176
     1
290
     0
176
     1
 90
       50
176
     1
 40
0.0
176
     1
 40
1.0
176
     1
 90
        0
176
     1
 62
    18
420
        0
176
     1
 90
       50
176
     1
 90
        3
176
     1
 62
     5
420
      255
176
     1
290
     0
176
     1
 90
       50
176
     1
 90
       50
176
     1
 90
       50
176
     1
290
     0
176
     1
 90
       50
176
     1
 62
   256
176
     0
 40
1.0
176
     0
 90
        2
176
     1
  1
strokes_ogs.tif
176
     1
290
     0
176
     1
 40
1.0
176
     1
 40
1.0
176
     1
  0
VISUALSTYLE
  5
3F
102
{ACAD_REACTORS
330
2A
102
}
330
2A
100
AcDbVisualStyle
  2
Sketchy
 70
    24
177
     3
291
     0
 70
    58
 90
        1
176
     1
 90
        2
176
     1
 90
        2
176
     1
 90
        0
176
     1
 40
0.6
176
     1
 40
30.0
176
     1
 62
     7
420
 16777215
176
     1
 90
        2
176
     1
 90
        2
176
     1
 62
     7
176
     1
 62
     7
176
     1
 90
        1
176
     1
 90
        1
176
     1
 40
40.0
176
     1
 90
       11
176
     1
 62
     7
176
     1
 40
1.0
176
     1
 90
        1
176
     1
 90
        6
176
     1
 90
        2
176
     1
 62
     7
176
     1
 90
        6
176
     1
 90
        0
176
     1
 90
        0
176
     1
290
     0
176
     1
 90
        1
176
     1
 40
0.0
176
     1
 90
        0
176
     1
290
     0
176
     1
290
     1
176
     1
290
     1
176
     1
290
     0
176
     1
290
     0
176
     1
290
     0
176
     1
290
     0
176
     1
290
     0
176
     1
290
     0
176
     1
 90
       50
176
     1
 40
0.0
176
     1
 40
1.0
176
     1
 90
        0
176
     1
 62
    18
420
        0
176
     1
 90
       50
176
     1
 90
        3
176
     1
 62
     5
420
      255
176
     1
290
     0
176
     1
 90
       50
176
     1
 90
       50
176
     1
 90
       50
176
     1
290
     0
176
     1
 90
       50
176
     1
 62
   256
176
     0
 40
1.0
176
     0
 90
        2
176
     1
  1
strokes_ogs.tif
176
     1
290
     0
176
     1
 40
1.0
176
     1
 40
1.0
176
     1
  0
VISUALSTYLE
  5
37
102
{ACAD_REACTORS
330
2A
102
}
330
2A
100
AcDbVisualStyle
  2
Thicken
 70
    13
177
     3
291
     1
 70
    58
 90
        2
176
     1
 90
        2
176
     1
 90
        0
176
     1
 90
        0
176
     1
 40
0.6
176
     1
 40
30.0
176
     1
 62
     7
420
 16777215
176
     1
 90
        1
176
     1
 90
        4
176
     1
 62
     7
176
     1
 62
   257
176
     1
 90
        1
176
     1
 90
        1
176
     1
 40
1.0
176
     1
 90
       12
176
     1
 62
     7
176
     1
 40
1.0
176
     1
 90
        1
176
     1
 90
        6
176
     1
 90
        2
176
     1
 62
     7
176
     1
 90
        5
176
     1
 90
        0
176
     1
 90
        0
176
     1
290
     0
176
     1
 90
        1
176
     1
 40
0.0
176
     1
 90
        0
176
     1
290
     0
176
     1
290
     1
176
     1
290
     1
176
     1
290
     0
176
     1
290
     0
176
     1
290
     0
176
     1
290
     0
176
     1
290
     0
176
     1
290
     0
176
     1
 90
       50
176
     1
 40
0.0
176
     1
 40
1.0
176
     1
 90
        0
176
     1
 62
    18
420
        0
176
     1
 90
       50
176
     1
 90
        3
176
     1
 62
     5
420
      255
176
     1
290
     0
176
     1
 90
       50
176
     1
 90
       50
176
     1
 90
       50
176
     1
290
     0
176
     1
 90
       50
176
     1
 62
   256
176
     0
 40
1.0
176
     0
 90
        2
176
     1
  1
strokes_ogs.tif
176
     1
290
     0
176
     1
 40
1.0
176
     1
 40
1.0
176
     1
  0
VISUALSTYLE
  5
30
102
{ACAD_REACTORS
330
2A
102
}
330
2A
100
AcDbVisualStyle
  2
Wireframe
 70
     5
177
     3
291
     0
 70
    58
 90
        0
176
     1
 90
        2
176
     1
 90
        0
176
     1
 90
        0
176
     1
 40
0.6
176
     1
 40
30.0
176
     1
 62
     7
420
 16777215
176
     1
 90
        1
176
     1
 90
        4
176
     1
 62
     7
176
     1
 62
   257
176
     1
 90
        1
176
     1
 90
        1
176
     1
 40
1.0
176
     1
 90
        0
176
     1
 62
   257
176
     1
 40
1.0
176
     1
 90
        1
176
     1
 90
        6
176
     1
 90
        2
176
     1
 62
     7
176
     1
 90
        3
176
     1
 90
        0
176
     1
 90
        0
176
     1
290
     0
176
     1
 90
        1
176
     1
 40
0.0
176
     1
 90
        0
176
     1
290
     0
176
     1
290
     1
176
     1
290
     1
176
     1
290
     0
176
     1
290
     0
176
     1
290
     0
176
     1
290
     0
176
     1
290
     0
176
     1
290
     0
176
     1
 90
       50
176
     1
 40
0.0
176
     1
 40
1.0
176
     1
 90
        0
176
     1
 62
    18
420
        0
176
     1
 90
       50
176
     1
 90
        3
176
     1
 62
     5
420
      255
176
     1
290
     0
176
     1
 90
       50
176
     1
 90
       50
176
     1
 90
       50
176
     1
290
     0
176
     1
 90
       50
176
     1
 62
   256
176
     0
 40
1.0
176
     0
 90
        2
176
     1
  1
strokes_ogs.tif
176
     1
290
     0
176
     1
 40
1.0
176
     1
 40
1.0
176
     1
  0
VISUALSTYLE
  5
40
102
{ACAD_REACTORS
330
2A
102
}
330
2A
100
AcDbVisualStyle
  2
X-Ray
 70
    25
177
     3
291
     0
 70
    58
 90
        2
176
     1
 90
        2
176
     1
 90
        1
176
     1
 90
        1
176
     1
 40
0.5
176
     1
 40
30.0
176
     1
 62
     7
420
 16777215
176
     1
 90
        1
176
     1
 90
        0
176
     1
 62
     7
176
     1
 62
   257
176
     1
 90
        1
176
     1
 90
        1
176
     1
 40
1.0
176
     1
 90
        8
176
     1
 62
     7
176
     1
 40
1.0
176
     1
 90
        1
176
     1
 90
        6
176
     1
 90
        2
176
     1
 62
     7
176
     1
 90
        3
176
     1
 90
        0
176
     1
 90
        0
176
     1
290
     0
176
     1
 90
       13
176
     1
 40
0.0
176
     1
 90
        0
176
     1
290
     0
176
     1
290
     1
176
     1
290
     1
176
     1
290
     0
176
     1
290
     0
176
     1
290
     0
176
     1
290
     0
176
     1
290
     0
176
     1
290
     0
176
     1
 90
       50
176
     1
 40
0.0
176
     1
 40
1.0
176
     1
 90
        0
176
     1
 62
    18
420
        0
176
     1
 90
       50
176
     1
 90
        3
176
     1
 62
     5
420
      255
176
     1
290
     0
176
     1
 90
       50
176
     1
 90
       50
176
     1
 90
       50
176
     1
290
     0
176
     1
 90
       50
176
     1
 62
   256
176
     0
 40
1.0
176
     0
 90
        2
176
     1
  1
strokes_ogs.tif
176
     1
290
     0
176
     1
 40
1.0
176
     1
 40
1.0
176
     1
  0
DICTIONARYVAR
  5
F3
102
{ACAD_REACTORS
330
F2
102
}
330
F2
100
DictionaryVariables
280
     0
  1
1:1
  0
DICTIONARYVAR
  5
FB
102
{ACAD_REACTORS
330
F2
102
}
330
F2
100
DictionaryVariables
280
     0
  1
3.500000
  0
DICTIONARYVAR
  5
FC
102
{ACAD_REACTORS
330
F2
102
}
330
F2
100
DictionaryVariables
280
     0
  1
acadiso.lin
  0
DICTIONARYVAR
  5
F8
102
{ACAD_REACTORS
330
F2
102
}
330
F2
100
DictionaryVariables
280
     0
  1
Standard
  0
DICTIONARYVAR
  5
F7
102
{ACAD_REACTORS
330
F2
102
}
330
F2
100
DictionaryVariables
280
     0
  1
Standard
  0
DICTIONARY
  5
F4
330
6A
100
AcDbDictionary
280
     1
281
     1
  3
ACAD_ROUNDTRIP_2008_TABLESTYLE_CELLSTYLEMAP
360
F5
  0
CELLSTYLEMAP
  5
F5
102
{ACAD_REACTORS
330
F4
102
}
330
F4
100
AcDbCellStyleMap
 90
        3
300
CELLSTYLE
  1
TABLEFORMAT_BEGIN
 90
        5
170
     1
 91
        0
 92
    32768
 62
   257
 93
        1
300
CONTENTFORMAT
  1
CONTENTFORMAT_BEGIN
 90
        0
 91
        0
 92
        4
 93
        0
300

 40
0.0
140
1.0
 94
        5
 62
     0
340
11
144
6.0
309
CONTENTFORMAT_END
171
     1
301
MARGIN
  1
CELLMARGIN_BEGIN
 40
1.5
 40
1.5
 40
1.5
 40
1.5
 40
1.5
 40
1.5
309
CELLMARGIN_END
 94
        6
 95
        1
302
GRIDFORMAT
  1
GRIDFORMAT_BEGIN
 90
        0
 91
        1
 62
     0
 92
       -2
340
14
 93
        0
 40
0.045
309
GRIDFORMAT_END
 95
        2
302
GRIDFORMAT
  1
GRIDFORMAT_BEGIN
 90
        0
 91
        1
 62
     0
 92
       -2
340
14
 93
        0
 40
0.045
309
GRIDFORMAT_END
 95
        4
302
GRIDFORMAT
  1
GRIDFORMAT_BEGIN
 90
        0
 91
        1
 62
     0
 92
       -2
340
14
 93
        0
 40
0.045
309
GRIDFORMAT_END
 95
        8
302
GRIDFORMAT
  1
GRIDFORMAT_BEGIN
 90
        0
 91
        1
 62
     0
 92
       -2
340
14
 93
        0
 40
0.045
309
GRIDFORMAT_END
 95
       16
302
GRIDFORMAT
  1
GRIDFORMAT_BEGIN
 90
        0
 91
        1
 62
     0
 92
       -2
340
14
 93
        0
 40
0.045
309
GRIDFORMAT_END
 95
       32
302
GRIDFORMAT
  1
GRIDFORMAT_BEGIN
 90
        0
 91
        1
 62
     0
 92
       -2
340
14
 93
        0
 40
0.045
309
GRIDFORMAT_END
309
TABLEFORMAT_END
  1
CELLSTYLE_BEGIN
 90
        1
 91
        1
300
_TITLE
309
CELLSTYLE_END
300
CELLSTYLE
  1
TABLEFORMAT_BEGIN
 90
        5
170
     1
 91
        0
 92
        0
 62
   257
 93
        1
300
CONTENTFORMAT
  1
CONTENTFORMAT_BEGIN
 90
        0
 91
        0
 92
        4
 93
        0
300

 40
0.0
140
1.0
 94
        5
 62
     0
340
11
144
4.5
309
CONTENTFORMAT_END
171
     1
301
MARGIN
  1
CELLMARGIN_BEGIN
 40
1.5
 40
1.5
 40
1.5
 40
1.5
 40
1.5
 40
1.5
309
CELLMARGIN_END
 94
        6
 95
        1
302
GRIDFORMAT
  1
GRIDFORMAT_BEGIN
 90
        0
 91
        1
 62
     0
 92
       -2
340
14
 93
        0
 40
0.045
309
GRIDFORMAT_END
 95
        2
302
GRIDFORMAT
  1
GRIDFORMAT_BEGIN
 90
        0
 91
        1
 62
     0
 92
       -2
340
14
 93
        0
 40
0.045
309
GRIDFORMAT_END
 95
        4
302
GRIDFORMAT
  1
GRIDFORMAT_BEGIN
 90
        0
 91
        1
 62
     0
 92
       -2
340
14
 93
        0
 40
0.045
309
GRIDFORMAT_END
 95
        8
302
GRIDFORMAT
  1
GRIDFORMAT_BEGIN
 90
        0
 91
        1
 62
     0
 92
       -2
340
14
 93
        0
 40
0.045
309
GRIDFORMAT_END
 95
       16
302
GRIDFORMAT
  1
GRIDFORMAT_BEGIN
 90
        0
 91
        1
 62
     0
 92
       -2
340
14
 93
        0
 40
0.045
309
GRIDFORMAT_END
 95
       32
302
GRIDFORMAT
  1
GRIDFORMAT_BEGIN
 90
        0
 91
        1
 62
     0
 92
       -2
340
14
 93
        0
 40
0.045
309
GRIDFORMAT_END
309
TABLEFORMAT_END
  1
CELLSTYLE_BEGIN
 90
        2
 91
        1
300
_HEADER
309
CELLSTYLE_END
300
CELLSTYLE
  1
TABLEFORMAT_BEGIN
 90
        5
170
     1
 91
        0
 92
        0
 62
   257
 93
        1
300
CONTENTFORMAT
  1
CONTENTFORMAT_BEGIN
 90
        0
 91
        0
 92
        4
 93
        0
300

 40
0.0
140
1.0
 94
        2
 62
     0
340
11
144
4.5
309
CONTENTFORMAT_END
171
     1
301
MARGIN
  1
CELLMARGIN_BEGIN
 40
1.5
 40
1.5
 40
1.5
 40
1.5
 40
1.5
 40
1.5
309
CELLMARGIN_END
 94
        6
 95
        1
302
GRIDFORMAT
  1
GRIDFORMAT_BEGIN
 90
        0
 91
        1
 62
     0
 92
       -2
340
14
 93
        0
 40
0.045
309
GRIDFORMAT_END
 95
        2
302
GRIDFORMAT
  1
GRIDFORMAT_BEGIN
 90
        0
 91
        1
 62
     0
 92
       -2
340
14
 93
        0
 40
0.045
309
GRIDFORMAT_END
 95
        4
302
GRIDFORMAT
  1
GRIDFORMAT_BEGIN
 90
        0
 91
        1
 62
     0
 92
       -2
340
14
 93
        0
 40
0.045
309
GRIDFORMAT_END
 95
        8
302
GRIDFORMAT
  1
GRIDFORMAT_BEGIN
 90
        0
 91
        1
 62
     0
 92
       -2
340
14
 93
        0
 40
0.045
309
GRIDFORMAT_END
 95
       16
302
GRIDFORMAT
  1
GRIDFORMAT_BEGIN
 90
        0
 91
        1
 62
     0
 92
       -2
340
14
 93
        0
 40
0.045
309
GRIDFORMAT_END
 95
       32
302
GRIDFORMAT
  1
GRIDFORMAT_BEGIN
 90
        0
 91
        1
 62
     0
 92
       -2
340
14
 93
        0
 40
0.045
309
GRIDFORMAT_END
309
TABLEFORMAT_END
  1
CELLSTYLE_BEGIN
 90
        3
 91
        2
300
_DATA
309
CELLSTYLE_END
  0
ENDSEC
  0
EOF
