  0
SECTION
  2
HEADER
  9
$ACADVER
  1
AC1032
  9
$ACADMAINTVER
 90
       55
  9
$DWGCODEPAGE
  3
ANSI_1252
  9
$LASTSAVEDBY
  1
villesi
  9
$REQUIREDVERSIONS
160
                 0
  9
$INSBASE
 10
0.0
 20
0.0
 30
0.0
  9
$EXTMIN
 10
0.0
 20
0.0
 30
0.0
  9
$EXTMAX
 10
650.0
 20
550.0
 30
0.0
  9
$LIMMIN
 10
0.0
 20
0.0
  9
$LIMMAX
 10
650.0
 20
550.0
  9
$ORTHOMODE
 70
     0
  9
$REGENMODE
 70
     1
  9
$FILLMODE
 70
     1
  9
$QTEXTMODE
 70
     0
  9
$MIRRTEXT
 70
     1
  9
$LTSCALE
 40
1.0
  9
$ATTMODE
 70
     1
  9
$TEXTSIZE
 40
5.0
  9
$TRACEWID
 40
1.0
  9
$TEXTSTYLE
  7
Standard
  9
$CLAYER
  8
0
  9
$CELTYPE
  6
ByLayer
  9
$CECOLOR
 62
   256
  9
$CELTSCALE
 40
1.0
  9
$DISPSILH
 70
     0
  9
$DIMSCALE
 40
1.0
  9
$DIMASZ
 40
6.0
  9
$DIMEXO
 40
1.0
  9
$DIMDLI
 40
3.75
  9
$DIMRND
 40
0.0
  9
$DIMDLE
 40
0.0
  9
$DIMEXE
 40
1.0
  9
$DIMTP
 40
0.0
  9
$DIMTM
 40
0.0
  9
$DIMTXT
 40
5.0
  9
$DIMCEN
 40
2.5
  9
$DIMTSZ
 40
0.0
  9
$DIMTOL
 70
     0
  9
$DIMLIM
 70
     0
  9
$DIMTIH
 70
     1
  9
$DIMTOH
 70
     1
  9
$DIMSE1
 70
     0
  9
$DIMSE2
 70
     0
  9
$DIMTAD
 70
     1
  9
$DIMZIN
 70
     0
  9
$DIMBLK
  1

  9
$DIMASO
 70
     1
  9
$DIMSHO
 70
     1
  9
$DIMPOST
  1

  9
$DIMAPOST
  1

  9
$DIMALT
 70
     0
  9
$DIMALTD
 70
     3
  9
$DIMALTF
 40
0.0393700787
  9
$DIMLFAC
 40
1.0
  9
$DIMTOFL
 70
     1
  9
$DIMTVP
 40
0.0
  9
$DIMTIX
 70
     0
  9
$DIMSOXD
 70
     0
  9
$DIMSAH
 70
     0
  9
$DIMBLK1
  1

  9
$DIMBLK2
  1

  9
$DIMSTYLE
  2
ISO-25
  9
$DIMCLRD
 70
     0
  9
$DIMCLRE
 70
     0
  9
$DIMCLRT
 70
     0
  9
$DIMTFAC
 40
1.0
  9
$DIMGAP
 40
1.524
  9
$DIMJUST
 70
     0
  9
$DIMSD1
 70
     0
  9
$DIMSD2
 70
     0
  9
$DIMTOLJ
 70
     0
  9
$DIMTZIN
 70
     0
  9
$DIMALTZ
 70
     0
  9
$DIMALTTZ
 70
     0
  9
$DIMUPT
 70
     0
  9
$DIMDEC
 70
     2
  9
$DIMTDEC
 70
     2
  9
$DIMALTU
 70
     2
  9
$DIMALTTD
 70
     3
  9
$DIMTXSTY
  7
Standard
  9
$DIMAUNIT
 70
     0
  9
$DIMADEC
 70
     2
  9
$DIMALTRND
 40
0.0
  9
$DIMAZIN
 70
     0
  9
$DIMDSEP
 70
    44
  9
$DIMATFIT
 70
     3
  9
$DIMFRAC
 70
     0
  9
$DIMLDRBLK
  1

  9
$DIMLUNIT
 70
     2
  9
$DIMLWD
 70
    -2
  9
$DIMLWE
 70
    -2
  9
$DIMTMOVE
 70
     0
  9
$DIMFXL
 40
1.0
  9
$DIMFXLON
 70
     0
  9
$DIMJOGANG
 40
0.7853981634
  9
$DIMTFILL
 70
     0
  9
$DIMTFILLCLR
 70
     0
  9
$DIMARCSYM
 70
     0
  9
$DIMLTYPE
  6

  9
$DIMLTEX1
  6

  9
$DIMLTEX2
  6

  9
$DIMTXTDIRECTION
 70
     0
  9
$LUNITS
 70
     2
  9
$LUPREC
 70
     2
  9
$SKETCHINC
 40
1.0
  9
$FILLETRAD
 40
10.0
  9
$AUNITS
 70
     0
  9
$AUPREC
 70
     2
  9
$MENU
  1
.
  9
$ELEVATION
 40
0.0
  9
$PELEVATION
 40
0.0
  9
$THICKNESS
 40
0.0
  9
$LIMCHECK
 70
     0
  9
$CHAMFERA
 40
0.0
  9
$CHAMFERB
 40
0.0
  9
$CHAMFERC
 40
0.0
  9
$CHAMFERD
 40
0.0
  9
$SKPOLY
 70
     0
  9
$TDCREATE
 40
2459942.304792269
  9
$TDUCREATE
 40
2459942.221458935
  9
$TDUPDATE
 40
2459942.304792732
  9
$TDUUPDATE
 40
2459942.221459398
  9
$TDINDWG
 40
0.0000000116
  9
$TDUSRTIMER
 40
0.0000000116
  9
$USRTIMER
 70
     1
  9
$ANGBASE
 50
0.0
  9
$ANGDIR
 70
     0
  9
$PDMODE
 70
     0
  9
$PDSIZE
 40
-1.0
  9
$PLINEWID
 40
0.0
  9
$SPLFRAME
 70
     0
  9
$SPLINETYPE
 70
     6
  9
$SPLINESEGS
 70
     8
  9
$HANDSEED
  5
FF
  9
$SURFTAB1
 70
     6
  9
$SURFTAB2
 70
     6
  9
$SURFTYPE
 70
     6
  9
$SURFU
 70
     6
  9
$SURFV
 70
     6
  9
$UCSBASE
  2

  9
$UCSNAME
  2

  9
$UCSORG
 10
0.0
 20
0.0
 30
0.0
  9
$UCSXDIR
 10
1.0
 20
0.0
 30
0.0
  9
$UCSYDIR
 10
0.0
 20
1.0
 30
0.0
  9
$UCSORTHOREF
  2

  9
$UCSORTHOVIEW
 70
     0
  9
$UCSORGTOP
 10
0.0
 20
0.0
 30
0.0
  9
$UCSORGBOTTOM
 10
0.0
 20
0.0
 30
0.0
  9
$UCSORGLEFT
 10
0.0
 20
0.0
 30
0.0
  9
$UCSORGRIGHT
 10
0.0
 20
0.0
 30
0.0
  9
$UCSORGFRONT
 10
0.0
 20
0.0
 30
0.0
  9
$UCSORGBACK
 10
0.0
 20
0.0
 30
0.0
  9
$PUCSBASE
  2

  9
$PUCSNAME
  2

  9
$PUCSORG
 10
0.0
 20
0.0
 30
0.0
  9
$PUCSXDIR
 10
1.0
 20
0.0
 30
0.0
  9
$PUCSYDIR
 10
0.0
 20
1.0
 30
0.0
  9
$PUCSORTHOREF
  2

  9
$PUCSORTHOVIEW
 70
     0
  9
$PUCSORGTOP
 10
0.0
 20
0.0
 30
0.0
  9
$PUCSORGBOTTOM
 10
0.0
 20
0.0
 30
0.0
  9
$PUCSORGLEFT
 10
0.0
 20
0.0
 30
0.0
  9
$PUCSORGRIGHT
 10
0.0
 20
0.0
 30
0.0
  9
$PUCSORGFRONT
 10
0.0
 20
0.0
 30
0.0
  9
$PUCSORGBACK
 10
0.0
 20
0.0
 30
0.0
  9
$USERI1
 70
     0
  9
$USERI2
 70
     0
  9
$USERI3
 70
     0
  9
$USERI4
 70
     0
  9
$USERI5
 70
     0
  9
$USERR1
 40
0.0
  9
$USERR2
 40
0.0
  9
$USERR3
 40
0.0
  9
$USERR4
 40
0.0
  9
$USERR5
 40
0.0
  9
$WORLDVIEW
 70
     1
  9
$SHADEDGE
 70
     3
  9
$SHADEDIF
 70
    70
  9
$TILEMODE
 70
     1
  9
$MAXACTVP
 70
    64
  9
$PINSBASE
 10
0.0
 20
0.0
 30
0.0
  9
$PLIMCHECK
 70
     0
  9
$PEXTMIN
 10
1.0000000000E+20
 20
1.0000000000E+20
 30
1.0000000000E+20
  9
$PEXTMAX
 10
-1.0000000000E+20
 20
-1.0000000000E+20
 30
-1.0000000000E+20
  9
$PLIMMIN
 10
0.0
 20
0.0
  9
$PLIMMAX
 10
420.0
 20
297.0
  9
$UNITMODE
 70
     0
  9
$VISRETAIN
 70
     1
  9
$PLINEGEN
 70
     0
  9
$PSLTSCALE
 70
     1
  9
$TREEDEPTH
 70
  3020
  9
$CMLSTYLE
  2
Standard
  9
$CMLJUST
 70
     0
  9
$CMLSCALE
 40
20.0
  9
$PROXYGRAPHICS
 70
     1
  9
$MEASUREMENT
 70
     1
  9
$CELWEIGHT
370
    -1
  9
$ENDCAPS
280
     0
  9
$JOINSTYLE
280
     0
  9
$LWDISPLAY
290
     1
  9
$INSUNITS
 70
     4
  9
$HYPERLINKBASE
  1

  9
$STYLESHEET
  1

  9
$XEDIT
290
     1
  9
$CEPSNTYPE
380
     0
  9
$PSTYLEMODE
290
     1
  9
$FINGERPRINTGUID
  2
{de9504ff-635b-4cc8-8290-290f6cfbb8f2}
  9
$VERSIONGUID
  2
{FAEB1C32-E019-11D5-929B-00C0DF256EC4}
  9
$EXTNAMES
290
     1
  9
$PSVPSCALE
 40
0.0
  9
$OLESTARTUP
290
     0
  9
$SORTENTS
280
   127
  9
$INDEXCTL
280
     0
  9
$HIDETEXT
280
     1
  9
$XCLIPFRAME
280
     2
  9
$HALOGAP
280
     0
  9
$OBSCOLOR
 70
   257
  9
$OBSLTYPE
280
     0
  9
$INTERSECTIONDISPLAY
280
     0
  9
$INTERSECTIONCOLOR
 70
   257
  9
$DIMASSOC
280
     2
  9
$PROJECTNAME
  1

  9
$CAMERADISPLAY
290
     0
  9
$LENSLENGTH
 40
50.0
  9
$CAMERAHEIGHT
 40
0.0
  9
$STEPSPERSEC
 40
2.0
  9
$STEPSIZE
 40
6.0
  9
$3DDWFPREC
 40
2.0
  9
$PSOLWIDTH
 40
5.0
  9
$PSOLHEIGHT
 40
80.0
  9
$LOFTANG1
 40
1.5707963268
  9
$LOFTANG2
 40
1.5707963268
  9
$LOFTMAG1
 40
0.0
  9
$LOFTMAG2
 40
0.0
  9
$LOFTPARAM
 70
     7
  9
$LOFTNORMALS
280
     1
  9
$LATITUDE
 40
37.795
  9
$LONGITUDE
 40
-122.394
  9
$NORTHDIRECTION
 40
0.0
  9
$TIMEZONE
 70
 -8000
  9
$LIGHTGLYPHDISPLAY
280
     1
  9
$TILEMODELIGHTSYNCH
280
     1
  9
$CMATERIAL
347
44
  9
$SOLIDHIST
280
     0
  9
$SHOWHIST
280
     1
  9
$DWFFRAME
280
     2
  9
$DGNFRAME
280
     2
  9
$REALWORLDSCALE
290
     1
  9
$INTERFERECOLOR
 62
   256
  9
$CSHADOW
280
     0
  9
$SHADOWPLANELOCATION
 40
0.0
  0
ENDSEC
  0
SECTION
  2
CLASSES
  0
CLASS
  1
ACDBDICTIONARYWDFLT
  2
AcDbDictionaryWithDefault
  3
ObjectDBX Classes
 90
        0
 91
        3
280
     0
281
     0
  0
CLASS
  1
VISUALSTYLE
  2
AcDbVisualStyle
  3
ObjectDBX Classes
 90
     4095
 91
        3
280
     0
281
     0
  0
CLASS
  1
MATERIAL
  2
AcDbMaterial
  3
ObjectDBX Classes
 90
     1153
 91
        3
280
     0
281
     0
  0
CLASS
  1
SCALE
  2
AcDbScale
  3
ObjectDBX Classes
 90
     1153
 91
        3
280
     0
281
     0
  0
CLASS
  1
TABLESTYLE
  2
AcDbTableStyle
  3
ObjectDBX Classes
 90
     4095
 91
        3
280
     0
281
     0
  0
CLASS
  1
MLEADERSTYLE
  2
AcDbMLeaderStyle
  3
ACDB_MLEADERSTYLE_CLASS
 90
     4095
 91
        3
280
     0
281
     0
  0
CLASS
  1
SUN
  2
AcDbSun
  3
SCENEOE
 90
     1153
 91
        3
280
     0
281
     0
  0
CLASS
  1
DICTIONARYVAR
  2
AcDbDictionaryVar
  3
ObjectDBX Classes
 90
        0
 91
        3
280
     0
281
     0
  0
CLASS
  1
CELLSTYLEMAP
  2
AcDbCellStyleMap
  3
ObjectDBX Classes
 90
     1152
 91
        3
280
     0
281
     0
  0
ENDSEC
  0
SECTION
  2
TABLES
  0
TABLE
  2
VPORT
  5
8
330
0
100
AcDbSymbolTable
 70
     1
  0
VPORT
  5
29
330
8
100
AcDbSymbolTableRecord
100
AcDbViewportTableRecord
  2
*Active
 70
     0
 10
0.0
 20
0.0
 11
1.0
 21
1.0
 12
325.0
 22
275.0
 13
0.0
 23
0.0
 14
10.0
 24
10.0
 15
10.0
 25
10.0
 16
0.0
 26
0.0
 36
1.0
 17
0.0
 27
0.0
 37
0.0
 40
550.0
 41
1.1818181818
 42
50.0
 43
0.0
 44
0.0
 50
0.0
 51
0.0
 71
     0
 72
  2000
 73
     1
 74
     3
 75
     0
 76
     0
 77
     0
 78
     0
281
     0
 65
     1
110
0.0
120
0.0
130
0.0
111
1.0
121
0.0
131
0.0
112
0.0
122
1.0
132
0.0
 79
     0
146
0.0
348
2F
 60
     3
 61
     5
292
     1
282
     1
141
0.0
142
0.0
 63
   250
361
6D
  0
ENDTAB
  0
TABLE
  2
LTYPE
  5
5
330
0
100
AcDbSymbolTable
 70
     6
  0
LTYPE
  5
14
330
5
100
AcDbSymbolTableRecord
100
AcDbLinetypeTableRecord
  2
ByBlock
 70
     0
  3

 72
    65
 73
     0
 40
0.0
  0
LTYPE
  5
15
330
5
100
AcDbSymbolTableRecord
100
AcDbLinetypeTableRecord
  2
ByLayer
 70
     0
  3

 72
    65
 73
     0
 40
0.0
  0
LTYPE
  5
16
330
5
100
AcDbSymbolTableRecord
100
AcDbLinetypeTableRecord
  2
Continuous
 70
     0
  3
Solid line
 72
    65
 73
     0
 40
0.0
  0
LTYPE
  5
6E
330
5
100
AcDbSymbolTableRecord
100
AcDbLinetypeTableRecord
  2
HIDDEN
 70
     0
  3
Hidden __ __ __ __ __ __ __ __ __ __ __ __ __ __
 72
    65
 73
     2
 40
1.905
 49
1.27
 74
     0
 49
-0.635
 74
     0
  0
LTYPE
  5
6F
330
5
100
AcDbSymbolTableRecord
100
AcDbLinetypeTableRecord
  2
PHANTOM
 70
     0
  3
Phantom ______  __  __  ______  __  __  ______
 72
    65
 73
     6
 40
12.7
 49
6.35
 74
     0
 49
-1.27
 74
     0
 49
1.27
 74
     0
 49
-1.27
 74
     0
 49
1.27
 74
     0
 49
-1.27
 74
     0
  0
LTYPE
  5
70
330
5
100
AcDbSymbolTableRecord
100
AcDbLinetypeTableRecord
  2
CENTER
 70
     0
  3
Center ____ _ ____ _ ____ _ ____ _ ____ _ ____
 72
    65
 73
     4
 40
10.16
 49
6.35
 74
     0
 49
-1.27
 74
     0
 49
1.27
 74
     0
 49
-1.27
 74
     0
  0
LTYPE
  5
71
330
5
100
AcDbSymbolTableRecord
100
AcDbLinetypeTableRecord
  2
CENTERX2
 70
     0
  3
Center (2x) ________  __  ________  __  _____
 72
    65
 73
     4
 40
20.32
 49
12.7
 74
     0
 49
-2.54
 74
     0
 49
2.54
 74
     0
 49
-2.54
 74
     0
  0
LTYPE
  5
72
330
5
100
AcDbSymbolTableRecord
100
AcDbLinetypeTableRecord
  2
DOT2
 70
     0
  3
Dot (.5x) ........................................
 72
    65
 73
     2
 40
0.635
 49
0.0
 74
     0
 49
-0.635
 74
     0
  0
ENDTAB
  0
TABLE
  2
LAYER
  5
2
330
0
100
AcDbSymbolTable
 70
     2
  0
LAYER
  5
10
330
2
100
AcDbSymbolTableRecord
100
AcDbLayerTableRecord
  2
0
 70
     0
 62
     7
  6
Continuous
370
    -3
390
F
347
46
348
0
  0
LAYER
  5
73
330
2
100
AcDbSymbolTableRecord
100
AcDbLayerTableRecord
  2
TABLE_BL1
 70
     0
 62
   179
  6
Continuous
370
    -3
390
F
347
46
348
0
  0
ENDTAB
  0
TABLE
  2
STYLE
  5
3
330
0
100
AcDbSymbolTable
 70
     1
  0
STYLE
  5
11
330
3
100
AcDbSymbolTableRecord
100
AcDbTextStyleTableRecord
  2
Standard
 70
     0
 40
0.0
 41
1.0
 50
0.0
 71
     0
 42
5.0
  3
txt
  4

  0
ENDTAB
  0
TABLE
  2
VIEW
  5
6
330
0
100
AcDbSymbolTable
 70
     0
  0
ENDTAB
  0
TABLE
  2
UCS
  5
7
330
0
100
AcDbSymbolTable
 70
     0
  0
ENDTAB
  0
TABLE
  2
APPID
  5
9
330
0
100
AcDbSymbolTable
 70
     1
  0
APPID
  5
12
330
9
100
AcDbSymbolTableRecord
100
AcDbRegAppTableRecord
  2
ACAD
 70
     0
  0
ENDTAB
  0
TABLE
  2
DIMSTYLE
  5
A
330
0
100
AcDbSymbolTable
 70
     1
100
AcDbDimStyleTable
  0
DIMSTYLE
105
27
330
A
100
AcDbSymbolTableRecord
100
AcDbDimStyleTableRecord
  2
ISO-25
 70
     0
 41
2.5
 42
0.625
 43
3.75
 44
1.25
 73
     0
 74
     0
 77
     1
 78
     8
140
2.5
141
2.5
143
0.0393700787
147
0.625
171
     3
172
     1
178
     0
271
     2
272
     2
274
     3
278
    44
283
     0
284
     8
340
11
  0
ENDTAB
  0
TABLE
  2
BLOCK_RECORD
  5
1
330
0
100
AcDbSymbolTable
 70
     1
  0
BLOCK_RECORD
  5
1F
330
1
100
AcDbSymbolTableRecord
100
AcDbBlockTableRecord
  2
*Model_Space
340
22
 70
     0
280
     1
281
     0
  0
BLOCK_RECORD
  5
1B
330
1
100
AcDbSymbolTableRecord
100
AcDbBlockTableRecord
  2
*Paper_Space
340
1E
 70
     0
280
     1
281
     0
  0
BLOCK_RECORD
  5
23
330
1
100
AcDbSymbolTableRecord
100
AcDbBlockTableRecord
  2
*Paper_Space0
340
26
 70
     0
280
     1
281
     0
  0
ENDTAB
  0
ENDSEC
  0
SECTION
  2
BLOCKS
  0
BLOCK
  5
20
330
1F
100
AcDbEntity
  8
0
100
AcDbBlockBegin
  2
*Model_Space
 70
     0
 10
0.0
 20
0.0
 30
0.0
  3
*Model_Space
  1

  0
ENDBLK
  5
21
330
1F
100
AcDbEntity
  8
0
100
AcDbBlockEnd
  0
BLOCK
  5
1C
330
1B
100
AcDbEntity
 67
     1
  8
0
100
AcDbBlockBegin
  2
*Paper_Space
 70
     0
 10
0.0
 20
0.0
 30
0.0
  3
*Paper_Space
  1

  0
ENDBLK
  5
1D
330
1B
100
AcDbEntity
 67
     1
  8
0
100
AcDbBlockEnd
  0
BLOCK
  5
24
330
23
100
AcDbEntity
  8
0
100
AcDbBlockBegin
  2
*Paper_Space0
 70
     0
 10
0.0
 20
0.0
 30
0.0
  3
*Paper_Space0
  1

  0
ENDBLK
  5
25
330
23
100
AcDbEntity
  8
0
100
AcDbBlockEnd
  0
ENDSEC
  0
SECTION
  2
ENTITIES
  0
LINE
  5
74
330
1F
100
AcDbEntity
  8
0
  6
Continuous
 62
     7
370
    25
100
AcDbLine
 10
498.1147075482
 20
463.4187512885
 30
0.0
 11
514.1985317122
 21
479.5025755005
 31
0.0
  0
SPLINE
  5
75
330
1F
100
AcDbEntity
  8
0
  6
Continuous
 62
     7
370
    25
100
AcDbSpline
210
0.0
220
0.0
230
1.0
 70
     8
 71
     3
 72
    27
 73
    23
 74
     0
 42
0.00000001
 43
0.00000001
 40
0.0
 40
0.0
 40
0.0
 40
0.0
 40
0.0379429267648109
 40
0.0759628776541822
 40
0.1140604628543865
 40
0.1522362888288172
 40
0.1904909583194575
 40
0.2288250703489452
 40
0.2672392202232429
 40
0.3057339995347538
 40
0.344309996166079
 40
0.3829677942942528
 40
0.4217079743954818
 40
0.4605311132504341
 40
0.4994377839499796
 40
0.5681989975039147
 40
0.6378714247547923
 40
0.7084579814694039
 40
0.7799614711716847
 40
0.8523845904874214
 40
0.9257299341950498
 40
1.0
 40
1.0
 40
1.0
 40
1.0
 10
522.6601311378456
 20
476.0098384557624
 30
0.0
 10
522.5753921332982
 20
476.0931232837581
 30
0.0
 10
522.4057421040621
 20
476.2598620079134
 30
0.0
 10
522.1416325513511
 20
476.5003958032401
 30
0.0
 10
521.8703918454106
 20
476.7339165273886
 30
0.0
 10
521.5915288545184
 20
476.9594774121392
 30
0.0
 10
521.305437591235
 20
477.1770126057206
 30
0.0
 10
521.0122853961689
 20
477.3862257710226
 30
0.0
 10
520.7123116495869
 20
477.586889199968
 30
0.0
 10
520.4057473237845
 20
477.778763825191
 30
0.0
 10
520.0928365479081
 20
477.9616210930025
 30
0.0
 10
519.7738303034656
 20
478.1352375790298
 30
0.0
 10
519.4489892280418
 20
478.2993964689384
 30
0.0
 10
519.1185778478364
 20
478.453888911892
 30
0.0
 10
518.6972627814434
 20
478.6353953706516
 30
0.0
 10
518.1781737235618
 20
478.8334004959956
 30
0.0
 10
517.5545929159068
 20
479.0331661074374
 30
0.0
 10
516.912638851549
 20
479.2004383749088
 30
0.0
 10
516.2539155301597
 20
479.3336191109644
 30
0.0
 10
515.580185736066
 20
479.429983112986
 30
0.0
 10
514.8933843303304
 20
479.4914053996189
 30
0.0
 10
514.4311145948388
 20
479.4988366159773
 30
0.0
 10
514.1985318056303
 20
479.5025755002155
 30
0.0
  0
SPLINE
  5
76
330
1F
100
AcDbEntity
  8
0
  6
Continuous
 62
     7
370
    25
100
AcDbSpline
210
0.0
220
0.0
230
1.0
 70
     8
 71
     3
 72
    28
 73
    24
 74
     0
 42
0.00000001
 43
0.00000001
 40
0.0
 40
0.0
 40
0.0
 40
0.0
 40
0.0372538734889913
 40
0.0742763091968461
 40
0.1110676113456657
 40
0.1476280899340303
 40
0.1839580608759253
 40
0.2200578461435758
 40
0.2559277739143595
 40
0.291568178721897
 40
0.3269794016114368
 40
0.3621617902997007
 40
0.3971156993392849
 40
0.4318414902878125
 40
0.4663395318819676
 40
0.5006102002165151
 40
0.5727906425204055
 40
0.6446851618956907
 40
0.7162974596341009
 40
0.7876312809694271
 40
0.8586904151787255
 40
0.9294786956620678
 40
1.0
 40
1.0
 40
1.0
 40
1.0
 10
526.1528681822987
 20
467.5482391235472
 30
0.0
 10
526.1519638991467
 20
467.6648899643362
 30
0.0
 10
526.1501609506558
 20
467.89746695854
 30
0.0
 10
526.1346863768846
 20
468.2449623984016
 30
0.0
 10
526.1100852373436
 20
468.589717971935
 30
0.0
 10
526.0756437697734
 20
468.9314654899219
 30
0.0
 10
526.0318102816925
 20
469.2699466761829
 30
0.0
 10
525.9787316694809
 20
469.6049141972487
 30
0.0
 10
525.9166412698617
 20
469.9361314029522
 30
0.0
 10
525.8457553273471
 20
470.2633723781333
 30
0.0
 10
525.7662998804045
 20
470.5864219214309
 30
0.0
 10
525.6785031060624
 20
470.905075407101
 30
0.0
 10
525.5825966261377
 20
471.2191390856105
 30
0.0
 10
525.4788152586718
 20
471.5284286692572
 30
0.0
 10
525.3673942049774
 20
471.8327741932413
 30
0.0
 10
525.2045048342081
 20
472.2429956919242
 30
0.0
 10
524.9767290572844
 20
472.7532218044078
 30
0.0
 10
524.666741018075
 20
473.3536320683218
 30
0.0
 10
524.324615655485
 20
473.9332471295564
 30
0.0
 10
523.9519676549264
 20
474.490623205067
 30
0.0
 10
523.5496579258421
 20
475.023615255051
 30
0.0
 10
523.1216554116078
 20
475.5332172759034
 30
0.0
 10
522.8137786719635
 20
475.8511649619573
 30
0.0
 10
522.6601311378456
 20
476.0098384557624
 30
0.0
  0
LINE
  5
77
330
1F
100
AcDbEntity
  8
0
  6
Continuous
 62
     7
370
    25
100
AcDbLine
 10
526.1528681826
 20
467.5482390301
 30
0.0
 11
510.0690439664
 21
451.4644148661
 31
0.0
  0
SPLINE
  5
78
330
1F
100
AcDbEntity
  8
0
  6
Continuous
 62
     7
370
    25
100
AcDbSpline
210
0.0
220
0.0
230
1.0
 70
     8
 71
     3
 72
     8
 73
     4
 74
     0
 42
0.00000001
 43
0.00000001
 40
0.0
 40
0.0
 40
0.0
 40
0.0
 40
1.0
 40
1.0
 40
1.0
 40
1.0
 10
510.0690439851536
 20
451.464414910703
 30
0.0
 10
510.0689952141499
 20
451.4708426142372
 30
0.0
 10
510.0689412053502
 20
451.4772702015883
 30
0.0
 10
510.0688819590537
 20
451.4836976641188
 30
0.0
  0
SPLINE
  5
79
330
1F
100
AcDbEntity
  8
0
  6
Continuous
 62
     7
370
    25
100
AcDbSpline
210
0.0
220
0.0
230
1.0
 70
     8
 71
     3
 72
    31
 73
    27
 74
     0
 42
0.00000001
 43
0.00000001
 40
0.0
 40
0.0
 40
0.0
 40
0.0
 40
0.0184803954667434
 40
0.0368653212573678
 40
0.0551551979584373
 40
0.0733504651399586
 40
0.0914515803843498
 40
0.1094590183305692
 40
0.1273732697334785
 40
0.1451948405384418
 40
0.1629242509712939
 40
0.1805620346436351
 40
0.1981087376735607
 40
0.2155649178218391
 40
0.2329311436436039
 40
0.2502079936555974
 40
0.3755729275748405
 40
0.5000270350314218
 40
0.6237355060664427
 40
0.7498459816483134
 40
0.811705578581179
 40
0.874904370233
 40
0.905430084555295
 40
0.9364533603153
 40
0.9679760990753338
 40
1.0
 40
1.0
 40
1.0
 40
1.0
 10
510.0688819590526
 20
451.4836976662583
 30
0.0
 10
510.0668679143672
 20
451.5985998831505
 30
0.0
 10
510.0628502295461
 20
451.827810732374
 30
0.0
 10
510.0443349736182
 20
452.1704363136214
 30
0.0
 10
510.0168801814807
 20
452.5107151462075
 30
0.0
 10
509.9797627972625
 20
452.8483875624221
 30
0.0
 10
509.9333984104761
 20
453.1832050558655
 30
0.0
 10
509.8779062441732
 20
453.5149282199319
 30
0.0
 10
509.8134901327118
 20
453.8433272569785
 30
0.0
 10
509.7403367268645
 20
454.1681817401849
 30
0.0
 10
509.6586419535316
 20
454.489280719926
 30
0.0
 10
509.5686038291411
 20
454.8064221139372
 30
0.0
 10
509.4704226223663
 20
455.1194145222008
 30
0.0
 10
509.364305055899
 20
455.4280700500851
 30
0.0
 10
509.250445323197
 20
455.7322303658711
 30
0.0
 10
508.8758221359715
 20
456.6566299464537
 30
0.0
 10
508.0775731444855
 20
458.1328819999625
 30
0.0
 10
506.5850609276833
 20
459.9419068136273
 30
0.0
 10
504.7708438028997
 20
461.4355619018145
 30
0.0
 10
503.0477523508796
 20
462.3650005516349
 30
0.0
 10
501.5748153306856
 20
462.9006354814207
 30
0.0
 10
500.6345138713616
 20
463.1423346138542
 30
0.0
 10
499.8700492163247
 20
463.2805794676402
 30
0.0
 10
499.2955472405527
 20
463.3557494356156
 30
0.0
 10
498.7089699257525
 20
463.4056739955331
 30
0.0
 10
498.3138337923774
 20
463.4143693411992
 30
0.0
 10
498.1147076001863
 20
463.418751302063
 30
0.0
  0
SPLINE
  5
7A
330
1F
100
AcDbEntity
  8
0
  6
Continuous
 62
     7
370
    25
100
AcDbSpline
210
0.0
220
0.0
230
1.0
 70
     8
 71
     3
 72
    27
 73
    23
 74
     0
 42
0.00000001
 43
0.00000001
 40
0.0
 40
0.0
 40
0.0
 40
0.0
 40
0.0379432832857976
 40
0.0759635312624713
 40
0.1140613541132784
 40
0.1522373583014821
 40
0.1904921465717525
 40
0.2288263179522585
 40
0.2672404677571764
 40
0.3057351875898839
 40
0.3443110653465747
 40
0.3829686852204818
 40
0.4217086277065914
 40
0.4605314696068565
 40
0.4994377840358946
 40
0.5681996839519952
 40
0.6378725689135601
 40
0.7084593545724425
 40
0.7799628443703321
 40
0.8523857348804709
 40
0.9257306208556425
 40
1.0
 40
1.0
 40
1.0
 40
1.0
 10
129.8053322776524
 20
476.0098384486479
 30
0.0
 10
129.7220466735688
 20
475.9250986413251
 30
0.0
 10
129.5553065277077
 20
475.7554471392591
 30
0.0
 10
129.3147709577188
 20
475.4913354257054
 30
0.0
 10
129.0812489360363
 20
475.2200928902329
 30
0.0
 10
128.8556872078956
 20
474.941228427337
 30
0.0
 10
128.6381515869642
 20
474.6551360867025
 30
0.0
 10
128.4289383730473
 20
474.3619832410285
 30
0.0
 10
128.2282752342646
 20
474.0620093010688
 30
0.0
 10
128.0364011962331
 20
473.7554452671251
 30
0.0
 10
127.8535447690744
 20
473.4425352939138
 30
0.0
 10
127.6799293318502
 20
473.1235303859548
 30
0.0
 10
127.5157716522026
 20
472.7986912011386
 30
0.0
 10
127.3612805321095
 20
472.4682822833815
 30
0.0
 10
127.1797741122459
 20
472.0469670898139
 30
0.0
 10
126.981768268874
 20
471.527875658861
 30
0.0
 10
126.782001798365
 20
470.9042906066448
 30
0.0
 10
126.614729618109
 20
470.2623342941413
 30
0.0
 10
126.4815495814555
 20
469.6036108307607
 30
0.0
 10
126.385186532783
 20
468.9298830732043
 30
0.0
 10
126.3237651300384
 20
468.2430859162349
 30
0.0
 10
126.3163340397691
 20
467.7808197658399
 30
0.0
 10
126.3125952245522
 20
467.5482391276374
 30
0.0
  0
SPLINE
  5
7B
330
1F
100
AcDbEntity
  8
0
  6
Continuous
 62
     7
370
    25
100
AcDbSpline
210
0.0
220
0.0
230
1.0
 70
     8
 71
     3
 72
    28
 73
    24
 74
     0
 42
0.00000001
 43
0.00000001
 40
0.0
 40
0.0
 40
0.0
 40
0.0
 40
0.0372542456427844
 40
0.0742769962438743
 40
0.1110685560241733
 40
0.1476292349824267
 40
0.1839593490342255
 40
0.2200592201549365
 40
0.255929176526687
 40
0.2915695526895214
 40
0.3269806896968775
 40
0.3621629352755357
 40
0.3971166439900894
 40
0.4318421774122154
 40
0.4663399042947839
 40
0.5006102007510161
 40
0.5727912573048654
 40
0.6446861863485974
 40
0.7162986890268169
 40
0.7876325104563575
 40
0.8586914398284786
 40
0.9294793104896426
 40
0.9999999999999999
 40
0.9999999999999999
 40
0.9999999999999999
 40
0.9999999999999999
 10
138.2669315966717
 20
479.5025755065731
 30
0.0
 10
138.1502795906065
 20
479.5016712049031
 30
0.0
 10
137.9177004451468
 20
479.4998682208247
 30
0.0
 10
137.5702020554158
 20
479.4843933690598
 30
0.0
 10
137.2254440831226
 20
479.4597918427036
 30
0.0
 10
136.8836947198765
 20
479.4253499118199
 30
0.0
 10
136.5452122415299
 20
479.3815159344894
 30
0.0
 10
136.2102439786047
 20
479.3284368526051
 30
0.0
 10
135.8790265757893
 20
479.266346048503
 30
0.0
 10
135.5517859403274
 20
479.1954598111387
 30
0.0
 10
135.2287372633231
 20
479.1160042224018
 30
0.0
 10
134.9100851580304
 20
479.0282075015626
 30
0.0
 10
134.596023359336
 20
478.9323013114771
 30
0.0
 10
134.2867361383372
 20
478.8285205097403
 30
0.0
 10
133.9823934410445
 20
478.7171003364081
 30
0.0
 10
133.5721721860007
 20
478.5542109680893
 30
0.0
 10
133.0619442697963
 20
478.3264342042883
 30
0.0
 10
132.461530788784
 20
478.0164439976929
 30
0.0
 10
131.8819143725749
 20
477.6743171392628
 30
0.0
 10
131.3245386547369
 20
477.3016686046911
 30
0.0
 10
130.79154849116
 20
476.8993595748865
 30
0.0
 10
130.2819497052635
 20
476.4713592108106
 30
0.0
 10
129.9640043669804
 20
476.1634846633228
 30
0.0
 10
129.8053322776524
 20
476.0098384486479
 30
0.0
  0
LINE
  5
7C
330
1F
100
AcDbEntity
  8
0
  6
Continuous
 62
     7
370
    25
100
AcDbLine
 10
138.266931701
 20
479.5025755005
 30
0.0
 11
154.3507558651
 21
463.4187512885
 31
0.0
  0
SPLINE
  5
7D
330
1F
100
AcDbEntity
  8
0
  6
Continuous
 62
     7
370
    25
100
AcDbSpline
210
0.0
220
0.0
230
1.0
 70
     8
 71
     3
 72
    27
 73
    23
 74
     0
 42
0.00000001
 43
0.00000001
 40
0.0
 40
0.0
 40
0.0
 40
0.0
 40
0.0183628613774253
 40
0.0365616825136807
 40
0.0545967559320935
 40
0.0724683975196895
 40
0.0901769453615976
 40
0.1077227586091825
 40
0.1251062163823262
 40
0.1883063328760309
 40
0.2501667292435065
 40
0.3762775582573847
 40
0.4999893029155386
 40
0.6244404991198315
 40
0.7498119707519698
 40
0.7844476372978064
 40
0.8194446312658219
 40
0.8548074568500083
 40
0.8905404307008262
 40
0.9266476539137093
 40
0.9631329830219482
 40
1.0
 40
1.0
 40
1.0
 40
1.0
 10
154.3507558173137
 20
463.418751302868
 30
0.0
 10
154.2364669591974
 20
463.416937604413
 30
0.0
 10
154.0089102152122
 20
463.4133264097453
 30
0.0
 10
153.6693828356307
 20
463.3956262502592
 30
0.0
 10
153.3334547101251
 20
463.3692660731161
 30
0.0
 10
153.001367581683
 20
463.3336443432361
 30
0.0
 10
152.6733511471682
 20
463.2892752373911
 30
0.0
 10
152.3496082355526
 20
463.2363772602096
 30
0.0
 10
151.7489150384475
 20
463.121384622052
 30
0.0
 10
150.8871487449164
 20
462.8995763740825
 30
0.0
 10
149.4129085268379
 20
462.3629060318516
 30
0.0
 10
147.6884654163392
 20
461.4316102503225
 30
0.0
 10
145.8734432283874
 20
459.9351719771835
 30
0.0
 10
144.3809446123002
 20
458.1228309815551
 30
0.0
 10
143.5318057421709
 20
456.5483184946684
 30
0.0
 10
143.0913623724324
 20
455.4137725058952
 30
0.0
 10
142.8875486079872
 20
454.790995725299
 30
0.0
 10
142.716474874646
 20
454.1516489389423
 30
0.0
 10
142.5794589942377
 20
453.4972603871257
 30
0.0
 10
142.4789941385776
 20
452.8295786379431
 30
0.0
 10
142.4130274512326
 20
452.1504841539429
 30
0.0
 10
142.4019746063616
 20
451.6938966115981
 30
0.0
 10
142.3964194272672
 20
451.464414917096
 30
0.0
  0
LINE
  5
7E
330
1F
100
AcDbEntity
  8
0
  6
Continuous
 62
     7
370
    25
100
AcDbLine
 10
142.3964194312
 20
451.4644148661
 30
0.0
 11
126.3125952306
 21
467.5482390301
 31
0.0
  0
SPLINE
  5
7F
330
1F
100
AcDbEntity
  8
0
  6
Continuous
 62
     7
370
    25
100
AcDbSpline
210
0.0
220
0.0
230
1.0
 70
     8
 71
     3
 72
    27
 73
    23
 74
     0
 42
0.00000001
 43
0.00000001
 40
0.0
 40
0.0
 40
0.0
 40
0.0
 40
0.0379432834552795
 40
0.0759635315873107
 40
0.1140613545803615
 40
0.1522373588986929
 40
0.1904921472879967
 40
0.2288263187774368
 40
0.2672404686821855
 40
0.3057351886066008
 40
0.3443110664478647
 40
0.3829686864001893
 40
0.4217086289595315
 40
0.4605314709287971
 40
0.4994377854235817
 40
0.5681996849904951
 40
0.6378725696544263
 40
0.7084593550664601
 40
0.7799628446675493
 40
0.8523857350302133
 40
0.9257306209065351
 40
1.0
 40
1.0
 40
1.0
 40
1.0
 10
129.8053322787019
 20
83.15503959849386
 30
0.0
 10
129.8900720864324
 20
83.0717539939706
 30
0.0
 10
130.059723589282
 20
82.90501384726115
 30
0.0
 10
130.3238353041816
 20
82.66447827627155
 30
0.0
 10
130.5950778410478
 20
82.43095625384333
 30
0.0
 10
130.8739423053904
 20
82.20539452522053
 30
0.0
 10
131.1600346475093
 20
81.98785890405941
 30
0.0
 10
131.4531874946968
 20
81.77864569015827
 30
0.0
 10
131.7531614361891
 20
81.57798255162812
 30
0.0
 10
132.0597254716751
 20
81.38610851407618
 30
0.0
 10
132.3726354464308
 20
81.20325208761739
 30
0.0
 10
132.691640355924
 20
81.02963665129165
 30
0.0
 10
133.0164795422726
 20
80.86547897277421
 30
0.0
 10
133.3468884614956
 20
80.71098785386893
 30
0.0
 10
133.7682036557509
 20
80.52948143689234
 30
0.0
 10
134.2872950851595
 20
80.3314755937568
 30
0.0
 10
134.9108801353357
 20
80.1317091248438
 30
0.0
 10
135.5528364460011
 20
79.9644369453662
 30
0.0
 10
136.2115599079724
 20
79.83125690923146
 30
0.0
 10
136.8852876645284
 20
79.73489386075408
 30
0.0
 10
137.5720848209425
 20
79.67347245800688
 30
0.0
 10
138.0343509711241
 20
79.66604136763628
 30
0.0
 10
138.2669316092957
 20
79.66230255236711
 30
0.0
  0
SPLINE
  5
80
330
1F
100
AcDbEntity
  8
0
  6
Continuous
 62
     7
370
    25
100
AcDbSpline
210
0.0
220
0.0
230
1.0
 70
     8
 71
     3
 72
    28
 73
    24
 74
     0
 42
0.00000001
 43
0.00000001
 40
0.0
 40
0.0
 40
0.0
 40
0.0
 40
0.0372542457986628
 40
0.0742769965307944
 40
0.1110685564171955
 40
0.1476292354565282
 40
0.1839593495642861
 40
0.2200592207157446
 40
0.2559291770929392
 40
0.291569553235813
 40
0.3269806901977136
 40
0.362162935705315
 40
0.3971166443231147
 40
0.4318421776226994
 40
0.4663399043568248
 40
0.500610200638612
 40
0.5727912572913234
 40
0.6446861863959081
 40
0.7162986891031479
 40
0.7876325105361074
 40
0.8586914398923681
 40
0.929479310524785
 40
1.0
 40
1.0
 40
1.0
 40
1.0
 10
126.3125952344303
 20
91.6166389298509
 30
0.0
 10
126.3134995360499
 20
91.49998692323238
 30
0.0
 10
126.3153025200272
 20
91.26740777674408
 30
0.0
 10
126.3307773717286
 20
90.91990938558556
 30
0.0
 10
126.355378898061
 20
90.57515141210109
 30
0.0
 10
126.3898208289451
 20
90.23340204790078
 30
0.0
 10
126.433654806277
 20
89.89491956883668
 30
0.0
 10
126.4867338881433
 20
89.55995130543015
 30
0.0
 10
126.5488246921871
 20
89.2287339023663
 30
0.0
 10
126.6197109294326
 20
88.90149326688623
 30
0.0
 10
126.6991665179698
 20
88.57844459008837
 30
0.0
 10
126.786963238512
 20
88.259792485223
 30
0.0
 10
126.8828694281751
 20
87.94573068716599
 30
0.0
 10
126.9866502293783
 20
87.63644346702019
 30
0.0
 10
127.09807040193
 20
87.33210077074044
 30
0.0
 10
127.2609597699871
 20
86.92187951609363
 30
0.0
 10
127.4887365302769
 20
86.41165159819272
 30
0.0
 10
127.7987267350265
 20
85.81123811514726
 30
0.0
 10
128.1408535915475
 20
85.23162169709447
 30
0.0
 10
128.513502124697
 20
84.67424597780231
 30
0.0
 10
128.9158111534285
 20
84.14125581311669
 30
0.0
 10
129.343811516786
 20
83.6316570264398
 30
0.0
 10
129.6516860641138
 20
83.31371168792828
 30
0.0
 10
129.8053322787019
 20
83.15503959849386
 30
0.0
  0
LINE
  5
81
330
1F
100
AcDbEntity
  8
0
  6
Continuous
 62
     7
370
    25
100
AcDbLine
 10
126.3125952306
 20
91.616639019
 30
0.0
 11
141.9811526783
 21
107.2851961933
 31
0.0
  0
SPLINE
  5
82
330
1F
100
AcDbEntity
  8
0
  6
Continuous
 62
     7
370
    25
100
AcDbSpline
210
0.0
220
0.0
230
1.0
 70
     8
 71
     3
 72
    27
 73
    23
 74
     0
 42
0.00000001
 43
0.00000001
 40
0.0
 40
0.0
 40
0.0
 40
0.0
 40
0.0183289119296493
 40
0.0365050466112634
 40
0.0545287293184898
 40
0.0724003080072817
 40
0.0901201521826549
 40
0.1076886517963999
 40
0.125106216176045
 40
0.1882546229810269
 40
0.2501667297556615
 40
0.3761156995791548
 40
0.4999893285544083
 40
0.6242858530393314
 40
0.7498119810791251
 40
0.784349188221046
 40
0.8192806946672346
 40
0.8546109319239981
 40
0.8903441256465824
 40
0.9264842667578677
 40
0.9630350814391936
 40
0.9999999999999999
 40
0.9999999999999999
 40
0.9999999999999999
 40
0.9999999999999999
 10
141.9811526697119
 20
107.2851963774842
 30
0.0
 10
141.9829613165014
 20
107.1711188352429
 30
0.0
 10
141.9865635344402
 20
106.9439146229691
 30
0.0
 10
142.0042167933445
 20
106.6048093960626
 30
0.0
 10
142.0305278718602
 20
106.2690909769995
 30
0.0
 10
142.0661141833892
 20
105.9370013071053
 30
0.0
 10
142.1104796360807
 20
105.6087712778636
 30
0.0
 10
142.1634230394598
 20
105.284605880441
 30
0.0
 10
142.2784057187137
 20
104.6838782560361
 30
0.0
 10
142.5002311390479
 20
103.8219006625896
 30
0.0
 10
143.036499330145
 20
102.348582769797
 30
0.0
 10
143.9677079172535
 20
100.6237777165844
 30
0.0
 10
145.4633343337807
 20
98.80927457831065
 30
0.0
 10
147.2762398056947
 20
97.31594512789471
 30
0.0
 10
148.8501426180648
 20
96.46688847748815
 30
0.0
 10
149.9845975244321
 20
96.02638051257948
 30
0.0
 10
150.6061664003263
 20
95.82282109094633
 30
0.0
 10
151.2448758321076
 20
95.65172562829002
 30
0.0
 10
151.8992272297472
 20
95.51450828352884
 30
0.0
 10
152.5674906866594
 20
95.41376557492521
 30
0.0
 10
153.2477927292304
 20
95.34753687741835
 30
0.0
 10
153.7053977369247
 20
95.33643978640391
 30
0.0
 10
153.9354890533878
 20
95.33085998671318
 30
0.0
  0
LINE
  5
83
330
1F
100
AcDbEntity
  8
0
  6
Continuous
 62
     7
370
    25
100
AcDbLine
 10
153.9354888754
 20
95.3308599925
 30
0.0
 11
138.266931701
 21
79.6623025485
 31
0.0
  0
SPLINE
  5
84
330
1F
100
AcDbEntity
  8
0
  6
Continuous
 62
     7
370
    25
100
AcDbSpline
210
0.0
220
0.0
230
1.0
 70
     8
 71
     3
 72
    27
 73
    23
 74
     0
 42
0.00000001
 43
0.00000001
 40
0.0
 40
0.0
 40
0.0
 40
0.0
 40
0.0379432834552454
 40
0.0759635315872367
 40
0.1140613545802446
 40
0.1522373588985343
 40
0.1904921472878018
 40
0.2288263187771946
 40
0.2672404686819017
 40
0.305735188606274
 40
0.3443110664474855
 40
0.3829686863997645
 40
0.4217086289590527
 40
0.4605314709282745
 40
0.4994377854230019
 40
0.5681996853020972
 40
0.6378725701740324
 40
0.7084593556899698
 40
0.7799628452909539
 40
0.852385735549591
 40
0.9257306212180756
 40
1.0
 40
1.0
 40
1.0
 40
1.0
 10
522.660131133035
 20
83.15503959697001
 30
0.0
 10
522.7434167375548
 20
83.23977940470395
 30
0.0
 10
522.9101568842573
 20
83.40943090756045
 30
0.0
 10
523.1506924552359
 20
83.67354262246981
 30
0.0
 10
523.384214477653
 20
83.9447851593457
 30
0.0
 10
523.6097762062642
 20
84.22364962369747
 30
0.0
 10
523.8273118274137
 20
84.50974196582531
 30
0.0
 10
524.0365250413028
 20
84.80289481302142
 30
0.0
 10
524.2371881798206
 20
85.1028687545219
 30
0.0
 10
524.4290622173598
 20
85.40943279001573
 30
0.0
 10
524.6119186438059
 20
85.72234276477869
 30
0.0
 10
524.7855340801183
 20
86.04134767427915
 30
0.0
 10
524.9496917586223
 20
86.36618686063433
 30
0.0
 10
525.1041828775147
 20
86.69659577986339
 30
0.0
 10
525.2856892948574
 20
87.11791097502494
 30
0.0
 10
525.4836951385129
 20
87.63700240598374
 30
0.0
 10
525.6834616078061
 20
88.26058745809459
 30
0.0
 10
525.8507337872259
 20
88.90254376978687
 30
0.0
 10
525.9839138230134
 20
89.56126723182852
 30
0.0
 10
526.0802768710188
 20
90.23499498746484
 30
0.0
 10
526.1416982733177
 20
90.9217921419542
 30
0.0
 10
526.1491293635946
 20
91.3840582905084
 30
0.0
 10
526.1528681788142
 20
91.616638927704
 30
0.0
  0
SPLINE
  5
85
330
1F
100
AcDbEntity
  8
0
  6
Continuous
 62
     7
370
    25
100
AcDbSpline
210
0.0
220
0.0
230
1.0
 70
     8
 71
     3
 72
    28
 73
    24
 74
     0
 42
0.00000001
 43
0.00000001
 40
0.0
 40
0.0
 40
0.0
 40
0.0
 40
0.0372542458052312
 40
0.0742769965569013
 40
0.1110685564758361
 40
0.1476292355606942
 40
0.1839593497269849
 40
0.2200592209499789
 40
0.2559291774117211
 40
0.2915695536521615
 40
0.3269806907246532
 40
0.3621629363558738
 40
0.397116645110332
 40
0.4318421785595963
 40
0.4663399054564588
 40
0.5006102019140161
 40
0.5727912582284433
 40
0.6446861870467105
 40
0.7162986895196368
 40
0.7876325107703361
 40
0.858691439996421
 40
0.9294793105507592
 40
1.0
 40
1.0
 40
1.0
 40
1.0
 10
514.198531801818
 20
79.6623025523508
 30
0.0
 10
514.315183808457
 20
79.66320685397562
 30
0.0
 10
514.5477629550267
 20
79.66500983796371
 30
0.0
 10
514.8952613463675
 20
79.68048468969346
 30
0.0
 10
515.2400193201546
 20
79.70508621607544
 30
0.0
 10
515.5817686847765
 20
79.73952814704141
 30
0.0
 10
515.920251164379
 20
79.78336212449724
 30
0.0
 10
516.2552194284382
 20
79.83644120653935
 30
0.0
 10
516.5864368322658
 20
79.8985320108203
 30
0.0
 10
516.9136774686173
 20
79.9694182483735
 30
0.0
 10
517.2367261463899
 20
80.04887383729817
 30
0.0
 10
517.5553782523292
 20
80.13667055831553
 30
0.0
 10
517.869440051554
 20
80.23257674855061
 30
0.0
 10
518.1787272729565
 20
80.33635755043028
 30
0.0
 10
518.4830699705763
 20
80.44777772376926
 30
0.0
 10
518.8932912250597
 20
80.61066709224058
 30
0.0
 10
519.4035191414787
 20
80.83844385238622
 30
0.0
 10
520.0039326219294
 20
81.14843405628916
 30
0.0
 10
520.5835490379317
 20
81.49056091194475
 30
0.0
 10
521.1409247556905
 20
81.86320944430081
 30
0.0
 10
521.6739149193306
 20
82.26551847238386
 30
0.0
 10
522.1835137054045
 20
82.69351883531515
 30
0.0
 10
522.5014590436665
 20
83.00139338243109
 30
0.0
 10
522.660131133035
 20
83.15503959697001
 30
0.0
  0
LINE
  5
86
330
1F
100
AcDbEntity
  8
0
  6
Continuous
 62
     7
370
    25
100
AcDbLine
 10
514.1985317122
 20
79.6623025485
 30
0.0
 11
498.5299745378
 21
95.3308599925
 31
0.0
  0
SPLINE
  5
87
330
1F
100
AcDbEntity
  8
0
  6
Continuous
 62
     7
370
    25
100
AcDbSpline
210
0.0
220
0.0
230
1.0
 70
     8
 71
     3
 72
    31
 73
    27
 74
     0
 42
0.00000001
 43
0.00000001
 40
0.0
 40
0.0
 40
0.0
 40
0.0
 40
0.0185360693259306
 40
0.0369681779160604
 40
0.0552967250556635
 40
0.0735221305268046
 40
0.0916448335918379
 40
0.1096652919942781
 40
0.1275839809770894
 40
0.1454013923184249
 40
0.1631180333849066
 40
0.180734426202484
 40
0.1982511065449126
 40
0.2156686230399221
 40
0.2329875362930989
 40
0.2502084180295587
 40
0.3757325346369159
 40
0.5000270673926309
 40
0.6238987114151983
 40
0.7498456630307567
 40
0.811756777724998
 40
0.8749041726391011
 40
0.9054814914244937
 40
0.9365218871920861
 40
0.9680274317822519
 40
1.0
 40
1.0
 40
1.0
 40
1.0
 10
498.5299743492421
 20
95.33085998670482
 30
0.0
 10
498.6453433008639
 20
95.33269995435953
 30
0.0
 10
498.8754341499298
 20
95.3363695700922
 30
0.0
 10
499.2193163950471
 20
95.35445694447617
 30
0.0
 10
499.5606999129688
 20
95.38153753920173
 30
0.0
 10
499.8993242684305
 20
95.41832674617271
 30
0.0
 10
500.234939209053
 20
95.46439339335997
 30
0.0
 10
500.5673049138007
 20
95.51960471672716
 30
0.0
 10
500.8961918596355
 20
95.58374304842567
 30
0.0
 10
501.2213807237513
 20
95.65660821019412
 30
0.0
 10
501.5426624213958
 20
95.73799096017127
 30
0.0
 10
501.859837479097
 20
95.82768024113311
 30
0.0
 10
502.1727178252575
 20
95.92546304848956
 30
0.0
 10
502.4811195679022
 20
96.03112024364324
 30
0.0
 10
502.7848890693977
 20
96.1444456095546
 30
0.0
 10
503.7109979627994
 20
96.51849652146751
 30
0.0
 10
505.1892929728978
 20
97.31598506767702
 30
0.0
 10
507.002109588205
 20
98.80926320980593
 30
0.0
 10
508.4977647909774
 20
100.6237836553903
 30
0.0
 10
509.4289510038126
 20
102.348573481327
 30
0.0
 10
509.9652537227573
 20
103.8219160257879
 30
0.0
 10
510.2074818082589
 20
104.7634496275233
 30
0.0
 10
510.345993416717
 20
105.5287924410536
 30
0.0
 10
510.4213017073163
 20
106.1042035459931
 30
0.0
 10
510.4712405607005
 20
106.6910674697862
 30
0.0
 10
510.4799326992288
 20
107.0861844191795
 30
0.0
 10
510.4843107435619
 20
107.2851963787299
 30
0.0
  0
LINE
  5
88
330
1F
100
AcDbEntity
  8
0
  6
Continuous
 62
     7
370
    25
100
AcDbLine
 10
510.4843107274
 20
107.2851961933
 30
0.0
 11
526.1528681826
 21
91.616639019
 31
0.0
  0
SPLINE
  5
89
330
1F
100
AcDbEntity
  8
0
  6
Continuous
 62
     7
370
    25
100
AcDbSpline
210
0.0
220
0.0
230
1.0
 70
     8
 71
     3
 72
    14
 73
    10
 74
     0
 42
0.00000001
 43
0.00000001
 40
0.0
 40
0.0
 40
0.0
 40
0.0
 40
0.25
 40
0.25
 40
0.5
 40
0.5
 40
0.75
 40
0.75
 40
1.0
 40
1.0
 40
1.0
 40
1.0
 10
539.8120971266304
 20
55.99622127854712
 30
0.0
 10
539.8120971266304
 20
55.34196232654709
 30
0.0
 10
539.6822415576304
 20
54.68832984254696
 30
0.0
 10
539.1823252896304
 20
53.48045763454726
 30
0.0
 10
538.8124599141304
 20
52.92669741904709
 30
0.0
 10
537.8884733121303
 20
52.00271081704707
 30
0.0
 10
537.3347130966303
 20
51.63284544154728
 30
0.0
 10
536.1268408886303
 20
51.13292917354711
 30
0.0
 10
535.4732084046303
 20
51.00307360454718
 30
0.0
 10
534.8189494526304
 20
51.00307360454712
 30
0.0
  0
LINE
  5
8A
330
1F
100
AcDbEntity
  8
0
  6
Continuous
 62
     7
370
    25
100
AcDbLine
 10
117.6465139676
 20
51.0030736045
 30
0.0
 11
534.8189494457
 21
51.0030736045
 31
0.0
  0
SPLINE
  5
8B
330
1F
100
AcDbEntity
  8
0
  6
Continuous
 62
     7
370
    25
100
AcDbSpline
210
0.0
220
0.0
230
1.0
 70
     8
 71
     3
 72
    14
 73
    10
 74
     0
 42
0.00000001
 43
0.00000001
 40
0.0
 40
0.0
 40
0.0
 40
0.0
 40
0.25
 40
0.25
 40
0.5
 40
0.5
 40
0.75
 40
0.75
 40
1.0
 40
1.0
 40
1.0
 40
1.0
 10
117.6465139606304
 20
51.00307360454712
 30
0.0
 10
116.9922550086304
 20
51.00307360454709
 30
0.0
 10
116.3386225246304
 20
51.13292917354714
 30
0.0
 10
115.1307503166303
 20
51.63284544154686
 30
0.0
 10
114.5769901011303
 20
52.0027108170471
 30
0.0
 10
113.6530034991304
 20
52.92669741904715
 30
0.0
 10
113.2831381236303
 20
53.48045763454717
 30
0.0
 10
112.7832218556304
 20
54.68832984254704
 30
0.0
 10
112.6533662866304
 20
55.34196232654709
 30
0.0
 10
112.6533662866304
 20
55.99622127854712
 30
0.0
  0
LINE
  5
8C
330
1F
100
AcDbEntity
  8
0
  6
Continuous
 62
     7
370
    25
100
AcDbLine
 10
112.6533662866
 20
503.1686568985
 30
0.0
 11
112.6533662866
 21
55.9962211506
 31
0.0
  0
SPLINE
  5
8D
330
1F
100
AcDbEntity
  8
0
  6
Continuous
 62
     7
370
    25
100
AcDbSpline
210
0.0
220
0.0
230
1.0
 70
     8
 71
     3
 72
    14
 73
    10
 74
     0
 42
0.00000001
 43
0.00000001
 40
0.0
 40
0.0
 40
0.0
 40
0.0
 40
0.25
 40
0.25
 40
0.5
 40
0.5
 40
0.75
 40
0.75
 40
1.0
 40
1.0
 40
1.0
 40
1.0
 10
112.6533662866304
 20
503.1686567705471
 30
0.0
 10
112.6533662866304
 20
503.8229157225471
 30
0.0
 10
112.7832218556304
 20
504.4765482065473
 30
0.0
 10
113.2831381236303
 20
505.684420414547
 30
0.0
 10
113.6530034991303
 20
506.2381806300471
 30
0.0
 10
114.5769901011304
 20
507.1621672320472
 30
0.0
 10
115.1307503166304
 20
507.532032607547
 30
0.0
 10
116.3386225246304
 20
508.0319488755471
 30
0.0
 10
116.9922550086304
 20
508.161804444547
 30
0.0
 10
117.6465139606304
 20
508.1618044445472
 30
0.0
  0
LINE
  5
8E
330
1F
100
AcDbEntity
  8
0
  6
Continuous
 62
     7
370
    25
100
AcDbLine
 10
534.8189494457
 20
508.1618044445
 30
0.0
 11
117.6465139676
 21
508.1618044445
 31
0.0
  0
SPLINE
  5
8F
330
1F
100
AcDbEntity
  8
0
  6
Continuous
 62
     7
370
    25
100
AcDbSpline
210
0.0
220
0.0
230
1.0
 70
     8
 71
     3
 72
    14
 73
    10
 74
     0
 42
0.00000001
 43
0.00000001
 40
0.0
 40
0.0
 40
0.0
 40
0.0
 40
0.25
 40
0.25
 40
0.5
 40
0.5
 40
0.75
 40
0.75
 40
1.0
 40
1.0
 40
1.0
 40
1.0
 10
534.8189494526304
 20
508.1618044445472
 30
0.0
 10
535.4732084046303
 20
508.1618044445472
 30
0.0
 10
536.1268408886303
 20
508.0319488755471
 30
0.0
 10
537.3347130966304
 20
507.5320326075474
 30
0.0
 10
537.8884733121304
 20
507.1621672320472
 30
0.0
 10
538.8124599141303
 20
506.2381806300471
 30
0.0
 10
539.1823252896304
 20
505.6844204145471
 30
0.0
 10
539.6822415576304
 20
504.4765482065472
 30
0.0
 10
539.8120971266304
 20
503.8229157225471
 30
0.0
 10
539.8120971266304
 20
503.1686567705471
 30
0.0
  0
LINE
  5
90
330
1F
100
AcDbEntity
  8
0
  6
Continuous
 62
     7
370
    25
100
AcDbLine
 10
539.8120971266
 20
55.9962211506
 30
0.0
 11
539.8120971266
 21
503.1686568985
 31
0.0
  0
LINE
  5
91
330
1F
100
AcDbEntity
  8
0
  6
Continuous
 62
     7
370
    25
100
AcDbLine
 10
514.1985319264
 20
78.6661077344
 30
0.0
 11
138.2669314868
 21
78.6661077344
 31
0.0
  0
SPLINE
  5
92
330
1F
100
AcDbEntity
  8
0
  6
Continuous
 62
     7
370
    25
100
AcDbSpline
210
0.0
220
0.0
230
1.0
 70
     8
 71
     3
 72
    10
 73
     6
 74
     0
 42
0.00000001
 43
0.00000001
 40
0.0
 40
0.0
 40
0.0
 40
0.0
 40
0.5
 40
0.5
 40
1.0
 40
1.0
 40
1.0
 40
1.0
 10
514.1985318056304
 20
78.66610785054712
 30
0.0
 10
515.8984387476304
 20
78.66610785054712
 30
0.0
 10
517.5950940251306
 20
79.00243853254719
 30
0.0
 10
520.7287020431303
 20
80.29754550054713
 30
0.0
 10
522.1644117096304
 20
81.25580865154708
 30
0.0
 10
523.3618868956304
 20
82.45328383554713
 30
0.0
  0
SPLINE
  5
93
330
1F
100
AcDbEntity
  8
0
  6
Continuous
 62
     7
370
    25
100
AcDbSpline
210
0.0
220
0.0
230
1.0
 70
     8
 71
     3
 72
    10
 73
     6
 74
     0
 42
0.00000001
 43
0.00000001
 40
0.0
 40
0.0
 40
0.0
 40
0.0
 40
0.5
 40
0.5
 40
1.0
 40
1.0
 40
1.0
 40
1.0
 10
523.3618868956304
 20
82.45328383554713
 30
0.0
 10
524.5593620796303
 20
83.65075902154712
 30
0.0
 10
525.5176252306304
 20
85.08646868804712
 30
0.0
 10
526.8127321986304
 20
88.22007670604715
 30
0.0
 10
527.1490628806304
 20
89.91673198354714
 30
0.0
 10
527.1490628806304
 20
91.61663892554714
 30
0.0
  0
LINE
  5
94
330
1F
100
AcDbEntity
  8
0
  6
Continuous
 62
     7
370
    25
100
AcDbLine
 10
527.1490628369
 20
467.5482392683
 30
0.0
 11
527.1490628369
 21
91.6166387808
 31
0.0
  0
SPLINE
  5
95
330
1F
100
AcDbEntity
  8
0
  6
Continuous
 62
     7
370
    25
100
AcDbSpline
210
0.0
220
0.0
230
1.0
 70
     8
 71
     3
 72
    22
 73
    18
 74
     0
 42
0.00000001
 43
0.00000001
 40
0.0
 40
0.0
 40
0.0
 40
0.0
 40
0.0357420940226737
 40
0.071414963454786
 40
0.1070468265734476
 40
0.142665999114152
 40
0.1783008270645278
 40
0.2139796190986263
 40
0.2497305794544431
 40
0.3745940022010988
 40
0.4995090809722191
 40
0.6244895435339914
 40
0.7495473079340362
 40
0.8122015223871752
 40
0.8747281008382418
 40
0.9372774969034122
 40
1.0
 40
1.0
 40
1.0
 40
1.0
 10
523.3618867712354
 20
476.7115942429808
 30
0.0
 10
523.4468968798469
 20
476.6252028252936
 30
0.0
 10
523.6167524511496
 20
476.4525873111319
 30
0.0
 10
523.8620271812794
 20
476.1849209565341
 30
0.0
 10
524.0999158552382
 20
475.9112681213842
 30
0.0
 10
524.3297669066969
 20
475.6309771940919
 30
0.0
 10
524.5517533012713
 20
475.344225595737
 30
0.0
 10
524.7658312864147
 20
475.0509575731617
 30
0.0
 10
525.1430619230395
 20
474.5025283720174
 30
0.0
 10
525.6415188692639
 20
473.6704527265954
 30
0.0
 10
526.1843669532439
 20
472.5193018283639
 30
0.0
 10
526.6128418892553
 20
471.32013049394
 30
0.0
 10
526.869664815751
 20
470.2895234053051
 30
0.0
 10
527.0145535951747
 20
469.453167814041
 30
0.0
 10
527.091806184207
 20
468.8210986407305
 30
0.0
 10
527.1401433611786
 20
468.185760390461
 30
0.0
 10
527.1460869406417
 20
467.760941987539
 30
0.0
 10
527.1490628369422
 20
467.5482392683253
 30
0.0
  0
SPLINE
  5
96
330
1F
100
AcDbEntity
  8
0
  6
Continuous
 62
     7
370
    25
100
AcDbSpline
210
0.0
220
0.0
230
1.0
 70
     8
 71
     3
 72
    22
 73
    18
 74
     0
 42
0.00000001
 43
0.00000001
 40
0.0
 40
0.0
 40
0.0
 40
0.0
 40
0.0358737531921257
 40
0.0716700377927508
 40
0.1074167813803872
 40
0.1431420277171992
 40
0.1788738711809722
 40
0.2146403906035704
 40
0.2504695832917413
 40
0.3755273489038627
 40
0.5005078526358375
 40
0.6254229271684236
 40
0.7502863730005531
 40
0.8127974280267293
 40
0.8751522458522576
 40
0.9375025257406401
 40
1.0
 40
1.0
 40
1.0
 40
1.0
 10
514.1985319264145
 20
480.4987703146563
 30
0.0
 10
514.3201774803232
 20
480.4977974914243
 30
0.0
 10
514.5632058972068
 20
480.4958539457509
 30
0.0
 10
514.9271674834483
 20
480.4800819853656
 30
0.0
 10
515.2900588146179
 20
480.4548895774295
 30
0.0
 10
515.6518799444974
 20
480.4193593258091
 30
0.0
 10
516.0126277254135
 20
480.3737377702973
 30
0.0
 10
516.3723106808635
 20
480.3179549297717
 30
0.0
 10
517.0281851344072
 20
480.1974011222596
 30
0.0
 10
517.9704422571884
 20
479.9625260799106
 30
0.0
 10
519.1695823709641
 20
479.5340794521126
 30
0.0
 10
520.3207753534018
 20
478.9912291474604
 30
0.0
 10
521.2307191232076
 20
478.4460395275328
 30
0.0
 10
521.9236743034554
 20
477.9588304854287
 30
0.0
 10
522.4241859733498
 20
477.5679949895065
 30
0.0
 10
522.9063128944515
 20
477.1544990637844
 30
0.0
 10
523.2099094997584
 20
476.8593451778345
 30
0.0
 10
523.3618867712354
 20
476.7115942429808
 30
0.0
  0
LINE
  5
97
330
1F
100
AcDbEntity
  8
0
  6
Continuous
 62
     7
370
    25
100
AcDbLine
 10
138.2669314868
 20
480.4987703147
 30
0.0
 11
514.1985319264
 21
480.4987703147
 31
0.0
  0
SPLINE
  5
98
330
1F
100
AcDbEntity
  8
0
  6
Continuous
 62
     7
370
    25
100
AcDbSpline
210
0.0
220
0.0
230
1.0
 70
     8
 71
     3
 72
    22
 73
    18
 74
     0
 42
0.00000001
 43
0.00000001
 40
0.0
 40
0.0
 40
0.0
 40
0.0
 40
0.0357420943933174
 40
0.0714149636018333
 40
0.1070468258276849
 40
0.1426659967327469
 40
0.1783008222327247
 40
0.2139796109317655
 40
0.2497305670003202
 40
0.3745939941309145
 40
0.4995090499542326
 40
0.6244895349671422
 40
0.7495472818486212
 40
0.8122015025278092
 40
0.8747280871991177
 40
0.9372774897833592
 40
1.0
 40
1.0
 40
1.0
 40
1.0
 10
129.1035766420253
 20
476.7115942429808
 30
0.0
 10
129.1899680707688
 20
476.7966043390307
 30
0.0
 10
129.3625836055872
 20
476.966459883823
 30
0.0
 10
129.6302499754279
 20
477.2117345836821
 30
0.0
 10
129.9039028117991
 20
477.4496232320087
 30
0.0
 10
130.1841937254457
 20
477.6794742630088
 30
0.0
 10
130.4709452949127
 20
477.9014606431844
 30
0.0
 10
130.7642132757452
 20
478.1155386158929
 30
0.0
 10
131.3126424172316
 20
478.4927693010304
 30
0.0
 10
132.1447180573824
 20
478.9912260643079
 30
0.0
 10
133.2958687999624
 20
479.5340744427682
 30
0.0
 10
134.4950401217406
 20
479.9625492219906
 30
0.0
 10
135.5256472577422
 20
480.2193719799531
 30
0.0
 10
136.3620027830744
 20
480.3642609434647
 30
0.0
 10
136.9940720026475
 20
480.4415136012072
 30
0.0
 10
137.6294103054613
 20
480.4898508304446
 30
0.0
 10
138.0542287472069
 20
480.4957944155279
 30
0.0
 10
138.2669314868462
 20
480.4987703146563
 30
0.0
  0
SPLINE
  5
99
330
1F
100
AcDbEntity
  8
0
  6
Continuous
 62
     7
370
    25
100
AcDbSpline
210
0.0
220
0.0
230
1.0
 70
     8
 71
     3
 72
    22
 73
    18
 74
     0
 42
0.00000001
 43
0.00000001
 40
0.0
 40
0.0
 40
0.0
 40
0.0
 40
0.0358737490305291
 40
0.0716700297075867
 40
0.1074167695539618
 40
0.143142012275421
 40
0.1788738521930623
 40
0.2146403680818157
 40
0.2504695571916901
 40
0.3755273403319752
 40
0.5005078216224044
 40
0.6254229191123823
 40
0.7502863605701604
 40
0.8127974224653901
 40
0.8751522443989104
 40
0.9375025260100008
 40
1.0
 40
1.0
 40
1.0
 40
1.0
 10
125.3164005763186
 20
467.5482392683253
 30
0.0
 10
125.3173733985598
 20
467.669884810279
 30
0.0
 10
125.3193169422598
 20
467.912913204055
 30
0.0
 10
125.3350888865339
 20
468.2768747571961
 30
0.0
 10
125.3602812685815
 20
468.639766058244
 30
0.0
 10
125.3958114840796
 20
469.0015871608847
 30
0.0
 10
125.4414329917398
 20
469.3623349178131
 30
0.0
 10
125.4972157791215
 20
469.7220178511633
 30
0.0
 10
125.6177694537897
 20
470.3778923776574
 30
0.0
 10
125.8526446718919
 20
471.3201494582676
 30
0.0
 10
126.2810914482266
 20
472.5192895869048
 30
0.0
 10
126.8239414648146
 20
473.6704827219644
 30
0.0
 10
127.3691312710851
 20
474.5804265070716
 30
0.0
 10
127.8563402533799
 20
475.2733817724801
 30
0.0
 10
128.2471757844818
 20
475.7738934857531
 30
0.0
 10
128.6606717510055
 20
476.2560204124828
 30
0.0
 10
128.9558256853184
 20
476.5596169885601
 30
0.0
 10
129.1035766420253
 20
476.7115942429808
 30
0.0
  0
LINE
  5
9A
330
1F
100
AcDbEntity
  8
0
  6
Continuous
 62
     7
370
    25
100
AcDbLine
 10
125.3164005763
 20
91.6166387808
 30
0.0
 11
125.3164005763
 21
467.5482392683
 31
0.0
  0
SPLINE
  5
9B
330
1F
100
AcDbEntity
  8
0
  6
Continuous
 62
     7
370
    25
100
AcDbSpline
210
0.0
220
0.0
230
1.0
 70
     8
 71
     3
 72
    10
 73
     6
 74
     0
 42
0.00000001
 43
0.00000001
 40
0.0
 40
0.0
 40
0.0
 40
0.0
 40
0.5
 40
0.5
 40
1.0
 40
1.0
 40
1.0
 40
1.0
 10
125.3164005326304
 20
91.61663892554714
 30
0.0
 10
125.3164005326304
 20
89.91673198354714
 30
0.0
 10
125.6527312146304
 20
88.2200767060469
 30
0.0
 10
126.9478381826304
 20
85.08646868804723
 30
0.0
 10
127.9061013336303
 20
83.65075902154712
 30
0.0
 10
129.1035765176304
 20
82.45328383554713
 30
0.0
  0
SPLINE
  5
9C
330
1F
100
AcDbEntity
  8
0
  6
Continuous
 62
     7
370
    25
100
AcDbSpline
210
0.0
220
0.0
230
1.0
 70
     8
 71
     3
 72
    10
 73
     6
 74
     0
 42
0.00000001
 43
0.00000001
 40
0.0
 40
0.0
 40
0.0
 40
0.0
 40
0.5
 40
0.5
 40
1.0
 40
1.0
 40
1.0
 40
1.0
 10
129.1035765176304
 20
82.45328383554713
 30
0.0
 10
130.3010517036303
 20
81.25580865154718
 30
0.0
 10
131.7367613701303
 20
80.2975455005471
 30
0.0
 10
134.8703693881305
 20
79.00243853254707
 30
0.0
 10
136.5670246656304
 20
78.66610785054709
 30
0.0
 10
138.2669316076304
 20
78.66610785054712
 30
0.0
  0
SPLINE
  5
9D
330
1F
100
AcDbEntity
  8
0
  6
Continuous
 62
     7
370
    25
100
AcDbSpline
210
0.0
220
0.0
230
1.0
 70
    24
 71
     3
 72
    14
 73
    10
 74
     0
 42
0.00000001
 43
0.00000001
 40
0.0
 40
0.0
 40
0.0
 40
0.0
 40
0.2500000000000001
 40
0.2500000000000001
 40
0.5000000000000001
 40
0.5000000000000001
 40
0.7500000000000001
 40
0.7500000000000001
 40
1.0
 40
1.0
 40
1.0
 40
1.0
 10
117.6465139599286
 20
50.00444407054746
 30
0.0
 10
117.6465139599293
 20
50.01044835303553
 30
0.0
 10
117.6465139599324
 20
50.03719181967725
 30
0.0
 10
117.6465139599445
 20
50.1409776568178
 30
0.0
 10
117.6465139599535
 20
50.21825401954128
 30
0.0
 10
117.6465139599761
 20
50.41118403920861
 30
0.0
 10
117.6465139599895
 20
50.52627258722026
 30
0.0
 10
117.6465139600175
 20
50.76517715859974
 30
0.0
 10
117.6465139600319
 20
50.88834784201837
 30
0.0
 10
117.6465139600453
 20
51.00307360454712
 30
0.0
  0
SPLINE
  5
9E
330
1F
100
AcDbEntity
  8
0
  6
Continuous
 62
     7
370
    25
100
AcDbSpline
210
0.0
220
0.0
230
1.0
 70
     8
 71
     3
 72
    14
 73
    10
 74
     0
 42
0.00000001
 43
0.00000001
 40
0.0
 40
0.0
 40
0.0
 40
0.0
 40
0.25
 40
0.25
 40
0.5
 40
0.5
 40
0.75
 40
0.75
 40
1.0
 40
1.0
 40
1.0
 40
1.0
 10
111.6547367526304
 20
55.99622127854712
 30
0.0
 10
111.6550941826304
 20
55.21146804454716
 30
0.0
 10
111.8112070126304
 20
54.42739513404701
 30
0.0
 10
112.4114933006304
 20
52.97833524804718
 30
0.0
 10
112.8554322151303
 20
52.31392345504712
 30
0.0
 10
113.9642161371303
 20
51.20513953304717
 30
0.0
 10
114.6286279301304
 20
50.76120061854702
 30
0.0
 10
116.0776878161303
 20
50.16091433054709
 30
0.0
 10
116.8617607266304
 20
50.00480150054717
 30
0.0
 10
117.6465139606304
 20
50.00444407054713
 30
0.0
  0
SPLINE
  5
9F
330
1F
100
AcDbEntity
  8
0
  6
Continuous
 62
     7
370
    25
100
AcDbSpline
210
0.0
220
0.0
230
1.0
 70
    24
 71
     3
 72
    14
 73
    10
 74
     0
 42
0.00000001
 43
0.00000001
 40
0.0
 40
0.0
 40
0.0
 40
0.0
 40
0.25
 40
0.25
 40
0.5
 40
0.5
 40
0.75
 40
0.75
 40
1.0
 40
1.0
 40
1.0
 40
1.0
 10
112.6533662866304
 20
55.99622127886131
 30
0.0
 10
112.538640524101
 20
55.99622127886858
 30
0.0
 10
112.4154698406816
 20
55.9962212788763
 30
0.0
 10
112.176565269301
 20
55.99622127889137
 30
0.0
 10
112.0614767212886
 20
55.99622127889853
 30
0.0
 10
111.8685467016209
 20
55.99622127891074
 30
0.0
 10
111.7912703388976
 20
55.99622127891554
 30
0.0
 10
111.687484501758
 20
55.99622127892206
 30
0.0
 10
111.6607410351172
 20
55.99622127892362
 30
0.0
 10
111.6547367526302
 20
55.99622127892395
 30
0.0
  0
LINE
  5
A0
330
1F
100
AcDbEntity
  8
0
  6
Continuous
 62
     7
370
    25
100
AcDbLine
 10
111.6547367526
 20
55.9962210678
 30
0.0
 11
111.6547367526
 21
503.1686569813
 31
0.0
  0
SPLINE
  5
A1
330
1F
100
AcDbEntity
  8
0
  6
Continuous
 62
     7
370
    25
100
AcDbSpline
210
0.0
220
0.0
230
1.0
 70
    24
 71
     3
 72
    14
 73
    10
 74
     0
 42
0.00000001
 43
0.00000001
 40
0.0
 40
0.0
 40
0.0
 40
0.0
 40
0.25
 40
0.25
 40
0.5
 40
0.5
 40
0.75
 40
0.75
 40
1.0
 40
1.0
 40
1.0
 40
1.0
 10
111.6547367526307
 20
503.1686567712488
 30
0.0
 10
111.6607410351188
 20
503.1686567712481
 30
0.0
 10
111.6874845017604
 20
503.1686567712449
 30
0.0
 10
111.7912703389009
 20
503.1686567712327
 30
0.0
 10
111.8685467016243
 20
503.1686567712237
 30
0.0
 10
112.0614767212915
 20
503.1686567712011
 30
0.0
 10
112.1765652693032
 20
503.1686567711877
 30
0.0
 10
112.4154698406827
 20
503.1686567711599
 30
0.0
 10
112.5386405241015
 20
503.1686567711455
 30
0.0
 10
112.6533662866304
 20
503.1686567711322
 30
0.0
  0
SPLINE
  5
A2
330
1F
100
AcDbEntity
  8
0
  6
Continuous
 62
     7
370
    25
100
AcDbSpline
210
0.0
220
0.0
230
1.0
 70
     8
 71
     3
 72
    14
 73
    10
 74
     0
 42
0.00000001
 43
0.00000001
 40
0.0
 40
0.0
 40
0.0
 40
0.0
 40
0.25
 40
0.25
 40
0.5
 40
0.5
 40
0.75
 40
0.75
 40
1.0
 40
1.0
 40
1.0
 40
1.0
 10
117.6465139606304
 20
509.1604339785471
 30
0.0
 10
116.8617607266305
 20
509.1600765485471
 30
0.0
 10
116.0776878161304
 20
509.0039637185471
 30
0.0
 10
114.6286279301304
 20
508.4036774305471
 30
0.0
 10
113.9642161371304
 20
507.9597385160471
 30
0.0
 10
112.8554322151303
 20
506.8509545940472
 30
0.0
 10
112.4114933006304
 20
506.1865428010473
 30
0.0
 10
111.8112070126303
 20
504.7374829150473
 30
0.0
 10
111.6550941826304
 20
503.9534100045471
 30
0.0
 10
111.6547367526304
 20
503.1686567705471
 30
0.0
  0
SPLINE
  5
A3
330
1F
100
AcDbEntity
  8
0
  6
Continuous
 62
     7
370
    25
100
AcDbSpline
210
0.0
220
0.0
230
1.0
 70
    24
 71
     3
 72
    14
 73
    10
 74
     0
 42
0.00000001
 43
0.00000001
 40
0.0
 40
0.0
 40
0.0
 40
0.0
 40
0.2499999999999999
 40
0.2499999999999999
 40
0.4999999999999999
 40
0.4999999999999999
 40
0.7499999999999999
 40
0.7499999999999999
 40
1.0
 40
1.0
 40
1.0
 40
1.0
 10
117.6465139609445
 20
508.1618044445472
 30
0.0
 10
117.6465139609516
 20
508.2765302070766
 30
0.0
 10
117.6465139609594
 20
508.399700890496
 30
0.0
 10
117.6465139609743
 20
508.6386054618768
 30
0.0
 10
117.6465139609816
 20
508.7536940098889
 30
0.0
 10
117.6465139609937
 20
508.9466240295567
 30
0.0
 10
117.6465139609985
 20
509.0239003922801
 30
0.0
 10
117.6465139610051
 20
509.1276862294195
 30
0.0
 10
117.6465139610066
 20
509.1544296960603
 30
0.0
 10
117.6465139610071
 20
509.1604339785472
 30
0.0
  0
SPLINE
  5
A4
330
1F
100
AcDbEntity
  8
0
  6
Continuous
 62
     7
370
    25
100
AcDbSpline
210
0.0
220
0.0
230
1.0
 70
    24
 71
     3
 72
    14
 73
    10
 74
     0
 42
0.00000001
 43
0.00000001
 40
0.0
 40
0.0
 40
0.0
 40
0.0
 40
0.25
 40
0.25
 40
0.5
 40
0.5
 40
0.75
 40
0.75
 40
1.0
 40
1.0
 40
1.0
 40
1.0
 10
540.81072666063
 20
55.99622127784543
 30
0.0
 10
540.804722378142
 20
55.99622127784617
 30
0.0
 10
540.7779789115003
 20
55.99622127784937
 30
0.0
 10
540.6741930743598
 20
55.99622127786158
 30
0.0
 10
540.5969167116365
 20
55.99622127787052
 30
0.0
 10
540.4039866919692
 20
55.99622127789311
 30
0.0
 10
540.2888981439576
 20
55.99622127790651
 30
0.0
 10
540.049993572578
 20
55.99622127793441
 30
0.0
 10
539.9268228891592
 20
55.99622127794868
 30
0.0
 10
539.8120971266304
 20
55.99622127796209
 30
0.0
  0
SPLINE
  5
A5
330
1F
100
AcDbEntity
  8
0
  6
Continuous
 62
     7
370
    25
100
AcDbSpline
210
0.0
220
0.0
230
1.0
 70
    24
 71
     3
 72
    14
 73
    10
 74
     0
 42
0.00000001
 43
0.00000001
 40
0.0
 40
0.0
 40
0.0
 40
0.0
 40
0.25
 40
0.25
 40
0.5
 40
0.5
 40
0.75
 40
0.75
 40
1.0
 40
1.0
 40
1.0
 40
1.0
 10
539.8120971266304
 20
503.1686567702329
 30
0.0
 10
539.9268228891597
 20
503.1686567702257
 30
0.0
 10
540.0499935725793
 20
503.1686567702179
 30
0.0
 10
540.2888981439601
 20
503.168656770203
 30
0.0
 10
540.4039866919724
 20
503.1686567701958
 30
0.0
 10
540.5969167116401
 20
503.1686567701836
 30
0.0
 10
540.6741930743635
 20
503.1686567701788
 30
0.0
 10
540.7779789115029
 20
503.1686567701723
 30
0.0
 10
540.8047223781435
 20
503.1686567701706
 30
0.0
 10
540.8107266606306
 20
503.1686567701703
 30
0.0
  0
LINE
  5
A6
330
1F
100
AcDbEntity
  8
0
  6
Continuous
 62
     7
370
    25
100
AcDbLine
 10
540.8107266606
 20
503.1686569813
 30
0.0
 11
540.8107266606
 21
55.9962210678
 31
0.0
  0
SPLINE
  5
A7
330
1F
100
AcDbEntity
  8
0
  6
Continuous
 62
     7
370
    25
100
AcDbSpline
210
0.0
220
0.0
230
1.0
 70
     8
 71
     3
 72
    14
 73
    10
 74
     0
 42
0.00000001
 43
0.00000001
 40
0.0
 40
0.0
 40
0.0
 40
0.0
 40
0.25
 40
0.25
 40
0.5
 40
0.5
 40
0.75
 40
0.75
 40
1.0
 40
1.0
 40
1.0
 40
1.0
 10
534.8189494526304
 20
50.00444407054713
 30
0.0
 10
535.6037026866303
 20
50.0048015005472
 30
0.0
 10
536.3877755971304
 20
50.16091433054726
 30
0.0
 10
537.8368354831304
 20
50.76120061854714
 30
0.0
 10
538.5012472761304
 20
51.20513953304715
 30
0.0
 10
539.6100311981304
 20
52.31392345504712
 30
0.0
 10
540.0539701126304
 20
52.97833524804707
 30
0.0
 10
540.6542564006305
 20
54.42739513404704
 30
0.0
 10
540.8103692306303
 20
55.21146804454713
 30
0.0
 10
540.8107266606304
 20
55.99622127854712
 30
0.0
  0
SPLINE
  5
A8
330
1F
100
AcDbEntity
  8
0
  6
Continuous
 62
     7
370
    25
100
AcDbSpline
210
0.0
220
0.0
230
1.0
 70
    24
 71
     3
 72
    14
 73
    10
 74
     0
 42
0.00000001
 43
0.00000001
 40
0.0
 40
0.0
 40
0.0
 40
0.0
 40
0.25
 40
0.25
 40
0.5
 40
0.5
 40
0.75
 40
0.75
 40
1.0
 40
1.0
 40
1.0
 40
1.0
 10
534.8189494523162
 20
51.00307360454712
 30
0.0
 10
534.818949452309
 20
50.88834784201774
 30
0.0
 10
534.8189494523014
 20
50.76517715859824
 30
0.0
 10
534.8189494522862
 20
50.52627258721762
 30
0.0
 10
534.8189494522791
 20
50.41118403920533
 30
0.0
 10
534.8189494522669
 20
50.21825401953758
 30
0.0
 10
534.8189494522621
 20
50.14097765681421
 30
0.0
 10
534.8189494522557
 20
50.03719181967478
 30
0.0
 10
534.818949452254
 20
50.01044835303398
 30
0.0
 10
534.8189494522536
 20
50.00444407054697
 30
0.0
  0
SPLINE
  5
A9
330
1F
100
AcDbEntity
  8
0
  6
Continuous
 62
     7
370
    25
100
AcDbSpline
210
0.0
220
0.0
230
1.0
 70
     8
 71
     3
 72
    14
 73
    10
 74
     0
 42
0.00000001
 43
0.00000001
 40
0.0
 40
0.0
 40
0.0
 40
0.0
 40
0.25
 40
0.25
 40
0.5
 40
0.5
 40
0.75
 40
0.75
 40
1.0
 40
1.0
 40
1.0
 40
1.0
 10
540.8107266606304
 20
503.1686567705471
 30
0.0
 10
540.8103692306303
 20
503.9534100045471
 30
0.0
 10
540.6542564006304
 20
504.7374829150473
 30
0.0
 10
540.0539701126304
 20
506.186542801047
 30
0.0
 10
539.6100311981304
 20
506.8509545940472
 30
0.0
 10
538.5012472761304
 20
507.959738516047
 30
0.0
 10
537.8368354831304
 20
508.4036774305472
 30
0.0
 10
536.3877755971304
 20
509.0039637185472
 30
0.0
 10
535.6037026866303
 20
509.1600765485471
 30
0.0
 10
534.8189494526304
 20
509.1604339785471
 30
0.0
  0
SPLINE
  5
AA
330
1F
100
AcDbEntity
  8
0
  6
Continuous
 62
     7
370
    25
100
AcDbSpline
210
0.0
220
0.0
230
1.0
 70
    24
 71
     3
 72
    14
 73
    10
 74
     0
 42
0.00000001
 43
0.00000001
 40
0.0
 40
0.0
 40
0.0
 40
0.0
 40
0.2500000000000001
 40
0.2500000000000001
 40
0.5000000000000001
 40
0.5000000000000001
 40
0.7500000000000001
 40
0.7500000000000001
 40
1.0
 40
1.0
 40
1.0
 40
1.0
 10
534.8189494533322
 20
509.1604339785468
 30
0.0
 10
534.8189494533315
 20
509.1544296960587
 30
0.0
 10
534.8189494533284
 20
509.127686229417
 30
0.0
 10
534.8189494533162
 20
509.0239003922765
 30
0.0
 10
534.8189494533073
 20
508.946624029553
 30
0.0
 10
534.8189494532845
 20
508.7536940098857
 30
0.0
 10
534.8189494532712
 20
508.638605461874
 30
0.0
 10
534.8189494532432
 20
508.3997008904946
 30
0.0
 10
534.8189494532288
 20
508.2765302070758
 30
0.0
 10
534.8189494532154
 20
508.1618044445472
 30
0.0
  0
LINE
  5
AB
330
1F
100
AcDbEntity
  8
0
  6
Continuous
 62
     7
370
    25
100
AcDbLine
 10
534.8189492978
 20
50.0044440705
 30
0.0
 11
117.6465141154
 21
50.0044440705
 31
0.0
  0
LINE
  5
AC
330
1F
100
AcDbEntity
  8
0
  6
Continuous
 62
     7
370
    25
100
AcDbLine
 10
117.6465141154
 20
509.1604339785
 30
0.0
 11
534.8189492978
 21
509.1604339785
 31
0.0
  0
SPLINE
  5
AD
330
1F
100
AcDbEntity
  8
0
  6
Continuous
 62
     7
370
    25
100
AcDbSpline
210
0.0
220
0.0
230
1.0
 70
    24
 71
     3
 72
    14
 73
    10
 74
     0
 42
0.00000001
 43
0.00000001
 40
0.0
 40
0.0
 40
0.0
 40
0.0
 40
0.25
 40
0.25
 40
0.5
 40
0.5
 40
0.75
 40
0.75
 40
1.0
 40
1.0
 40
1.0
 40
1.0
 10
129.8053322756303
 20
476.0098384555471
 30
0.0
 10
129.7957484705707
 20
476.0194222606069
 30
0.0
 10
129.7723482134847
 20
476.0428225176927
 30
0.0
 10
129.6938898708974
 20
476.1212808602801
 30
0.0
 10
129.6387356310418
 20
476.1764351001357
 30
0.0
 10
129.5050115828179
 20
476.3101591483596
 30
0.0
 10
129.4267618582325
 20
476.388408872945
 30
0.0
 10
129.2648889572814
 20
476.5502817738961
 30
0.0
 10
129.1816260325039
 20
476.6335446986736
 30
0.0
 10
129.1035765176304
 20
476.7115942135471
 30
0.0
  0
SPLINE
  5
AE
330
1F
100
AcDbEntity
  8
0
  6
Continuous
 62
     7
370
    25
100
AcDbSpline
210
0.0
220
0.0
230
1.0
 70
    24
 71
     3
 72
    14
 73
    10
 74
     0
 42
0.00000001
 43
0.00000001
 40
0.0
 40
0.0
 40
0.0
 40
0.0
 40
0.2500000000000001
 40
0.2500000000000001
 40
0.5000000000000001
 40
0.5000000000000001
 40
0.7500000000000001
 40
0.7500000000000001
 40
1.0
 40
1.0
 40
1.0
 40
1.0
 10
138.2669316082984
 20
479.5025755005468
 30
0.0
 10
138.2669316082989
 20
479.5123890949267
 30
0.0
 10
138.2669316083005
 20
479.5423761792615
 30
0.0
 10
138.2669316083065
 20
479.6498956662624
 30
0.0
 10
138.2669316083108
 20
479.7276094990513
 30
0.0
 10
138.2669316083214
 20
479.9187504828757
 30
0.0
 10
138.2669316083276
 20
480.0316703072518
 30
0.0
 10
138.2669316083407
 20
480.2656685410089
 30
0.0
 10
138.2669316083474
 20
480.386171830613
 30
0.0
 10
138.2669316083536
 20
480.4987701985472
 30
0.0
  0
SPLINE
  5
AF
330
1F
100
AcDbEntity
  8
0
  6
Continuous
 62
     7
370
    25
100
AcDbSpline
210
0.0
220
0.0
230
1.0
 70
    24
 71
     3
 72
    14
 73
    10
 74
     0
 42
0.00000001
 43
0.00000001
 40
0.0
 40
0.0
 40
0.0
 40
0.0
 40
0.25
 40
0.25
 40
0.5
 40
0.5
 40
0.75
 40
0.75
 40
1.0
 40
1.0
 40
1.0
 40
1.0
 10
514.1985318072506
 20
480.4987701985472
 30
0.0
 10
514.1985318072366
 20
480.3861718306139
 30
0.0
 10
514.1985318072218
 20
480.2656685410111
 30
0.0
 10
514.1985318071927
 20
480.031670307256
 30
0.0
 10
514.1985318071787
 20
479.918750482881
 30
0.0
 10
514.198531807155
 20
479.7276094990574
 30
0.0
 10
514.1985318071453
 20
479.6498956662684
 30
0.0
 10
514.198531807132
 20
479.5423761792657
 30
0.0
 10
514.1985318071282
 20
479.5123890949297
 30
0.0
 10
514.198531807127
 20
479.5025755005481
 30
0.0
  0
LINE
  5
B0
330
1F
100
AcDbEntity
  8
0
  6
Continuous
 62
     7
370
    25
100
AcDbLine
 10
514.1985317122
 20
479.5025755005
 30
0.0
 11
138.266931701
 21
479.5025755005
 31
0.0
  0
SPLINE
  5
B1
330
1F
100
AcDbEntity
  8
0
  6
Continuous
 62
     7
370
    25
100
AcDbSpline
210
0.0
220
0.0
230
1.0
 70
    24
 71
     3
 72
    14
 73
    10
 74
     0
 42
0.00000001
 43
0.00000001
 40
0.0
 40
0.0
 40
0.0
 40
0.0
 40
0.2499999999999999
 40
0.2499999999999999
 40
0.4999999999999999
 40
0.4999999999999999
 40
0.7499999999999999
 40
0.7499999999999999
 40
1.0
 40
1.0
 40
1.0
 40
1.0
 10
514.1985318049624
 20
79.66230254854753
 30
0.0
 10
514.1985318049618
 20
79.65248895416754
 30
0.0
 10
514.1985318049601
 20
79.62250186983297
 30
0.0
 10
514.1985318049542
 20
79.51498238283192
 30
0.0
 10
514.1985318049499
 20
79.43726855004302
 30
0.0
 10
514.1985318049392
 20
79.24612756621863
 30
0.0
 10
514.1985318049332
 20
79.13320774184251
 30
0.0
 10
514.19853180492
 20
78.89920950808532
 30
0.0
 10
514.1985318049134
 20
78.77870621848123
 30
0.0
 10
514.1985318049071
 20
78.66610785054712
 30
0.0
  0
SPLINE
  5
B2
330
1F
100
AcDbEntity
  8
0
  6
Continuous
 62
     7
370
    25
100
AcDbSpline
210
0.0
220
0.0
230
1.0
 70
    24
 71
     3
 72
    14
 73
    10
 74
     0
 42
0.00000001
 43
0.00000001
 40
0.0
 40
0.0
 40
0.0
 40
0.0
 40
0.2500000000000001
 40
0.2500000000000001
 40
0.5000000000000001
 40
0.5000000000000001
 40
0.7500000000000002
 40
0.7500000000000002
 40
1.0
 40
1.0
 40
1.0
 40
1.0
 10
138.2669316060101
 20
78.66610785054712
 30
0.0
 10
138.266931606024
 20
78.77870621848027
 30
0.0
 10
138.266931606039
 20
78.89920950808319
 30
0.0
 10
138.266931606068
 20
79.13320774183823
 30
0.0
 10
138.2669316060821
 20
79.24612756621325
 30
0.0
 10
138.2669316061057
 20
79.43726855003675
 30
0.0
 10
138.2669316061154
 20
79.51498238282583
 30
0.0
 10
138.2669316061288
 20
79.62250186982853
 30
0.0
 10
138.2669316061325
 20
79.65248895416447
 30
0.0
 10
138.2669316061338
 20
79.6623025485462
 30
0.0
  0
LINE
  5
B3
330
1F
100
AcDbEntity
  8
0
  6
Continuous
 62
     7
370
    25
100
AcDbLine
 10
138.266931701
 20
79.6623025485
 30
0.0
 11
514.1985317122
 21
79.6623025485
 31
0.0
  0
SPLINE
  5
B4
330
1F
100
AcDbEntity
  8
0
  6
Continuous
 62
     7
370
    25
100
AcDbSpline
210
0.0
220
0.0
230
1.0
 70
    24
 71
     3
 72
    14
 73
    10
 74
     0
 42
0.00000001
 43
0.00000001
 40
0.0
 40
0.0
 40
0.0
 40
0.0
 40
0.25
 40
0.25
 40
0.5
 40
0.5
 40
0.75
 40
0.75
 40
1.0
 40
1.0
 40
1.0
 40
1.0
 10
522.6601311376304
 20
83.15503959354712
 30
0.0
 10
522.66971494269
 20
83.14545578848745
 30
0.0
 10
522.6931151997759
 20
83.12205553140159
 30
0.0
 10
522.7715735423633
 20
83.04359718881423
 30
0.0
 10
522.826727782219
 20
82.98844294895852
 30
0.0
 10
522.9604518304428
 20
82.8547189007347
 30
0.0
 10
523.0387015550282
 20
82.77646917614928
 30
0.0
 10
523.2005744559793
 20
82.61459627519815
 30
0.0
 10
523.283837380757
 20
82.53133335042065
 30
0.0
 10
523.3618868956304
 20
82.45328383554713
 30
0.0
  0
SPLINE
  5
B5
330
1F
100
AcDbEntity
  8
0
  6
Continuous
 62
     7
370
    25
100
AcDbSpline
210
0.0
220
0.0
230
1.0
 70
    24
 71
     3
 72
    14
 73
    10
 74
     0
 42
0.00000001
 43
0.00000001
 40
0.0
 40
0.0
 40
0.0
 40
0.0
 40
0.25
 40
0.25
 40
0.5
 40
0.5
 40
0.75
 40
0.75
 40
1.0
 40
1.0
 40
1.0
 40
1.0
 10
522.6601311376304
 20
476.0098384555471
 30
0.0
 10
522.6697149426901
 20
476.0194222606069
 30
0.0
 10
522.693115199776
 20
476.0428225176927
 30
0.0
 10
522.7715735423634
 20
476.1212808602801
 30
0.0
 10
522.826727782219
 20
476.1764351001357
 30
0.0
 10
522.9604518304428
 20
476.3101591483596
 30
0.0
 10
523.0387015550283
 20
476.388408872945
 30
0.0
 10
523.2005744559793
 20
476.5502817738961
 30
0.0
 10
523.283837380757
 20
476.6335446986736
 30
0.0
 10
523.3618868956304
 20
476.7115942135471
 30
0.0
  0
SPLINE
  5
B6
330
1F
100
AcDbEntity
  8
0
  6
Continuous
 62
     7
370
    25
100
AcDbSpline
210
0.0
220
0.0
230
1.0
 70
    24
 71
     3
 72
    14
 73
    10
 74
     0
 42
0.00000001
 43
0.00000001
 40
0.0
 40
0.0
 40
0.0
 40
0.0
 40
0.25
 40
0.25
 40
0.5
 40
0.5
 40
0.75
 40
0.75
 40
1.0
 40
1.0
 40
1.0
 40
1.0
 10
129.8053322756303
 20
83.15503959354712
 30
0.0
 10
129.7957484705707
 20
83.14545578848742
 30
0.0
 10
129.7723482134847
 20
83.1220555314015
 30
0.0
 10
129.6938898708974
 20
83.04359718881416
 30
0.0
 10
129.6387356310418
 20
82.98844294895852
 30
0.0
 10
129.5050115828179
 20
82.85471890073465
 30
0.0
 10
129.4267618582325
 20
82.77646917614922
 30
0.0
 10
129.2648889572814
 20
82.61459627519815
 30
0.0
 10
129.1816260325039
 20
82.53133335042065
 30
0.0
 10
129.1035765176304
 20
82.45328383554713
 30
0.0
  0
SPLINE
  5
B7
330
1F
100
AcDbEntity
  8
0
  6
Continuous
 62
     7
370
    25
100
AcDbSpline
210
0.0
220
0.0
230
1.0
 70
    24
 71
     3
 72
    14
 73
    10
 74
     0
 42
0.00000001
 43
0.00000001
 40
0.0
 40
0.0
 40
0.0
 40
0.0
 40
0.2499999999999999
 40
0.2499999999999999
 40
0.4999999999999999
 40
0.4999999999999999
 40
0.7499999999999999
 40
0.7499999999999999
 40
1.0
 40
1.0
 40
1.0
 40
1.0
 10
126.3125952306308
 20
91.61663892621513
 30
0.0
 10
126.3027816362508
 20
91.61663892621566
 30
0.0
 10
126.2727945519162
 20
91.61663892621725
 30
0.0
 10
126.1652750649152
 20
91.61663892622316
 30
0.0
 10
126.0875612321262
 20
91.61663892622751
 30
0.0
 10
125.8964202483018
 20
91.61663892623814
 30
0.0
 10
125.7835004239257
 20
91.61663892624433
 30
0.0
 10
125.5495021901686
 20
91.61663892625732
 30
0.0
 10
125.4289989005645
 20
91.61663892626402
 30
0.0
 10
125.3164005326304
 20
91.61663892627034
 30
0.0
  0
SPLINE
  5
B8
330
1F
100
AcDbEntity
  8
0
  6
Continuous
 62
     7
370
    25
100
AcDbSpline
210
0.0
220
0.0
230
1.0
 70
    24
 71
     3
 72
    14
 73
    10
 74
     0
 42
0.00000001
 43
0.00000001
 40
0.0
 40
0.0
 40
0.0
 40
0.0
 40
0.25
 40
0.25
 40
0.5
 40
0.5
 40
0.75
 40
0.75
 40
1.0
 40
1.0
 40
1.0
 40
1.0
 10
125.3164005326304
 20
467.5482391251674
 30
0.0
 10
125.4289989005636
 20
467.5482391251534
 30
0.0
 10
125.5495021901664
 20
467.5482391251384
 30
0.0
 10
125.7835004239215
 20
467.5482391251094
 30
0.0
 10
125.8964202482965
 20
467.5482391250954
 30
0.0
 10
126.0875612321201
 20
467.5482391250717
 30
0.0
 10
126.1652750649092
 20
467.548239125062
 30
0.0
 10
126.2727945519118
 20
467.5482391250488
 30
0.0
 10
126.3027816362478
 20
467.548239125045
 30
0.0
 10
126.3125952306294
 20
467.5482391250437
 30
0.0
  0
LINE
  5
B9
330
1F
100
AcDbEntity
  8
0
  6
Continuous
 62
     7
370
    25
100
AcDbLine
 10
126.3125952306
 20
467.5482390301
 30
0.0
 11
126.3125952306
 21
91.616639019
 31
0.0
  0
SPLINE
  5
BA
330
1F
100
AcDbEntity
  8
0
  6
Continuous
 62
     7
370
    25
100
AcDbSpline
210
0.0
220
0.0
230
1.0
 70
    24
 71
     3
 72
    14
 73
    10
 74
     0
 42
0.00000001
 43
0.00000001
 40
0.0
 40
0.0
 40
0.0
 40
0.0
 40
0.25
 40
0.25
 40
0.5
 40
0.5
 40
0.75
 40
0.75
 40
1.0
 40
1.0
 40
1.0
 40
1.0
 10
527.1490628806304
 20
91.61663892392694
 30
0.0
 10
527.0364645126973
 20
91.61663892394095
 30
0.0
 10
526.9159612230943
 20
91.61663892395578
 30
0.0
 10
526.6819629893392
 20
91.61663892398487
 30
0.0
 10
526.5690431649642
 20
91.61663892399882
 30
0.0
 10
526.3779021811406
 20
91.61663892402255
 30
0.0
 10
526.3001883483515
 20
91.61663892403222
 30
0.0
 10
526.1926688613489
 20
91.61663892404556
 30
0.0
 10
526.162681777013
 20
91.61663892404934
 30
0.0
 10
526.1528681826313
 20
91.61663892405059
 30
0.0
  0
LINE
  5
BB
330
1F
100
AcDbEntity
  8
0
  6
Continuous
 62
     7
370
    25
100
AcDbLine
 10
526.1528681826
 20
91.616639019
 30
0.0
 11
526.1528681826
 21
467.5482390301
 31
0.0
  0
SPLINE
  5
BC
330
1F
100
AcDbEntity
  8
0
  6
Continuous
 62
     7
370
    25
100
AcDbSpline
210
0.0
220
0.0
230
1.0
 70
    24
 71
     3
 72
    14
 73
    10
 74
     0
 42
0.00000001
 43
0.00000001
 40
0.0
 40
0.0
 40
0.0
 40
0.0
 40
0.2500000000000001
 40
0.2500000000000001
 40
0.5000000000000001
 40
0.5000000000000001
 40
0.7500000000000001
 40
0.7500000000000001
 40
1.0
 40
1.0
 40
1.0
 40
1.0
 10
526.15286818263
 20
467.5482391228791
 30
0.0
 10
526.16268177701
 20
467.5482391228786
 30
0.0
 10
526.1926688613446
 20
467.548239122877
 30
0.0
 10
526.3001883483456
 20
467.548239122871
 30
0.0
 10
526.3779021811346
 20
467.5482391228667
 30
0.0
 10
526.569043164959
 20
467.5482391228561
 30
0.0
 10
526.681962989335
 20
467.5482391228498
 30
0.0
 10
526.9159612230922
 20
467.5482391228368
 30
0.0
 10
527.0364645126962
 20
467.5482391228301
 30
0.0
 10
527.1490628806304
 20
467.5482391228239
 30
0.0
  0
LINE
  5
BD
330
1F
100
AcDbEntity
  8
0
  6
Continuous
 62
     7
370
    25
100
AcDbLine
 10
117.6465141154
 20
50.0044440705
 30
0.0
 11
117.2245090188
 21
49.5824390245
 31
0.0
  0
SPLINE
  5
BE
330
1F
100
AcDbEntity
  8
0
  6
Continuous
 62
     7
370
    25
100
AcDbSpline
210
0.0
220
0.0
230
1.0
 70
     8
 71
     3
 72
    26
 73
    22
 74
     0
 42
0.00000001
 43
0.00000001
 40
0.0
 40
0.0
 40
0.0
 40
0.0
 40
0.0260249598958072
 40
0.051828351491015
 40
0.0774103049142797
 40
0.1027709537288391
 40
0.1279104350511537
 40
0.1528288896745956
 40
0.1775264621984851
 40
0.202003301162704
 40
0.2262595591882556
 40
0.2502953931239721
 40
0.3759818370996395
 40
0.5000241309668935
 40
0.6240664249930151
 40
0.7497528694450988
 40
0.7980362902091599
 40
0.8472015570544331
 40
0.8972498578393712
 40
0.9481823170456182
 40
1.0
 40
1.0
 40
1.0
 40
1.0
 10
117.224508914057
 20
49.58243902407433
 30
0.0
 10
117.1429176193405
 20
49.58339815465909
 30
0.0
 10
116.9804296724578
 20
49.58530825009328
 30
0.0
 10
116.7381408911929
 20
49.60065290529487
 30
0.0
 10
116.498716775631
 20
49.62481803649082
 30
0.0
 10
116.2625156715117
 20
49.6584108322791
 30
0.0
 10
116.0298747744044
 20
49.70089962061127
 30
0.0
 10
115.8011106702477
 20
49.75204165867061
 30
0.0
 10
115.5765175718036
 20
49.81150830579287
 30
0.0
 10
115.3563741943117
 20
49.87898128600765
 30
0.0
 10
115.1409191485125
 20
49.95414498598236
 30
0.0
 10
114.633089367952
 20
50.15316181395291
 30
0.0
 10
113.8706222394147
 20
50.56092953251537
 30
0.0
 10
112.9597554177899
 20
51.30944445715718
 30
0.0
 10
112.2112000044371
 20
52.22038093614975
 30
0.0
 10
111.7673902003242
 20
53.05018900307581
 30
0.0
 10
111.5245102968438
 20
53.70666139946756
 30
0.0
 10
111.3973072903549
 20
54.15176367828811
 30
0.0
 10
111.3041748834402
 20
54.61351918030547
 30
0.0
 10
111.2440753525502
 20
55.0895281500264
 30
0.0
 10
111.2365345769766
 20
55.41172825548496
 30
0.0
 10
111.2327317061514
 20
55.57421623420153
 30
0.0
  0
LINE
  5
BF
330
1F
100
AcDbEntity
  8
0
  6
Continuous
 62
     7
370
    25
100
AcDbLine
 10
111.2327317066
 20
55.5742163442
 30
0.0
 11
111.6547367526
 21
55.9962210678
 31
0.0
  0
LINE
  5
C0
330
1F
100
AcDbEntity
  8
0
  6
Continuous
 62
     7
370
    25
100
AcDbLine
 10
540.8107266606
 20
55.9962210678
 30
0.0
 11
541.2327317066
 21
55.5742163442
 31
0.0
  0
SPLINE
  5
C1
330
1F
100
AcDbEntity
  8
0
  6
Continuous
 62
     7
370
    25
100
AcDbSpline
210
0.0
220
0.0
230
1.0
 70
     8
 71
     3
 72
    26
 73
    22
 74
     0
 42
0.00000001
 43
0.00000001
 40
0.0
 40
0.0
 40
0.0
 40
0.0
 40
0.0260249598959879
 40
0.051828351491369
 40
0.077410304914795
 40
0.1027709537295078
 40
0.127910435051968
 40
0.1528288896755466
 40
0.1775264621995511
 40
0.2020033011638912
 40
0.22625955918955
 40
0.2502953931253614
 40
0.3759818374187501
 40
0.5000241309686523
 40
0.6240664249946272
 40
0.7497528694463292
 40
0.7980362904140823
 40
0.847201557361046
 40
0.8972498581456909
 40
0.9481823172497171
 40
1.0
 40
1.0
 40
1.0
 40
1.0
 10
541.2327317071067
 20
55.57421623326952
 30
0.0
 10
541.2317725765386
 20
55.49262493855128
 30
0.0
 10
541.2298624811374
 20
55.33013699166509
 30
0.0
 10
541.2145178259848
 20
55.08784821039245
 30
0.0
 10
541.1903526948367
 20
54.84842409482138
 30
0.0
 10
541.1567598990961
 20
54.61222299069077
 30
0.0
 10
541.1142711108101
 20
54.3795820935708
 30
0.0
 10
541.0631290727963
 20
54.15081798939969
 30
0.0
 10
541.0036624257182
 20
53.92622489093979
 30
0.0
 10
540.9361894455468
 20
53.70608151343062
 30
0.0
 10
540.8610257456141
 20
53.49062646761257
 30
0.0
 10
540.6620089173805
 20
52.98279668607825
 30
0.0
 10
540.2542411987497
 20
52.22032955751813
 30
0.0
 10
539.5057262740888
 20
51.30946273595485
 30
0.0
 10
538.5947897960059
 20
50.56090732304078
 30
0.0
 10
537.7649817285945
 20
50.11709751845936
 30
0.0
 10
537.1085093313051
 20
49.87421761460728
 30
0.0
 10
536.6634070515322
 20
49.74701460793884
 30
0.0
 10
536.2016515494857
 20
49.65388220114997
 30
0.0
 10
535.7256425807049
 20
49.59378267048256
 30
0.0
 10
535.4034424762051
 20
49.58624189489832
 30
0.0
 10
535.2409544981277
 20
49.58243902407139
 30
0.0
  0
LINE
  5
C2
330
1F
100
AcDbEntity
  8
0
  6
Continuous
 62
     7
370
    25
100
AcDbLine
 10
535.2409543945
 20
49.5824390245
 30
0.0
 11
534.8189492978
 21
50.0044440705
 31
0.0
  0
LINE
  5
C3
330
1F
100
AcDbEntity
  8
0
  6
Continuous
 62
     7
370
    25
100
AcDbLine
 10
111.6547367526
 20
503.1686569813
 30
0.0
 11
111.2327317066
 21
503.5906617049
 31
0.0
  0
SPLINE
  5
C4
330
1F
100
AcDbEntity
  8
0
  6
Continuous
 62
     7
370
    25
100
AcDbSpline
210
0.0
220
0.0
230
1.0
 70
     8
 71
     3
 72
    26
 73
    22
 74
     0
 42
0.00000001
 43
0.00000001
 40
0.0
 40
0.0
 40
0.0
 40
0.0
 40
0.0260249600105731
 40
0.0518283516950713
 40
0.0774103051821376
 40
0.1027709540350146
 40
0.1279104353701502
 40
0.152828889980916
 40
0.1775264624666253
 40
0.2020033013671548
 40
0.2262595593035082
 40
0.2502953931245067
 40
0.375981837576442
 40
0.5000241316025978
 40
0.6240664256288883
 40
0.749752870081189
 40
0.7980362908198675
 40
0.8472015575888147
 40
0.8972498582465093
 40
0.9481823172746187
 40
1.0
 40
1.0
 40
1.0
 40
1.0
 10
111.2327317076414
 20
503.5906618139112
 30
0.0
 10
111.233690838193
 20
503.6722531089684
 30
0.0
 10
111.2356009335604
 20
503.8347410564526
 30
0.0
 10
111.2509455887505
 20
504.077029838502
 30
0.0
 10
111.2751107199663
 20
504.316453954607
 30
0.0
 10
111.3087035157817
 20
504.5526550590284
 30
0.0
 10
111.3511923041183
 20
504.7852959561997
 30
0.0
 10
111.4023343421319
 20
505.0140600601862
 30
0.0
 10
111.4618009891312
 20
505.2386531582333
 30
0.0
 10
111.5292739691194
 20
505.4587965351094
 30
0.0
 10
111.6044376687394
 20
505.674251580085
 30
0.0
 10
111.8034544967482
 20
506.1820813614045
 30
0.0
 10
112.2112222159132
 20
506.9445484913083
 30
0.0
 10
112.9597371419731
 20
507.8554153140109
 30
0.0
 10
113.870673621489
 20
508.6039707270702
 30
0.0
 10
114.7004816883547
 20
509.0477805306469
 30
0.0
 10
115.3569540843989
 20
509.290660433661
 30
0.0
 10
115.8020563624672
 20
509.4178634397542
 30
0.0
 10
116.2638118632176
 20
509.5109958463104
 30
0.0
 10
116.7398208311532
 20
509.5710953769756
 30
0.0
 10
117.0620209352526
 20
509.5786361526505
 30
0.0
 10
117.2245089132095
 20
509.582439023525
 30
0.0
  0
LINE
  5
C5
330
1F
100
AcDbEntity
  8
0
  6
Continuous
 62
     7
370
    25
100
AcDbLine
 10
117.2245090188
 20
509.5824390245
 30
0.0
 11
117.6465141154
 21
509.1604339785
 31
0.0
  0
LINE
  5
C6
330
1F
100
AcDbEntity
  8
0
  6
Continuous
 62
     7
370
    25
100
AcDbLine
 10
534.8189492978
 20
509.1604339785
 30
0.0
 11
535.2409543945
 21
509.5824390245
 31
0.0
  0
SPLINE
  5
C7
330
1F
100
AcDbEntity
  8
0
  6
Continuous
 62
     7
370
    25
100
AcDbSpline
210
0.0
220
0.0
230
1.0
 70
     8
 71
     3
 72
    26
 73
    22
 74
     0
 42
0.00000001
 43
0.00000001
 40
0.0
 40
0.0
 40
0.0
 40
0.0
 40
0.0260249600107571
 40
0.0518283516954276
 40
0.0774103051826638
 40
0.1027709540356937
 40
0.127910435370981
 40
0.152828889981884
 40
0.1775264624677125
 40
0.2020033013683612
 40
0.2262595593048261
 40
0.2502953931259271
 40
0.3759818375782305
 40
0.5000241316045195
 40
0.6240664256306768
 40
0.7497528700826136
 40
0.79803629082108
 40
0.8472015575897849
 40
0.8972498582471908
 40
0.9481823172749795
 40
1.0
 40
1.0
 40
1.0
 40
1.0
 10
535.2409544952795
 20
509.5824390236825
 30
0.0
 10
535.3225457903385
 20
509.5814798931415
 30
0.0
 10
535.4850337378258
 20
509.5795697977953
 30
0.0
 10
535.727322519882
 20
509.5642251426366
 30
0.0
 10
535.9667466359944
 20
509.5400600114515
 30
0.0
 10
536.2029477404246
 20
509.5064672156664
 30
0.0
 10
536.4355886376055
 20
509.463978427359
 30
0.0
 10
536.6643527416028
 20
509.4128363893742
 30
0.0
 10
536.8889458396613
 20
509.3533697424031
 30
0.0
 10
537.1090892165498
 20
509.2858967624421
 30
0.0
 10
537.3245442615387
 20
509.2107330628486
 30
0.0
 10
537.8323740428916
 20
509.0117162349019
 30
0.0
 10
538.5948411728588
 20
508.6039485158291
 30
0.0
 10
539.5057079956691
 20
507.8554335898763
 30
0.0
 10
540.2542634088531
 20
506.944497110446
 30
0.0
 10
540.6980732125411
 20
506.1146890436294
 30
0.0
 10
540.9409531156417
 20
505.4582166476109
 30
0.0
 10
541.0681561217932
 20
505.013114369556
 30
0.0
 10
541.1612885284101
 20
504.5513588688149
 30
0.0
 10
541.2213880591376
 20
504.0753499008843
 30
0.0
 10
541.2289288348546
 20
503.7531497967842
 30
0.0
 10
541.2327317057503
 20
503.590661818827
 30
0.0
  0
LINE
  5
C8
330
1F
100
AcDbEntity
  8
0
  6
Continuous
 62
     7
370
    25
100
AcDbLine
 10
541.2327317066
 20
503.5906617049
 30
0.0
 11
540.8107266606
 21
503.1686569813
 31
0.0
  0
SPLINE
  5
C9
330
1F
100
AcDbEntity
  8
0
  6
Continuous
 62
     7
370
    25
100
AcDbSpline
210
0.0
220
0.0
230
1.0
 70
     8
 71
     3
 72
    23
 73
    19
 74
     0
 42
0.00000001
 43
0.00000001
 40
0.0
 40
0.0
 40
0.0
 40
0.0
 40
0.0432900426060702
 40
0.0849577830668503
 40
0.1250032329915159
 40
0.1894247989864332
 40
0.2500031048341361
 40
0.3749988889600978
 40
0.4999904637944625
 40
0.6249795194843618
 40
0.6874747172668978
 40
0.7499716500108636
 40
0.8124715593159553
 40
0.8436214346705406
 40
0.8749756955868647
 40
0.9157176031687869
 40
0.9573922789579856
 40
1.0
 40
1.0
 40
1.0
 40
1.0
 10
141.981152678313
 20
107.2851961933486
 30
0.0
 10
141.9939351384714
 20
112.2504538092706
 30
0.0
 10
142.0190210337911
 20
121.9948951174751
 30
0.0
 10
142.0551441126019
 20
136.3327122120499
 30
0.0
 10
142.096620099772
 20
153.0945529658437
 30
0.0
 10
142.1421474472816
 20
172.0258860525832
 30
0.0
 10
142.2082833472771
 20
200.7022213219292
 30
0.0
 10
142.284203847117
 20
236.3282660563983
 30
0.0
 10
142.3611488834113
 20
279.34694732941
 30
0.0
 10
142.4076248357208
 20
315.1990908993321
 30
0.0
 10
142.4306770679493
 20
343.8826519354463
 30
0.0
 10
142.4402018478902
 20
365.3966777620521
 30
0.0
 10
142.4413052591636
 20
383.3141783093714
 30
0.0
 10
142.4380557900026
 20
397.6580374674681
 30
0.0
 10
142.4331545873682
 20
409.5051369226221
 30
0.0
 10
142.4249061495335
 20
422.5597243881875
 30
0.0
 10
142.4127571539588
 20
436.9052934708921
 30
0.0
 10
142.401905383525
 20
446.5756891448078
 30
0.0
 10
142.3964194312403
 20
451.4644148660905
 30
0.0
  0
SPLINE
  5
CA
330
1F
100
AcDbEntity
  8
0
  6
Continuous
 62
     7
370
    25
100
AcDbSpline
210
0.0
220
0.0
230
1.0
 70
     8
 71
     3
 72
    24
 73
    20
 74
     0
 42
0.00000001
 43
0.00000001
 40
0.0
 40
0.0
 40
0.0
 40
0.0
 40
0.0448962133201418
 40
0.086562570258746
 40
0.1249990839504988
 40
0.1917993456975841
 40
0.2499959896756472
 40
0.3124935233007551
 40
0.374991108327473
 40
0.4374910692943218
 40
0.4999988272090035
 40
0.562506963388166
 40
0.6250072627215225
 40
0.687505152999194
 40
0.7500029709490822
 40
0.8081998409342043
 40
0.875000408958044
 40
0.9338665927466849
 40
1.0
 40
1.0
 40
1.0
 40
1.0
 10
154.350755865087
 20
463.418751288543
 30
0.0
 10
159.494258212464
 20
463.4042921261735
 30
0.0
 10
169.4112367368221
 20
463.3764140009166
 30
0.0
 10
183.7319560018219
 20
463.3369440418284
 30
0.0
 10
200.5624483728029
 20
463.2913965766571
 30
0.0
 10
219.2873849510396
 20
463.2423907258702
 30
0.0
 10
240.7701606395457
 20
463.1894889032225
 30
0.0
 10
261.7614542048472
 20
463.1426071154498
 30
0.0
 10
283.2480440087119
 20
463.1025506237099
 30
0.0
 10
304.7385007629267
 20
463.0748409578779
 30
0.0
 10
326.232371404171
 20
463.0647156721144
 30
0.0
 10
347.7262808962261
 20
463.0748402799763
 30
0.0
 10
369.2168548068391
 20
463.1025497719489
 30
0.0
 10
390.7035511799618
 20
463.1426057912498
 30
0.0
 10
411.6949376130606
 20
463.1894893052184
 30
0.0
 10
433.1778091438277
 20
463.2423853802529
 30
0.0
 10
454.2434711217456
 20
463.2975411379742
 30
0.0
 10
476.2176523617184
 20
463.3573040441113
 30
0.0
 10
490.5381672269832
 20
463.3974900951497
 30
0.0
 10
498.1147075481738
 20
463.418751288543
 30
0.0
  0
SPLINE
  5
CB
330
1F
100
AcDbEntity
  8
0
  6
Continuous
 62
     7
370
    25
100
AcDbSpline
210
0.0
220
0.0
230
1.0
 70
     8
 71
     3
 72
    12
 73
     8
 74
     0
 42
0.00000001
 43
0.00000001
 40
0.0
 40
0.0
 40
0.0
 40
0.0
 40
0.2499999999999997
 40
0.2499999999999997
 40
0.4999999999999993
 40
0.4999999999999993
 40
1.0
 40
1.0
 40
1.0
 40
1.0
 10
349.2327317066304
 20
476.870290455308
 30
0.0
 10
349.3650410913145
 20
476.870290455308
 30
0.0
 10
349.4948833005342
 20
476.8680070777395
 30
0.0
 10
349.7371918156261
 20
476.8592093222696
 30
0.0
 10
349.8481215274562
 20
476.8526994266947
 30
0.0
 10
350.1245390756476
 20
476.8284871185022
 30
0.0
 10
350.2327317066303
 20
476.8058623712361
 30
0.0
 10
350.2327317066303
 20
476.7828017917824
 30
0.0
  0
LINE
  5
CC
330
1F
100
AcDbEntity
  8
0
  6
Continuous
 62
     7
370
    25
100
AcDbLine
 10
349.2327317066
 20
476.8702904553
 30
0.0
 11
303.2327317066
 21
476.8702904553
 31
0.0
  0
SPLINE
  5
CD
330
1F
100
AcDbEntity
  8
0
  6
Continuous
 62
     7
370
    25
100
AcDbSpline
210
0.0
220
0.0
230
1.0
 70
     8
 71
     3
 72
    12
 73
     8
 74
     0
 42
0.00000001
 43
0.00000001
 40
0.0
 40
0.0
 40
0.0
 40
0.0
 40
0.250000000000002
 40
0.250000000000002
 40
0.500000000000004
 40
0.500000000000004
 40
1.0
 40
1.0
 40
1.0
 40
1.0
 10
302.2327317066303
 20
476.7828017917824
 30
0.0
 10
302.2327317066303
 20
476.7943328389304
 30
0.0
 10
302.2585922955106
 20
476.805646078887
 30
0.0
 10
302.3585902381464
 20
476.8268081065815
 30
0.0
 10
302.4325959194546
 20
476.8365053539924
 30
0.0
 10
302.708901131449
 20
476.8607424530711
 30
0.0
 10
302.968095239686
 20
476.8702904553081
 30
0.0
 10
303.2327317066303
 20
476.870290455308
 30
0.0
  0
LINE
  5
CE
330
1F
100
AcDbEntity
  8
0
  6
Continuous
 62
     7
370
    25
100
AcDbLine
 10
302.2327317066
 20
476.7828017918
 30
0.0
 11
302.2327317066
 21
474.8580511942
 31
0.0
  0
SPLINE
  5
CF
330
1F
100
AcDbEntity
  8
0
  6
Continuous
 62
     7
370
    25
100
AcDbSpline
210
0.0
220
0.0
230
1.0
 70
     8
 71
     3
 72
    12
 73
     8
 74
     0
 42
0.00000001
 43
0.00000001
 40
0.0
 40
0.0
 40
0.0
 40
0.0
 40
0.2500000000000032
 40
0.2500000000000032
 40
0.5000000000000063
 40
0.5000000000000063
 40
1.0
 40
1.0
 40
1.0
 40
1.0
 10
303.2327317066303
 20
474.7705625306956
 30
0.0
 10
303.1004223219462
 20
474.7705625306955
 30
0.0
 10
302.9705801127266
 20
474.7728459082639
 30
0.0
 10
302.7282715976347
 20
474.7816436637339
 30
0.0
 10
302.6173418858045
 20
474.7881535593089
 30
0.0
 10
302.340924337613
 20
474.8123658675015
 30
0.0
 10
302.2327317066304
 20
474.8349906147675
 30
0.0
 10
302.2327317066304
 20
474.8580511942211
 30
0.0
  0
LINE
  5
D0
330
1F
100
AcDbEntity
  8
0
  6
Continuous
 62
     7
370
    25
100
AcDbLine
 10
303.2327317066
 20
474.7705625307
 30
0.0
 11
349.2327317066
 21
474.7705625307
 31
0.0
  0
SPLINE
  5
D1
330
1F
100
AcDbEntity
  8
0
  6
Continuous
 62
     7
370
    25
100
AcDbSpline
210
0.0
220
0.0
230
1.0
 70
     8
 71
     3
 72
    12
 73
     8
 74
     0
 42
0.00000001
 43
0.00000001
 40
0.0
 40
0.0
 40
0.0
 40
0.0
 40
0.2499999999999984
 40
0.2499999999999984
 40
0.4999999999999969
 40
0.4999999999999969
 40
1.0
 40
1.0
 40
1.0
 40
1.0
 10
350.2327317066304
 20
474.8580511942211
 30
0.0
 10
350.2327317066304
 20
474.8465201470732
 30
0.0
 10
350.20687111775
 20
474.8352069071167
 30
0.0
 10
350.1068731751143
 20
474.8140448794221
 30
0.0
 10
350.0328674938061
 20
474.8043476320113
 30
0.0
 10
349.7565622818117
 20
474.7801105329326
 30
0.0
 10
349.4973681735747
 20
474.7705625306955
 30
0.0
 10
349.2327317066304
 20
474.7705625306956
 30
0.0
  0
LINE
  5
D2
330
1F
100
AcDbEntity
  8
0
  6
Continuous
 62
     7
370
    25
100
AcDbLine
 10
350.2327317066
 20
474.8580511942
 30
0.0
 11
350.2327317066
 21
476.7828017918
 31
0.0
  0
SPLINE
  5
D3
330
1F
100
AcDbEntity
  8
0
  6
Continuous
 62
     7
370
    25
100
AcDbSpline
210
0.0
220
0.0
230
1.0
 70
     8
 71
     3
 72
    25
 73
    21
 74
     0
 42
0.00000001
 43
0.00000001
 40
0.0
 40
0.0
 40
0.0
 40
0.0
 40
0.0214166986458575
 40
0.0426001688493407
 40
0.063550443523028
 40
0.0842675566909077
 40
0.1047515435388144
 40
0.1250024404677506
 40
0.1563531817283908
 40
0.1874994881916878
 40
0.2499950504094876
 40
0.3124903552099301
 40
0.3749865062407239
 40
0.4999842369056947
 40
0.6249887476221232
 40
0.7499923217074193
 40
0.8105723627901319
 40
0.8749958940025391
 40
0.935672838106701
 40
1.0
 40
1.0
 40
1.0
 40
1.0
 10
510.0690439664113
 20
451.4644148660905
 30
0.0
 10
510.0662133248011
 20
449.0071170286951
 30
0.0
 10
510.060582867346
 20
444.1192813955213
 30
0.0
 10
510.0531710152807
 20
436.8275213687831
 30
0.0
 10
510.0465788636932
 20
429.6159390123779
 30
0.0
 10
510.0408751582869
 20
422.484523650532
 30
0.0
 10
510.0360413252065
 20
415.4332779975438
 30
0.0
 10
510.0313456996718
 20
407.1618075559123
 30
0.0
 10
510.0274087720737
 20
397.6667889132125
 30
0.0
 10
510.0241599717434
 20
383.3242415665201
 30
0.0
 10
510.0252584935591
 20
365.4078357731821
 30
0.0
 10
510.0347790997322
 20
343.8943853885095
 30
0.0
 10
510.057826376193
 20
315.2099050877339
 30
0.0
 10
510.1043012840561
 20
279.3551709488304
 30
0.0
 10
510.1812486118686
 20
236.3331146113737
 30
0.0
 10
510.2571777136784
 20
200.7044935485213
 30
0.0
 10
510.3233089508882
 20
172.0268368754357
 30
0.0
 10
510.3745521473104
 20
150.7285753624415
 30
0.0
 10
510.4285268446521
 20
129.001052461861
 30
0.0
 10
510.4653576041554
 20
114.6633721143074
 30
0.0
 10
510.4843107274175
 20
107.2851961933486
 30
0.0
  0
SPLINE
  5
D4
330
1F
100
AcDbEntity
  8
0
  6
Continuous
 62
     7
370
    25
100
AcDbSpline
210
0.0
220
0.0
230
1.0
 70
     8
 71
     3
 72
    21
 73
    17
 74
     0
 42
0.00000001
 43
0.00000001
 40
0.0
 40
0.0
 40
0.0
 40
0.0
 40
0.0320402858798782
 40
0.0635553344583032
 40
0.0945451720082457
 40
0.1250098261615166
 40
0.1883584354857859
 40
0.2500120137437803
 40
0.3750078209797755
 40
0.5000000067452304
 40
0.6249921925106854
 40
0.7499879997466805
 40
0.811641578004675
 40
0.8749901873289442
 40
0.9364446719470978
 40
1.0
 40
1.0
 40
1.0
 40
1.0
 10
498.5299745378289
 20
95.33085999253227
 30
0.0
 10
494.8500608502021
 20
95.33680739501577
 30
0.0
 10
487.5505584028256
 20
95.34860470404772
 30
0.0
 10
476.6915673333218
 20
95.36508647248995
 30
0.0
 10
466.0133890933351
 20
95.38048689765527
 30
0.0
 10
451.6786874278904
 20
95.39994137329374
 30
0.0
 10
433.821572383257
 20
95.42178065001306
 30
0.0
 10
405.1056723267608
 20
95.45131766589218
 30
0.0
 10
369.3076734796364
 20
95.47687086365514
 30
0.0
 10
326.2327318293699
 20
95.48738471254245
 30
0.0
 10
283.1577894426589
 20
95.47687259537338
 30
0.0
 10
247.3597924317212
 20
95.451312201433
 30
0.0
 10
218.6438887159956
 20
95.42179010106716
 30
0.0
 10
197.2272544599632
 20
95.39555130733743
 30
0.0
 10
175.5928081229758
 20
95.36540254364556
 30
0.0
 10
161.2350248566823
 20
95.34250245815107
 30
0.0
 10
153.9354888754318
 20
95.33085999253227
 30
0.0
  0
LINE
  5
D5
330
1F
100
AcDbEntity
  8
0
  6
Continuous
 62
     7
370
    25
100
AcDbLine
 10
111.2327317066
 20
503.5906617049
 30
0.0
 11
111.2327317066
 21
55.5742163442
 31
0.0
  0
LINE
  5
D6
330
1F
100
AcDbEntity
  8
0
  6
Continuous
 62
     7
370
    25
100
AcDbLine
 10
541.2327317066
 20
55.5742163442
 30
0.0
 11
541.2327317066
 21
503.5906617049
 31
0.0
  0
LINE
  5
D7
330
1F
100
AcDbEntity
  8
0
  6
Continuous
 62
     7
370
    25
100
AcDbLine
 10
117.2245090188
 20
49.5824390245
 30
0.0
 11
535.2409543945
 21
49.5824390245
 31
0.0
  0
LINE
  5
D8
330
1F
100
AcDbEntity
  8
0
  6
Continuous
 62
     7
370
    25
100
AcDbLine
 10
535.2409543945
 20
509.5824390245
 30
0.0
 11
117.2245090188
 21
509.5824390245
 31
0.0
  0
SPLINE
  5
D9
330
1F
100
AcDbEntity
  8
0
  6
Continuous
 62
     7
370
    25
100
AcDbSpline
210
0.0
220
0.0
230
1.0
 70
     8
 71
     3
 72
    10
 73
     6
 74
     0
 42
0.00000001
 43
0.00000001
 40
0.0
 40
0.0
 40
0.0
 40
0.0
 40
0.5000000000000001
 40
0.5000000000000001
 40
0.9999999999999999
 40
0.9999999999999999
 40
0.9999999999999999
 40
0.9999999999999999
 10
153.7115586428194
 20
106.9312986461854
 30
0.0
 10
150.7491919877736
 20
106.9405860856929
 30
0.0
 10
147.911720940853
 20
106.9818773447389
 30
0.0
 10
143.5804111281443
 20
107.1125497800991
 30
0.0
 10
142.2392721437722
 20
107.197324116178
 30
0.0
 10
141.9811526697119
 20
107.2851963774842
 30
0.0
  0
SPLINE
  5
DA
330
1F
100
AcDbEntity
  8
0
  6
Continuous
 62
     7
370
    25
100
AcDbSpline
210
0.0
220
0.0
230
1.0
 70
     8
 71
     3
 72
    10
 73
     6
 74
     0
 42
0.00000001
 43
0.00000001
 40
0.0
 40
0.0
 40
0.0
 40
0.0
 40
0.5000000000000001
 40
0.5000000000000001
 40
1.0
 40
1.0
 40
1.0
 40
1.0
 10
153.9354890533879
 20
95.33085998671321
 30
0.0
 10
153.8802418970272
 20
95.58709069128362
 30
0.0
 10
153.8269119869986
 20
96.91009744934073
 30
0.0
 10
153.7443555834237
 20
101.1868322374228
 30
0.0
 10
153.7179940506876
 20
103.9921444325423
 30
0.0
 10
153.711558757603
 20
106.9312985307646
 30
0.0
  0
SPLINE
  5
DB
330
1F
100
AcDbEntity
  8
0
  6
Continuous
 62
     7
370
    25
100
AcDbSpline
210
0.0
220
0.0
230
1.0
 70
     8
 71
     3
 72
    10
 73
     6
 74
     0
 42
0.00000001
 43
0.00000001
 40
0.0
 40
0.0
 40
0.0
 40
0.0
 40
0.4999999999999998
 40
0.4999999999999998
 40
1.0
 40
1.0
 40
1.0
 40
1.0
 10
498.7539046548032
 20
106.9312985307402
 30
0.0
 10
498.7474693593066
 20
103.9921444325219
 30
0.0
 10
498.7211078242423
 20
101.1868322374062
 30
0.0
 10
498.6385514170631
 20
96.91009744933002
 30
0.0
 10
498.5852215058836
 20
95.5870906912748
 30
0.0
 10
498.5299743492421
 20
95.33085998670482
 30
0.0
  0
SPLINE
  5
DC
330
1F
100
AcDbEntity
  8
0
  6
Continuous
 62
     7
370
    25
100
AcDbSpline
210
0.0
220
0.0
230
1.0
 70
     8
 71
     3
 72
    10
 73
     6
 74
     0
 42
0.00000001
 43
0.00000001
 40
0.0
 40
0.0
 40
0.0
 40
0.0
 40
0.4999999999999999
 40
0.4999999999999999
 40
1.0
 40
1.0
 40
1.0
 40
1.0
 10
510.4843107435619
 20
107.2851963787299
 30
0.0
 10
510.2261912695017
 20
107.1973241173676
 30
0.0
 10
508.8850522851303
 20
107.1125497810387
 30
0.0
 10
504.5537424724238
 20
106.9818773448877
 30
0.0
 10
501.7162714255044
 20
106.9405860853286
 30
0.0
 10
498.75390477046
 20
106.9312986452893
 30
0.0
  0
SPLINE
  5
DD
330
1F
100
AcDbEntity
  8
0
  6
Continuous
 62
     7
370
    25
100
AcDbSpline
210
0.0
220
0.0
230
1.0
 70
     8
 71
     3
 72
    10
 73
     6
 74
     0
 42
0.00000001
 43
0.00000001
 40
0.0
 40
0.0
 40
0.0
 40
0.0
 40
0.4999999999999998
 40
0.4999999999999998
 40
1.0
 40
1.0
 40
1.0
 40
1.0
 10
498.5010753452402
 20
451.6259959572425
 30
0.0
 10
501.4343760695377
 20
451.6212525359243
 30
0.0
 10
504.2316510537306
 20
451.6021891040778
 30
0.0
 10
508.4947828261667
 20
451.5426418045675
 30
0.0
 10
509.813280739798
 20
451.5042162413406
 30
0.0
 10
510.0690439851536
 20
451.464414910703
 30
0.0
  0
SPLINE
  5
DE
330
1F
100
AcDbEntity
  8
0
  6
Continuous
 62
     7
370
    25
100
AcDbSpline
210
0.0
220
0.0
230
1.0
 70
     8
 71
     3
 72
    18
 73
    14
 74
     0
 42
0.00000001
 43
0.00000001
 40
0.0
 40
0.0
 40
0.0
 40
0.0
 40
0.25
 40
0.25
 40
0.5
 40
0.5
 40
0.625
 40
0.625
 40
0.75
 40
0.75
 40
0.875
 40
0.875
 40
1.0
 40
1.0
 40
1.0
 40
1.0
 10
498.7539046556304
 20
106.9312986455471
 30
0.0
 10
498.6965221156304
 20
135.6171893635476
 30
0.0
 10
498.6454112201304
 20
164.3072795110477
 30
0.0
 10
498.5635300501306
 20
221.7070231770474
 30
0.0
 10
498.5333060311305
 20
250.4178030205473
 30
0.0
 10
498.5062889536304
 20
293.509767470547
 30
0.0
 10
498.5002139896304
 20
307.877727649547
 30
0.0
 10
498.4923242816304
 20
336.6211005842139
 30
0.0
 10
498.4904246561305
 20
350.9965329750475
 30
0.0
 10
498.4889062701304
 20
379.7503175170471
 30
0.0
 10
498.4892356566303
 20
394.1285030865472
 30
0.0
 10
498.4925338686304
 20
422.8810886345471
 30
0.0
 10
498.4955910256303
 20
437.2554394625472
 30
0.0
 10
498.5010752306304
 20
451.6259959575472
 30
0.0
  0
SPLINE
  5
DF
330
1F
100
AcDbEntity
  8
0
  6
Continuous
 62
     7
370
    25
100
AcDbSpline
210
0.0
220
0.0
230
1.0
 70
     8
 71
     3
 72
    14
 73
    10
 74
     0
 42
0.00000001
 43
0.00000001
 40
0.0
 40
0.0
 40
0.0
 40
0.0
 40
0.25
 40
0.25
 40
0.5
 40
0.5
 40
0.75
 40
0.75
 40
1.0
 40
1.0
 40
1.0
 40
1.0
 10
153.7115587576304
 20
106.9312986455471
 30
0.0
 10
182.4542622636305
 20
106.9614848165472
 30
0.0
 10
211.2032531876307
 20
106.9837257015471
 30
0.0
 10
268.7122221822975
 20
107.0125977122137
 30
0.0
 10
297.4723341546305
 20
107.0194228405471
 30
0.0
 10
354.9931292586302
 20
107.0194228405471
 30
0.0
 10
383.7532412309637
 20
107.0125977122138
 30
0.0
 10
441.2622102256306
 20
106.983725701547
 30
0.0
 10
470.0112011496304
 20
106.9614848165471
 30
0.0
 10
498.7539046556304
 20
106.9312986455471
 30
0.0
  0
SPLINE
  5
E0
330
1F
100
AcDbEntity
  8
0
  6
Continuous
 62
     7
370
    25
100
AcDbSpline
210
0.0
220
0.0
230
1.0
 70
     8
 71
     3
 72
    10
 73
     6
 74
     0
 42
0.00000001
 43
0.00000001
 40
0.0
 40
0.0
 40
0.0
 40
0.0
 40
0.5
 40
0.5
 40
0.9999999999999999
 40
0.9999999999999999
 40
0.9999999999999999
 40
0.9999999999999999
 10
142.3964194272671
 20
451.464414917096
 30
0.0
 10
142.6521826726803
 20
451.5042162472421
 30
0.0
 10
143.970680586366
 20
451.5426418095715
 30
0.0
 10
148.2338123588835
 20
451.6021891068146
 30
0.0
 10
151.0310873431007
 20
451.6212525373699
 30
0.0
 10
153.9643880674014
 20
451.6259959574836
 30
0.0
  0
SPLINE
  5
E1
330
1F
100
AcDbEntity
  8
0
  6
Continuous
 62
     7
370
    25
100
AcDbSpline
210
0.0
220
0.0
230
1.0
 70
     8
 71
     3
 72
    18
 73
    14
 74
     0
 42
0.00000001
 43
0.00000001
 40
0.0
 40
0.0
 40
0.0
 40
0.0
 40
0.125
 40
0.125
 40
0.25
 40
0.25
 40
0.375
 40
0.375
 40
0.5
 40
0.5
 40
0.75
 40
0.75
 40
1.0
 40
1.0
 40
1.0
 40
1.0
 10
153.9643881826304
 20
451.6259959575472
 30
0.0
 10
153.9698735546304
 20
437.2523818585472
 30
0.0
 10
153.9729306876304
 20
422.8754775565472
 30
0.0
 10
153.976228346297
 20
394.1190103445473
 30
0.0
 10
153.9765572146303
 20
379.7395025225472
 30
0.0
 10
153.9750374706304
 20
350.9843520745471
 30
0.0
 10
153.973136908297
 20
336.6088737875472
 30
0.0
 10
153.9652452096304
 20
307.8665049235472
 30
0.0
 10
153.9591692426304
 20
293.4995895205471
 30
0.0
 10
153.9321514031304
 20
250.4119803025471
 30
0.0
 10
153.9019296876304
 20
221.7041836370471
 30
0.0
 10
153.8200513676303
 20
164.3069637390471
 30
0.0
 10
153.7689414016303
 20
135.6172408835472
 30
0.0
 10
153.7115587576304
 20
106.9312986455471
 30
0.0
  0
SPLINE
  5
E2
330
1F
100
AcDbEntity
  8
0
  6
Continuous
 62
     7
370
    25
100
AcDbSpline
210
0.0
220
0.0
230
1.0
 70
     8
 71
     3
 72
    10
 73
     6
 74
     0
 42
0.00000001
 43
0.00000001
 40
0.0
 40
0.0
 40
0.0
 40
0.0
 40
0.5
 40
0.5
 40
1.0
 40
1.0
 40
1.0
 40
1.0
 10
153.9643881831034
 20
451.6259960728145
 30
0.0
 10
153.9740610060582
 20
454.5993743603411
 30
0.0
 10
154.0189442281798
 20
457.4522661454066
 30
0.0
 10
154.161711663267
 20
461.8098294290058
 30
0.0
 10
154.2545246221298
 20
463.1597155546218
 30
0.0
 10
154.3507558173137
 20
463.418751302868
 30
0.0
  0
SPLINE
  5
E3
330
1F
100
AcDbEntity
  8
0
  6
Continuous
 62
     7
370
    25
100
AcDbSpline
210
0.0
220
0.0
230
1.0
 70
     8
 71
     3
 72
    10
 73
     6
 74
     0
 42
0.00000001
 43
0.00000001
 40
0.0
 40
0.0
 40
0.0
 40
0.0
 40
0.5
 40
0.5
 40
1.0
 40
1.0
 40
1.0
 40
1.0
 10
498.5010753452405
 20
451.6259959574279
 30
0.0
 10
501.4340437426059
 20
451.6259959575759
 30
0.0
 10
504.2310296961453
 20
451.611515278047
 30
0.0
 10
508.4940046574611
 20
451.5590754273003
 30
0.0
 10
509.8126750053131
 20
451.5229284573291
 30
0.0
 10
510.0688819590526
 20
451.4836976662583
 30
0.0
  0
SPLINE
  5
E4
330
1F
100
AcDbEntity
  8
0
  6
Continuous
 62
     7
370
    25
100
AcDbSpline
210
0.0
220
0.0
230
1.0
 70
     8
 71
     3
 72
    10
 73
     6
 74
     0
 42
0.00000001
 43
0.00000001
 40
0.0
 40
0.0
 40
0.0
 40
0.0
 40
0.4999999999999998
 40
0.4999999999999998
 40
1.0
 40
1.0
 40
1.0
 40
1.0
 10
498.1147076001863
 20
463.4187513020629
 30
0.0
 10
498.2109387949482
 20
463.1597155538731
 30
0.0
 10
498.3037517531646
 20
461.8098294283093
 30
0.0
 10
498.4465191867613
 20
457.4522661447849
 30
0.0
 10
498.4914024080917
 20
454.5993743597394
 30
0.0
 10
498.501075230363
 20
451.6259960722117
 30
0.0
  0
SPLINE
  5
E5
330
1F
100
AcDbEntity
  8
0
  6
Continuous
 62
     7
370
    25
100
AcDbSpline
210
0.0
220
0.0
230
1.0
 70
     8
 71
     3
 72
    26
 73
    22
 74
     0
 42
0.00000001
 43
0.00000001
 40
0.0
 40
0.0
 40
0.0
 40
0.0
 40
0.125
 40
0.125
 40
0.25
 40
0.25
 40
0.375
 40
0.375
 40
0.4375
 40
0.4375
 40
0.5
 40
0.5
 40
0.5625
 40
0.5625
 40
0.625
 40
0.625
 40
0.75
 40
0.75
 40
0.875
 40
0.875
 40
1.0
 40
1.0
 40
1.0
 40
1.0
 10
498.5010752306304
 20
451.6259959575472
 30
0.0
 10
484.1757882546304
 20
451.5969652255471
 30
0.0
 10
469.8489693826303
 20
451.5707832885471
 30
0.0
 10
441.1876436906304
 20
451.5285933805471
 30
0.0
 10
426.8534288216303
 20
451.5126514815471
 30
0.0
 10
398.1649327856303
 20
451.4978754375472
 30
0.0
 10
383.8103855546304
 20
451.5001934320472
 30
0.0
 10
362.2432706816303
 20
451.5138367255472
 30
0.0
 10
355.0481408526304
 20
451.5197697895472
 30
0.0
 10
340.6464889739639
 20
451.5292671922139
 30
0.0
 10
333.4399281631305
 20
451.5325484960472
 30
0.0
 10
319.0247232171305
 20
451.5325482700472
 30
0.0
 10
311.8182525272973
 20
451.5292667948805
 30
0.0
 10
297.4166837206304
 20
451.5197692895472
 30
0.0
 10
290.2215928526304
 20
451.5138362805472
 30
0.0
 10
268.6545890531304
 20
451.5001932555471
 30
0.0
 10
254.3001084176305
 20
451.4978755130472
 30
0.0
 10
225.6117396936304
 20
451.5126517750471
 30
0.0
 10
211.2775854356304
 20
451.5285936830472
 30
0.0
 10
182.6163785076303
 20
451.5707835010471
 30
0.0
 10
168.2896177046304
 20
451.5969653415472
 30
0.0
 10
153.9643881826304
 20
451.6259959575472
 30
0.0
  0
SPLINE
  5
E6
330
1F
100
AcDbEntity
  8
0
  6
Continuous
 62
     7
370
    25
100
AcDbSpline
210
0.0
220
0.0
230
1.0
 70
     8
 71
     3
 72
    22
 73
    18
 74
     0
 42
0.00000001
 43
0.00000001
 40
0.0
 40
0.0
 40
0.0
 40
0.0
 40
0.1249999999999996
 40
0.1249999999999996
 40
0.2499999999999993
 40
0.2499999999999993
 40
0.3749999999999993
 40
0.3749999999999993
 40
0.4999999999999994
 40
0.4999999999999994
 40
0.6249999999999996
 40
0.6249999999999996
 40
0.7499999999999996
 40
0.7499999999999996
 40
0.8749999999999997
 40
0.8749999999999997
 40
1.0
 40
1.0
 40
1.0
 40
1.0
 10
281.3067279054329
 20
424.5306458942224
 30
0.0
 10
278.6589171637883
 20
421.88414309182
 30
0.0
 10
276.1472801577785
 20
418.9033535463175
 30
0.0
 10
271.6122693933409
 20
412.3130343806499
 30
0.0
 10
269.5903616061829
 20
408.7031671376511
 30
0.0
 10
266.2468164189659
 20
400.9848889669227
 30
0.0
 10
264.9268156473244
 20
396.8770801113319
 30
0.0
 10
263.1448804679994
 20
388.3826083572657
 30
0.0
 10
262.6840509962261
 20
383.9975062754417
 30
0.0
 10
262.6800938303866
 20
375.2247036225463
 30
0.0
 10
263.13696878794
 20
370.8389764979012
 30
0.0
 10
264.9114852715849
 20
362.3421324467017
 30
0.0
 10
266.2280257181483
 20
358.2325796948239
 30
0.0
 10
269.5654906962213
 20
350.5100289003416
 30
0.0
 10
271.5847792962967
 20
346.8976374706754
 30
0.0
 10
276.1155239039965
 20
340.3019039298717
 30
0.0
 10
278.6255120091624
 20
337.3182275483134
 30
0.0
 10
281.2721278711643
 20
334.668841739375
 30
0.0
  0
SPLINE
  5
E7
330
1F
100
AcDbEntity
  8
0
  6
Continuous
 62
     7
370
    25
100
AcDbSpline
210
0.0
220
0.0
230
1.0
 70
     8
 71
     3
 72
    22
 73
    18
 74
     0
 42
0.00000001
 43
0.00000001
 40
0.0
 40
0.0
 40
0.0
 40
0.0
 40
0.125
 40
0.125
 40
0.25
 40
0.25
 40
0.375
 40
0.375
 40
0.5
 40
0.5
 40
0.625
 40
0.625
 40
0.75
 40
0.75
 40
0.875
 40
0.875
 40
1.0
 40
1.0
 40
1.0
 40
1.0
 10
371.1932815530828
 20
334.6687876939214
 30
0.0
 10
373.8399037884821
 20
337.3181735134582
 30
0.0
 10
376.3498985121449
 20
340.3018510505889
 30
0.0
 10
380.8806558290016
 20
346.8975894867437
 30
0.0
 10
382.8999505095653
 20
350.5099846628887
 30
0.0
 10
386.2374259100145
 20
358.2325452770335
 30
0.0
 10
387.5539706841136
 20
362.3421041004647
 30
0.0
 10
389.3284930717358
 20
370.8389616964709
 30
0.0
 10
389.7853695949578
 20
375.2246962824514
 30
0.0
 10
389.7814124048362
 20
383.9975138697391
 30
0.0
 10
389.3205813431462
 20
388.382623407965
 30
0.0
 10
387.5386402159639
 20
396.8771086885282
 30
0.0
 10
386.2186350971999
 20
400.9849236023439
 30
0.0
 10
382.8750794559063
 20
408.7032115612487
 30
0.0
 10
380.8531655761446
 20
412.3130825326267
 30
0.0
 10
376.3181420861217
 20
418.9034065566825
 30
0.0
 10
373.8064984572683
 20
421.8841972389274
 30
0.0
 10
371.1586813409925
 20
424.5307000342358
 30
0.0
  0
SPLINE
  5
E8
330
1F
100
AcDbEntity
  8
0
  6
Continuous
 62
     7
370
    25
100
AcDbSpline
210
0.0
220
0.0
230
1.0
 70
     8
 71
     3
 72
    20
 73
    16
 74
     0
 42
0.00000001
 43
0.00000001
 40
0.0
 40
0.0
 40
0.0
 40
0.0
 40
0.1249999999999999
 40
0.1249999999999999
 40
0.2499999999999999
 40
0.2499999999999999
 40
0.3749999999999998
 40
0.3749999999999998
 40
0.4999999999999998
 40
0.4999999999999998
 40
0.6249999999999998
 40
0.6249999999999998
 40
0.7499999999999998
 40
0.7499999999999998
 40
1.0
 40
1.0
 40
1.0
 40
1.0
 10
281.2721278711643
 20
334.668841739375
 30
0.0
 10
283.1449119772661
 20
332.7940975782943
 30
0.0
 10
285.0860889930337
 20
331.0857008789239
 30
0.0
 10
289.0367629973915
 20
327.9932955043669
 30
0.0
 10
291.0461819681901
 20
326.6091160060452
 30
0.0
 10
295.0755953471516
 20
324.1432914121046
 30
0.0
 10
297.0955766421552
 20
323.0614899200548
 30
0.0
 10
301.1007066727237
 20
321.1703442956452
 30
0.0
 10
303.0858862422489
 20
320.3608744071171
 30
0.0
 10
306.987992165058
 20
318.9803749453026
 30
0.0
 10
308.9049732525996
 20
318.4092548706022
 30
0.0
 10
312.6478902869613
 20
317.4707512663181
 30
0.0
 10
314.4738893656377
 20
317.103309685735
 30
0.0
 10
319.7943386404806
 20
316.2568230049825
 30
0.0
 10
323.1288494777498
 20
316.0317732661358
 30
0.0
 10
326.2327317066304
 20
316.0317732661358
 30
0.0
  0
SPLINE
  5
E9
330
1F
100
AcDbEntity
  8
0
  6
Continuous
 62
     7
370
    25
100
AcDbSpline
210
0.0
220
0.0
230
1.0
 70
     8
 71
     3
 72
    20
 73
    16
 74
     0
 42
0.00000001
 43
0.00000001
 40
0.0
 40
0.0
 40
0.0
 40
0.0
 40
0.2499999999999999
 40
0.2499999999999999
 40
0.3749999999999999
 40
0.3749999999999999
 40
0.5
 40
0.5
 40
0.6250000000000001
 40
0.6250000000000001
 40
0.75
 40
0.75
 40
0.875
 40
0.875
 40
1.0
 40
1.0
 40
1.0
 40
1.0
 10
326.2327317066304
 20
316.0317732661358
 30
0.0
 10
329.3366102072052
 20
316.0317732661358
 30
0.0
 10
332.6711167533114
 20
316.2568224697189
 30
0.0
 10
337.9915588849868
 20
317.1033069030332
 30
0.0
 10
339.8175554679251
 20
317.4707474914831
 30
0.0
 10
343.5604673559537
 20
318.4092484996816
 30
0.0
 10
345.4774457925314
 20
318.9803669699734
 30
0.0
 10
349.3795463813429
 20
320.3608624838056
 30
0.0
 10
351.3647232675809
 20
321.1703300280491
 30
0.0
 10
355.3698480811346
 20
323.0614701137278
 30
0.0
 10
357.3898268424279
 20
324.1432684103688
 30
0.0
 10
361.419235548199
 20
326.6090856938648
 30
0.0
 10
363.4286523799932
 20
327.9932610760344
 30
0.0
 10
367.379322801621
 20
331.0856573024046
 30
0.0
 10
369.320498374756
 20
332.7940489687034
 30
0.0
 10
371.1932815530828
 20
334.6687876939214
 30
0.0
  0
SPLINE
  5
EA
330
1F
100
AcDbEntity
  8
0
  6
Continuous
 62
     7
370
    25
100
AcDbSpline
210
0.0
220
0.0
230
1.0
 70
     8
 71
     3
 72
    20
 73
    16
 74
     0
 42
0.00000001
 43
0.00000001
 40
0.0
 40
0.0
 40
0.0
 40
0.0
 40
0.1249999999999998
 40
0.1249999999999998
 40
0.2499999999999997
 40
0.2499999999999997
 40
0.3749999999999997
 40
0.3749999999999997
 40
0.4999999999999997
 40
0.4999999999999997
 40
0.6249999999999996
 40
0.6249999999999996
 40
0.7499999999999997
 40
0.7499999999999997
 40
1.0
 40
1.0
 40
1.0
 40
1.0
 10
371.1586813409925
 20
424.5307000342358
 30
0.0
 10
369.286494650623
 20
426.4019574103385
 30
0.0
 10
367.346244989053
 20
428.1071258770045
 30
0.0
 10
363.3978725450787
 20
431.1936637243178
 30
0.0
 10
361.3898270812411
 20
432.5752032634971
 30
0.0
 10
357.3634138112867
 20
435.0363392351032
 30
0.0
 10
355.3450588142571
 20
436.1160913489834
 30
0.0
 10
351.343277080709
 20
438.0036846957692
 30
0.0
 10
349.3598194994855
 20
438.8116510685361
 30
0.0
 10
345.461136508985
 20
440.1896184498136
 30
0.0
 10
343.5458565281776
 20
440.7597095045745
 30
0.0
 10
339.8062418266143
 20
441.6965480296289
 30
0.0
 10
337.98184421056
 20
442.0633532588703
 30
0.0
 10
332.6659785866754
 20
442.908398411785
 30
0.0
 10
329.3342213694547
 20
443.1331047829584
 30
0.0
 10
326.2327317066304
 20
443.1331047829584
 30
0.0
  0
SPLINE
  5
EB
330
1F
100
AcDbEntity
  8
0
  6
Continuous
 62
     7
370
    25
100
AcDbSpline
210
0.0
220
0.0
230
1.0
 70
     8
 71
     3
 72
    20
 73
    16
 74
     0
 42
0.00000001
 43
0.00000001
 40
0.0
 40
0.0
 40
0.0
 40
0.0
 40
0.2500000000000002
 40
0.2500000000000002
 40
0.3750000000000003
 40
0.3750000000000003
 40
0.5000000000000003
 40
0.5000000000000003
 40
0.6250000000000003
 40
0.6250000000000003
 40
0.7500000000000003
 40
0.7500000000000003
 40
0.8750000000000002
 40
0.8750000000000002
 40
1.0
 40
1.0
 40
1.0
 40
1.0
 10
326.2327317066304
 20
443.1331047829584
 30
0.0
 10
323.1312383049085
 20
443.1331047829585
 30
0.0
 10
319.7994767847981
 20
442.9083978753981
 30
0.0
 10
314.483603998499
 20
442.0633504709136
 30
0.0
 10
312.6592038800157
 20
441.6965442477529
 30
0.0
 10
308.9195840181995
 20
440.7597031220723
 30
0.0
 10
307.0043013791993
 20
440.1896104601493
 30
0.0
 10
303.1056130397188
 20
438.811639124232
 30
0.0
 10
301.1221527674539
 20
438.0036704032777
 30
0.0
 10
297.1203658008786
 20
436.1160715085664
 30
0.0
 10
295.1020082618793
 20
435.0363161939869
 30
0.0
 10
291.0755903017662
 20
432.5751728996381
 30
0.0
 10
289.0675426902128
 20
431.1936292372998
 30
0.0
 10
285.1191666457865
 20
428.107082225624
 30
0.0
 10
283.1789155325698
 20
426.4019087167169
 30
0.0
 10
281.3067279054329
 20
424.5306458942224
 30
0.0
  0
SPLINE
  5
EC
330
1F
100
AcDbEntity
  8
0
  6
Continuous
 62
     7
370
    25
100
AcDbSpline
210
0.0
220
0.0
230
1.0
 70
     8
 71
     3
 72
    54
 73
    50
 74
     0
 42
0.00000001
 43
0.00000001
 40
0.0
 40
0.0
 40
0.0
 40
0.0
 40
0.0624999999999999
 40
0.0624999999999999
 40
0.1249999999999998
 40
0.1249999999999998
 40
0.1874999999999997
 40
0.1874999999999997
 40
0.2499999999999996
 40
0.2499999999999996
 40
0.2812499999999997
 40
0.2812499999999997
 40
0.3124999999999997
 40
0.3124999999999997
 40
0.3437499999999998
 40
0.3437499999999998
 40
0.3749999999999998
 40
0.3749999999999998
 40
0.4062499999999999
 40
0.4062499999999999
 40
0.4374999999999999
 40
0.4374999999999999
 40
0.46875
 40
0.46875
 40
0.5
 40
0.5
 40
0.53125
 40
0.53125
 40
0.5625000000000001
 40
0.5625000000000001
 40
0.5937500000000002
 40
0.5937500000000002
 40
0.6250000000000002
 40
0.6250000000000002
 40
0.6562500000000002
 40
0.6562500000000002
 40
0.6875000000000003
 40
0.6875000000000003
 40
0.7187500000000004
 40
0.7187500000000004
 40
0.7500000000000004
 40
0.7500000000000004
 40
0.8125000000000003
 40
0.8125000000000003
 40
0.8750000000000002
 40
0.8750000000000002
 40
0.9375000000000001
 40
0.9375000000000001
 40
1.0
 40
1.0
 40
1.0
 40
1.0
 10
326.2327317066304
 20
439.0325445079233
 30
0.0
 10
328.7098194350892
 20
439.0325445079233
 30
0.0
 10
331.3432649604889
 20
438.8789026032362
 30
0.0
 10
336.9054122978192
 20
438.1339721562676
 30
0.0
 10
339.8349158411435
 20
437.5423285304734
 30
0.0
 10
345.9226066426039
 20
435.7667520467032
 30
0.0
 10
349.0816065699198
 20
434.5818548788814
 30
0.0
 10
355.4861964801377
 20
431.4596172976309
 30
0.0
 10
358.7321227040101
 20
429.5205276305832
 30
0.0
 10
363.4881311426511
 20
425.9535213015806
 30
0.0
 10
365.0538689382262
 20
424.6552370845478
 30
0.0
 10
368.1078032290242
 20
421.8330745925877
 30
0.0
 10
369.5959443192156
 20
420.3091266616233
 30
0.0
 10
372.451869821871
 20
417.0367120231439
 30
0.0
 10
373.8195693055729
 20
415.2881899958321
 30
0.0
 10
376.3894839053797
 20
411.5778757923383
 30
0.0
 10
377.5915886925309
 20
409.6160563275677
 30
0.0
 10
379.7858255731034
 20
405.5018621764689
 30
0.0
 10
380.7778331146179
 20
403.3495005374551
 30
0.0
 10
382.5116005198043
 20
398.8886614845005
 30
0.0
 10
383.2532391904153
 20
396.5802443319835
 30
0.0
 10
384.4539671591451
 20
391.8523779550807
 30
0.0
 10
384.9129594187477
 20
389.4330341041103
 30
0.0
 10
385.5274214899837
 20
384.5365394739181
 30
0.0
 10
385.6828371896421
 20
382.0595267530211
 30
0.0
 10
385.6828371896421
 20
377.1053512960731
 30
0.0
 10
385.5274214899837
 20
374.6283385751762
 30
0.0
 10
384.9129594187477
 20
369.731843944984
 30
0.0
 10
384.4539671591451
 20
367.3125000940136
 30
0.0
 10
383.2532391904153
 20
362.5846337171108
 30
0.0
 10
382.5116005198043
 20
360.2762165645938
 30
0.0
 10
380.7778331146179
 20
355.8153775116392
 30
0.0
 10
379.7858255731034
 20
353.6630158726253
 30
0.0
 10
377.5915886925309
 20
349.5488217215266
 30
0.0
 10
376.3894839053797
 20
347.587002256756
 30
0.0
 10
373.8195693055729
 20
343.8766880532621
 30
0.0
 10
372.4518698218711
 20
342.1281660259504
 30
0.0
 10
369.5959443192156
 20
338.8557513874709
 30
0.0
 10
368.1078032290242
 20
337.3318034565066
 30
0.0
 10
365.0538689382262
 20
334.5096409645465
 30
0.0
 10
363.4881311426511
 20
333.2113567475136
 30
0.0
 10
358.7321227040101
 20
329.644350418511
 30
0.0
 10
355.4861964801377
 20
327.7052607514634
 30
0.0
 10
349.0816065699198
 20
324.5830231702129
 30
0.0
 10
345.9226066426039
 20
323.398126002391
 30
0.0
 10
339.8349158411435
 20
321.6225495186208
 30
0.0
 10
336.9054122978192
 20
321.0309058928266
 30
0.0
 10
331.3432649604889
 20
320.2859754458581
 30
0.0
 10
328.7098194350892
 20
320.1323335411708
 30
0.0
 10
326.2327317066304
 20
320.1323335411708
 30
0.0
  0
SPLINE
  5
ED
330
1F
100
AcDbEntity
  8
0
  6
Continuous
 62
     7
370
    25
100
AcDbSpline
210
0.0
220
0.0
230
1.0
 70
     8
 71
     3
 72
    54
 73
    50
 74
     0
 42
0.00000001
 43
0.00000001
 40
0.0
 40
0.0
 40
0.0
 40
0.0
 40
0.0624999999999999
 40
0.0624999999999999
 40
0.1249999999999998
 40
0.1249999999999998
 40
0.1874999999999997
 40
0.1874999999999997
 40
0.2499999999999996
 40
0.2499999999999996
 40
0.2812499999999997
 40
0.2812499999999997
 40
0.3124999999999997
 40
0.3124999999999997
 40
0.3437499999999998
 40
0.3437499999999998
 40
0.3749999999999998
 40
0.3749999999999998
 40
0.4062499999999999
 40
0.4062499999999999
 40
0.4374999999999999
 40
0.4374999999999999
 40
0.46875
 40
0.46875
 40
0.5
 40
0.5
 40
0.53125
 40
0.53125
 40
0.5625000000000001
 40
0.5625000000000001
 40
0.5937500000000002
 40
0.5937500000000002
 40
0.6250000000000002
 40
0.6250000000000002
 40
0.6562500000000002
 40
0.6562500000000002
 40
0.6875000000000003
 40
0.6875000000000003
 40
0.7187500000000004
 40
0.7187500000000004
 40
0.7500000000000004
 40
0.7500000000000004
 40
0.8125000000000003
 40
0.8125000000000003
 40
0.8750000000000002
 40
0.8750000000000002
 40
0.9375000000000001
 40
0.9375000000000001
 40
1.0
 40
1.0
 40
1.0
 40
1.0
 10
326.2327317066304
 20
320.1323335411708
 30
0.0
 10
323.7556439781715
 20
320.1323335411708
 30
0.0
 10
321.1221984527718
 20
320.2859754458581
 30
0.0
 10
315.5600511154415
 20
321.0309058928265
 30
0.0
 10
312.6305475721173
 20
321.6225495186208
 30
0.0
 10
306.5428567706568
 20
323.398126002391
 30
0.0
 10
303.3838568433409
 20
324.5830231702129
 30
0.0
 10
296.979266933123
 20
327.7052607514634
 30
0.0
 10
293.7333407092506
 20
329.644350418511
 30
0.0
 10
288.9773322706097
 20
333.2113567475136
 30
0.0
 10
287.4115944750345
 20
334.5096409645465
 30
0.0
 10
284.3576601842365
 20
337.3318034565066
 30
0.0
 10
282.8695190940452
 20
338.8557513874709
 30
0.0
 10
280.0135935913897
 20
342.1281660259504
 30
0.0
 10
278.6458941076879
 20
343.8766880532621
 30
0.0
 10
276.075979507881
 20
347.587002256756
 30
0.0
 10
274.8738747207298
 20
349.5488217215266
 30
0.0
 10
272.6796378401573
 20
353.6630158726253
 30
0.0
 10
271.6876302986428
 20
355.8153775116392
 30
0.0
 10
269.9538628934565
 20
360.2762165645938
 30
0.0
 10
269.2122242228455
 20
362.5846337171108
 30
0.0
 10
268.0114962541156
 20
367.3125000940136
 30
0.0
 10
267.552503994513
 20
369.731843944984
 30
0.0
 10
266.938041923277
 20
374.6283385751762
 30
0.0
 10
266.7826262236186
 20
377.1053512960731
 30
0.0
 10
266.7826262236186
 20
382.0595267530211
 30
0.0
 10
266.938041923277
 20
384.5365394739181
 30
0.0
 10
267.552503994513
 20
389.4330341041103
 30
0.0
 10
268.0114962541156
 20
391.8523779550807
 30
0.0
 10
269.2122242228455
 20
396.5802443319835
 30
0.0
 10
269.9538628934565
 20
398.8886614845005
 30
0.0
 10
271.6876302986428
 20
403.3495005374551
 30
0.0
 10
272.6796378401573
 20
405.501862176469
 30
0.0
 10
274.8738747207298
 20
409.6160563275677
 30
0.0
 10
276.075979507881
 20
411.5778757923383
 30
0.0
 10
278.6458941076878
 20
415.2881899958322
 30
0.0
 10
280.0135935913897
 20
417.036712023144
 30
0.0
 10
282.8695190940451
 20
420.3091266616233
 30
0.0
 10
284.3576601842365
 20
421.8330745925878
 30
0.0
 10
287.4115944750345
 20
424.6552370845478
 30
0.0
 10
288.9773322706097
 20
425.9535213015807
 30
0.0
 10
293.7333407092506
 20
429.5205276305831
 30
0.0
 10
296.979266933123
 20
431.4596172976309
 30
0.0
 10
303.3838568433409
 20
434.5818548788814
 30
0.0
 10
306.5428567706569
 20
435.7667520467032
 30
0.0
 10
312.6305475721173
 20
437.5423285304734
 30
0.0
 10
315.5600511154415
 20
438.1339721562677
 30
0.0
 10
321.1221984527718
 20
438.8789026032362
 30
0.0
 10
323.7556439781715
 20
439.0325445079233
 30
0.0
 10
326.2327317066304
 20
439.0325445079233
 30
0.0
  0
SPLINE
  5
EE
330
1F
100
AcDbEntity
  8
0
  6
Continuous
 62
     7
370
    25
100
AcDbSpline
210
0.0
220
0.0
230
1.0
 70
     8
 71
     3
 72
    18
 73
    14
 74
     0
 42
0.00000001
 43
0.00000001
 40
0.0
 40
0.0
 40
0.0
 40
0.0
 40
0.1666666666666666
 40
0.1666666666666666
 40
0.3333333333333333
 40
0.3333333333333333
 40
0.4999999999999999
 40
0.4999999999999999
 40
0.6666666666666665
 40
0.6666666666666665
 40
0.8333333333333333
 40
0.8333333333333333
 40
0.9999999999999999
 40
0.9999999999999999
 40
0.9999999999999999
 40
0.9999999999999999
 10
326.2327317066304
 20
320.5824390245471
 30
0.0
 10
336.5890753481445
 20
320.5824390245471
 30
0.0
 10
346.7638750266049
 20
323.3087683819118
 30
0.0
 10
364.7015883936423
 20
333.6651120246524
 30
0.0
 10
372.1500587144152
 20
341.1135823469529
 30
0.0
 10
382.5064023534767
 20
359.0512957161145
 30
0.0
 10
385.2327317087545
 20
369.2260953951341
 30
0.0
 10
385.2327317045063
 20
389.9387826781624
 30
0.0
 10
382.5064023450546
 20
400.1135823560637
 30
0.0
 10
372.1500586986351
 20
418.0512957209769
 30
0.0
 10
364.7015883748068
 20
425.499766040222
 30
0.0
 10
346.7638750035211
 20
435.8561096756044
 30
0.0
 10
336.5890753239423
 20
438.5824390287954
 30
0.0
 10
326.2327316824282
 20
438.5824390245471
 30
0.0
  0
SPLINE
  5
EF
330
1F
100
AcDbEntity
  8
0
  6
Continuous
 62
     7
370
    25
100
AcDbSpline
210
0.0
220
0.0
230
1.0
 70
     8
 71
     3
 72
    14
 73
    10
 74
     0
 42
0.00000001
 43
0.00000001
 40
0.0
 40
0.0
 40
0.0
 40
0.0
 40
0.25
 40
0.25
 40
0.5000000000000001
 40
0.5000000000000001
 40
0.75
 40
0.75
 40
1.0
 40
1.0
 40
1.0
 40
1.0
 10
326.2327316824282
 20
438.5824390245471
 30
0.0
 10
310.5854016294562
 20
438.5824390181285
 30
0.0
 10
295.5777647906752
 20
432.3660722944192
 30
0.0
 10
273.4490984206487
 20
410.2374059127635
 30
0.0
 10
267.2327317048261
 20
395.2297690707157
 30
0.0
 10
267.2327317084347
 20
363.9351089647719
 30
0.0
 10
273.4490984277184
 20
348.9274721241577
 30
0.0
 10
295.5777648028483
 20
326.7988057476055
 30
0.0
 10
310.5854016430629
 20
320.5824390273572
 30
0.0
 10
326.2327316960348
 20
320.5824390245471
 30
0.0
  0
SPLINE
  5
F0
330
1F
100
AcDbEntity
  8
0
  6
Continuous
 62
     7
370
    25
100
AcDbSpline
210
0.0
220
0.0
230
1.0
 70
     8
 71
     3
 72
    14
 73
    10
 74
     0
 42
0.00000001
 43
0.00000001
 40
0.0
 40
0.0
 40
0.0
 40
0.0
 40
0.25
 40
0.25
 40
0.5000000000000001
 40
0.5000000000000001
 40
0.75
 40
0.75
 40
1.0
 40
1.0
 40
1.0
 40
1.0
 10
326.2327316877609
 20
425.5824390245472
 30
0.0
 10
314.0331184261217
 20
425.5824390195427
 30
0.0
 10
302.3322490263942
 20
420.7357802180066
 30
0.0
 10
285.0793905006108
 20
403.4829216831565
 30
0.0
 10
280.2327317052236
 20
391.7820522808821
 30
0.0
 10
280.2327317080371
 20
367.3828257576037
 30
0.0
 10
285.0793905061227
 20
355.681956356447
 30
0.0
 10
302.332249035885
 20
338.4290978255757
 30
0.0
 10
314.0331184367303
 20
333.582439026738
 30
0.0
 10
326.2327316983694
 20
333.5824390245472
 30
0.0
  0
SPLINE
  5
F1
330
1F
100
AcDbEntity
  8
0
  6
Continuous
 62
     7
370
    25
100
AcDbSpline
210
0.0
220
0.0
230
1.0
 70
     8
 71
     3
 72
    12
 73
     8
 74
     0
 42
0.00000001
 43
0.00000001
 40
0.0
 40
0.0
 40
0.0
 40
0.0
 40
0.3333333333333333
 40
0.3333333333333333
 40
0.6666666666666665
 40
0.6666666666666665
 40
0.9999999999999999
 40
0.9999999999999999
 40
0.9999999999999999
 40
0.9999999999999999
 10
326.2327317066304
 20
333.5824390245472
 30
0.0
 10
342.664549512751
 20
333.5824390245472
 30
0.0
 10
357.8539913827449
 20
342.3520673784129
 30
0.0
 10
374.285809184974
 20
370.8128106815756
 30
0.0
 10
374.2858091813766
 20
388.3520673872302
 30
0.0
 10
357.8539913674728
 20
416.8128106836526
 30
0.0
 10
342.6645494938815
 20
425.5824390312875
 30
0.0
 10
326.2327316877609
 20
425.5824390245472
 30
0.0
  0
LINE
  5
F2
330
1F
100
AcDbEntity
  8
0
  6
Continuous
 62
     8
370
    25
100
AcDbLine
 10
349.2327317066
 20
474.7705625307
 30
0.0
 11
349.2327317066
 21
476.8702904553
 31
0.0
  0
LINE
  5
F3
330
1F
100
AcDbEntity
  8
0
  6
Continuous
 62
     8
370
    25
100
AcDbLine
 10
303.2327317066
 20
476.8702904553
 30
0.0
 11
303.2327317066
 21
474.7705625307
 31
0.0
  0
ENDSEC
  0
SECTION
  2
OBJECTS
  0
DICTIONARY
  5
C
330
0
100
AcDbDictionary
281
     1
  3
ACAD_DETAILVIEWSTYLE
350
FB
  3
ACAD_GROUP
350
D
  3
ACAD_LAYOUT
350
1A
  3
ACAD_MATERIAL
350
43
  3
ACAD_MLEADERSTYLE
350
6B
  3
ACAD_MLINESTYLE
350
17
  3
ACAD_PLOTSETTINGS
350
19
  3
ACAD_PLOTSTYLENAME
350
E
  3
ACAD_SCALELIST
350
47
  3
ACAD_SECTIONVIEWSTYLE
350
FC
  3
ACAD_TABLESTYLE
350
69
  3
ACAD_VISUALSTYLE
350
2A
  3
ACDB_RECOMPOSE_DATA
350
F8
  3
AcDbVariableDictionary
350
F4
  0
SUN
  5
6D
330
29
100
AcDbSun
 90
        1
290
     0
 63
     7
421
 16777215
 40
1.0
291
     1
 91
  2455826
 92
 54000000
292
     0
 70
     2
 71
   256
280
     1
  0
DICTIONARY
  5
FB
102
{ACAD_REACTORS
330
C
102
}
330
C
100
AcDbDictionary
281
     1
  0
DICTIONARY
  5
D
102
{ACAD_REACTORS
330
C
102
}
330
C
100
AcDbDictionary
281
     1
  0
DICTIONARY
  5
1A
102
{ACAD_REACTORS
330
C
102
}
330
C
100
AcDbDictionary
281
     1
  3
Layout1
350
1E
  3
Layout2
350
26
  3
Model
350
22
  0
DICTIONARY
  5
43
102
{ACAD_REACTORS
330
C
102
}
330
C
100
AcDbDictionary
281
     1
  3
ByBlock
350
45
  3
ByLayer
350
44
  3
Global
350
46
  0
DICTIONARY
  5
6B
102
{ACAD_REACTORS
330
C
102
}
330
C
100
AcDbDictionary
281
     1
  3
Standard
350
6C
  0
DICTIONARY
  5
17
102
{ACAD_REACTORS
330
C
102
}
330
C
100
AcDbDictionary
281
     1
  3
Standard
350
18
  0
DICTIONARY
  5
19
102
{ACAD_REACTORS
330
C
102
}
330
C
100
AcDbDictionary
281
     1
  0
ACDBDICTIONARYWDFLT
  5
E
102
{ACAD_REACTORS
330
C
102
}
330
C
100
AcDbDictionary
281
     1
  3
Normal
350
F
100
AcDbDictionaryWithDefault
340
F
  0
DICTIONARY
  5
47
102
{ACAD_REACTORS
330
C
102
}
330
C
100
AcDbDictionary
281
     1
  3
A0
350
48
  3
A1
350
49
  3
A2
350
4A
  3
A3
350
4B
  3
A4
350
4C
  3
A5
350
4D
  3
A6
350
4E
  3
A7
350
4F
  3
A8
350
50
  3
A9
350
51
  3
B0
350
52
  3
B1
350
53
  3
B2
350
54
  3
B3
350
55
  3
B4
350
56
  3
B5
350
57
  3
B6
350
58
  3
B7
350
59
  3
B8
350
5A
  3
B9
350
5B
  3
C0
350
5C
  3
C1
350
5D
  3
C2
350
5E
  3
C3
350
5F
  3
C4
350
60
  3
C5
350
61
  3
C6
350
62
  3
C7
350
63
  3
C8
350
64
  3
C9
350
65
  3
D0
350
66
  3
D1
350
67
  3
D2
350
68
  0
DICTIONARY
  5
FC
102
{ACAD_REACTORS
330
C
102
}
330
C
100
AcDbDictionary
281
     1
  0
DICTIONARY
  5
69
102
{ACAD_REACTORS
330
C
102
}
330
C
100
AcDbDictionary
281
     1
  3
Standard
350
6A
  0
DICTIONARY
  5
2A
102
{ACAD_REACTORS
330
C
102
}
330
C
100
AcDbDictionary
281
     1
  3
2dWireframe
350
2F
  3
Basic
350
32
  3
Brighten
350
36
  3
ColorChange
350
3A
  3
Conceptual
350
34
  3
Dim
350
35
  3
EdgeColorOff
350
3D
  3
Facepattern
350
39
  3
Flat
350
2B
  3
FlatWithEdges
350
2C
  3
Gouraud
350
2D
  3
GouraudWithEdges
350
2E
  3
Hidden
350
31
  3
JitterOff
350
3B
  3
Linepattern
350
38
  3
OverhangOff
350
3C
  3
Realistic
350
33
  3
Shaded
350
42
  3
Shaded with edges
350
41
  3
Shades of Gray
350
3E
  3
Sketchy
350
3F
  3
Thicken
350
37
  3
Wireframe
350
30
  3
X-Ray
350
40
  0
XRECORD
  5
F8
102
{ACAD_REACTORS
330
C
102
}
330
C
100
AcDbXrecord
280
     1
 90
        1
330
6A
  0
DICTIONARY
  5
F4
102
{ACAD_REACTORS
330
C
102
}
330
C
100
AcDbDictionary
281
     1
  3
CANNOSCALE
350
F5
  3
CENTEREXE
350
FD
  3
CENTERLTYPEFILE
350
FE
  3
CMLEADERSTYLE
350
FA
  3
CTABLESTYLE
350
F9
  0
LAYOUT
  5
1E
102
{ACAD_REACTORS
330
1A
102
}
330
1A
100
AcDbPlotSettings
  1

  2
none_device
  4

  6

 40
0.0
 41
0.0
 42
0.0
 43
0.0
 44
0.0
 45
0.0
 46
0.0
 47
0.0
 48
0.0
 49
0.0
140
0.0
141
0.0
142
1.0
143
1.0
 70
   688
 72
     1
 73
     0
 74
     5
  7

 75
    16
 76
     0
 77
     2
 78
   300
147
1.0
148
0.0
149
0.0
100
AcDbLayout
  1
Layout1
 70
     1
 71
     1
 10
0.0
 20
0.0
 11
420.0
 21
297.0
 12
0.0
 22
0.0
 32
0.0
 14
1.0000000000E+20
 24
1.0000000000E+20
 34
1.0000000000E+20
 15
-1.0000000000E+20
 25
-1.0000000000E+20
 35
-1.0000000000E+20
146
0.0
 13
0.0
 23
0.0
 33
0.0
 16
1.0
 26
0.0
 36
0.0
 17
0.0
 27
1.0
 37
0.0
 76
     0
330
1B
  0
LAYOUT
  5
26
102
{ACAD_REACTORS
330
1A
102
}
330
1A
100
AcDbPlotSettings
  1

  2
none_device
  4

  6

 40
0.0
 41
0.0
 42
0.0
 43
0.0
 44
0.0
 45
0.0
 46
0.0
 47
0.0
 48
0.0
 49
0.0
140
0.0
141
0.0
142
1.0
143
1.0
 70
   688
 72
     1
 73
     0
 74
     5
  7

 75
    16
 76
     0
 77
     2
 78
   300
147
1.0
148
0.0
149
0.0
100
AcDbLayout
  1
Layout2
 70
     1
 71
     2
 10
0.0
 20
0.0
 11
0.0
 21
0.0
 12
0.0
 22
0.0
 32
0.0
 14
0.0
 24
0.0
 34
0.0
 15
0.0
 25
0.0
 35
0.0
146
0.0
 13
0.0
 23
0.0
 33
0.0
 16
1.0
 26
0.0
 36
0.0
 17
0.0
 27
1.0
 37
0.0
 76
     0
330
23
  0
LAYOUT
  5
22
102
{ACAD_REACTORS
330
1A
102
}
330
1A
100
AcDbPlotSettings
  1

  2
none_device
  4
Letter_(8.50_x_11.00_Inches)
  6

 40
6.35
 41
6.35
 42
6.35000508
 43
6.35000508
 44
215.9
 45
279.4
 46
0.0
 47
0.0
 48
0.0
 49
0.0
140
0.0
141
0.0
142
1.0
143
1.0
 70
  1712
 72
     1
 73
     0
 74
     0
  7

 75
     0
 76
     0
 77
     2
 78
   300
147
1.0
148
0.0
149
0.0
100
AcDbLayout
  1
Model
 70
     1
 71
     0
 10
0.0
 20
0.0
 11
650.0
 21
550.0
 12
0.0
 22
0.0
 32
0.0
 14
0.0
 24
0.0
 34
0.0
 15
650.0
 25
550.0
 35
0.0
146
0.0
 13
0.0
 23
0.0
 33
0.0
 16
1.0
 26
0.0
 36
0.0
 17
0.0
 27
1.0
 37
0.0
 76
     0
330
1F
331
29
  0
MATERIAL
  5
45
102
{ACAD_REACTORS
330
43
102
}
330
43
100
AcDbMaterial
  1
ByBlock
 72
     1
 94
      127
  0
MATERIAL
  5
44
102
{ACAD_REACTORS
330
43
102
}
330
43
100
AcDbMaterial
  1
ByLayer
 72
     1
 94
      127
  0
MATERIAL
  5
46
102
{ACAD_REACTORS
330
43
102
}
330
43
100
AcDbMaterial
  1
Global
 72
     1
 94
      127
  0
MLEADERSTYLE
  5
6C
102
{ACAD_REACTORS
330
6B
102
}
330
6B
100
AcDbMLeaderStyle
179
     2
170
     2
171
     1
172
     0
 90
        2
 40
0.0
 41
0.0
173
     1
 91
-1056964608
340
14
 92
       -2
290
     1
 42
2.0
291
     1
 43
8.0
  3
Standard
341
0
 44
4.0
300

342
11
174
     1
178
     6
175
     1
176
     0
 93
-1056964608
 45
4.0
292
     0
297
     0
 46
4.0
343
0
 94
-1056964608
 47
1.0
 49
1.0
140
1.0
293
     1
141
0.0
294
     1
177
     0
142
1.0
295
     0
296
     0
143
3.75
271
     0
272
     9
273
     9
298
     0
  0
MLINESTYLE
  5
18
102
{ACAD_REACTORS
330
17
102
}
330
17
100
AcDbMlineStyle
  2
Standard
 70
     0
  3

 62
   256
 51
90.0
 52
90.0
 71
     2
 49
0.5
 62
   256
  6
BYLAYER
 49
-0.5
 62
   256
  6
BYLAYER
  0
ACDBPLACEHOLDER
  5
F
102
{ACAD_REACTORS
330
E
102
}
330
E
  0
SCALE
  5
48
102
{ACAD_REACTORS
330
47
102
}
330
47
100
AcDbScale
 70
     0
300
1:1
140
1.0
141
1.0
290
     1
  0
SCALE
  5
49
102
{ACAD_REACTORS
330
47
102
}
330
47
100
AcDbScale
 70
     0
300
1:2
140
1.0
141
2.0
290
     0
  0
SCALE
  5
4A
102
{ACAD_REACTORS
330
47
102
}
330
47
100
AcDbScale
 70
     0
300
1:4
140
1.0
141
4.0
290
     0
  0
SCALE
  5
4B
102
{ACAD_REACTORS
330
47
102
}
330
47
100
AcDbScale
 70
     0
300
1:5
140
1.0
141
5.0
290
     0
  0
SCALE
  5
4C
102
{ACAD_REACTORS
330
47
102
}
330
47
100
AcDbScale
 70
     0
300
1:8
140
1.0
141
8.0
290
     0
  0
SCALE
  5
4D
102
{ACAD_REACTORS
330
47
102
}
330
47
100
AcDbScale
 70
     0
300
1:10
140
1.0
141
10.0
290
     0
  0
SCALE
  5
4E
102
{ACAD_REACTORS
330
47
102
}
330
47
100
AcDbScale
 70
     0
300
1:16
140
1.0
141
16.0
290
     0
  0
SCALE
  5
4F
102
{ACAD_REACTORS
330
47
102
}
330
47
100
AcDbScale
 70
     0
300
1:20
140
1.0
141
20.0
290
     0
  0
SCALE
  5
50
102
{ACAD_REACTORS
330
47
102
}
330
47
100
AcDbScale
 70
     0
300
1:30
140
1.0
141
30.0
290
     0
  0
SCALE
  5
51
102
{ACAD_REACTORS
330
47
102
}
330
47
100
AcDbScale
 70
     0
300
1:40
140
1.0
141
40.0
290
     0
  0
SCALE
  5
52
102
{ACAD_REACTORS
330
47
102
}
330
47
100
AcDbScale
 70
     0
300
1:50
140
1.0
141
50.0
290
     0
  0
SCALE
  5
53
102
{ACAD_REACTORS
330
47
102
}
330
47
100
AcDbScale
 70
     0
300
1:100
140
1.0
141
100.0
290
     0
  0
SCALE
  5
54
102
{ACAD_REACTORS
330
47
102
}
330
47
100
AcDbScale
 70
     0
300
2:1
140
2.0
141
1.0
290
     0
  0
SCALE
  5
55
102
{ACAD_REACTORS
330
47
102
}
330
47
100
AcDbScale
 70
     0
300
4:1
140
4.0
141
1.0
290
     0
  0
SCALE
  5
56
102
{ACAD_REACTORS
330
47
102
}
330
47
100
AcDbScale
 70
     0
300
8:1
140
8.0
141
1.0
290
     0
  0
SCALE
  5
57
102
{ACAD_REACTORS
330
47
102
}
330
47
100
AcDbScale
 70
     0
300
10:1
140
10.0
141
1.0
290
     0
  0
SCALE
  5
58
102
{ACAD_REACTORS
330
47
102
}
330
47
100
AcDbScale
 70
     0
300
100:1
140
100.0
141
1.0
290
     0
  0
SCALE
  5
59
102
{ACAD_REACTORS
330
47
102
}
330
47
100
AcDbScale
 70
     0
300
1/128" = 1'-0"
140
0.0078125
141
12.0
290
     0
  0
SCALE
  5
5A
102
{ACAD_REACTORS
330
47
102
}
330
47
100
AcDbScale
 70
     0
300
1/64" = 1'-0"
140
0.015625
141
12.0
290
     0
  0
SCALE
  5
5B
102
{ACAD_REACTORS
330
47
102
}
330
47
100
AcDbScale
 70
     0
300
1/32" = 1'-0"
140
0.03125
141
12.0
290
     0
  0
SCALE
  5
5C
102
{ACAD_REACTORS
330
47
102
}
330
47
100
AcDbScale
 70
     0
300
1/16" = 1'-0"
140
0.0625
141
12.0
290
     0
  0
SCALE
  5
5D
102
{ACAD_REACTORS
330
47
102
}
330
47
100
AcDbScale
 70
     0
300
3/32" = 1'-0"
140
0.09375
141
12.0
290
     0
  0
SCALE
  5
5E
102
{ACAD_REACTORS
330
47
102
}
330
47
100
AcDbScale
 70
     0
300
1/8" = 1'-0"
140
0.125
141
12.0
290
     0
  0
SCALE
  5
5F
102
{ACAD_REACTORS
330
47
102
}
330
47
100
AcDbScale
 70
     0
300
3/16" = 1'-0"
140
0.1875
141
12.0
290
     0
  0
SCALE
  5
60
102
{ACAD_REACTORS
330
47
102
}
330
47
100
AcDbScale
 70
     0
300
1/4" = 1'-0"
140
0.25
141
12.0
290
     0
  0
SCALE
  5
61
102
{ACAD_REACTORS
330
47
102
}
330
47
100
AcDbScale
 70
     0
300
3/8" = 1'-0"
140
0.375
141
12.0
290
     0
  0
SCALE
  5
62
102
{ACAD_REACTORS
330
47
102
}
330
47
100
AcDbScale
 70
     0
300
1/2" = 1'-0"
140
0.5
141
12.0
290
     0
  0
SCALE
  5
63
102
{ACAD_REACTORS
330
47
102
}
330
47
100
AcDbScale
 70
     0
300
3/4" = 1'-0"
140
0.75
141
12.0
290
     0
  0
SCALE
  5
64
102
{ACAD_REACTORS
330
47
102
}
330
47
100
AcDbScale
 70
     0
300
1" = 1'-0"
140
1.0
141
12.0
290
     0
  0
SCALE
  5
65
102
{ACAD_REACTORS
330
47
102
}
330
47
100
AcDbScale
 70
     0
300
1-1/2" = 1'-0"
140
1.5
141
12.0
290
     0
  0
SCALE
  5
66
102
{ACAD_REACTORS
330
47
102
}
330
47
100
AcDbScale
 70
     0
300
3" = 1'-0"
140
3.0
141
12.0
290
     0
  0
SCALE
  5
67
102
{ACAD_REACTORS
330
47
102
}
330
47
100
AcDbScale
 70
     0
300
6" = 1'-0"
140
6.0
141
12.0
290
     0
  0
SCALE
  5
68
102
{ACAD_REACTORS
330
47
102
}
330
47
100
AcDbScale
 70
     0
300
1'-0" = 1'-0"
140
12.0
141
12.0
290
     0
  0
TABLESTYLE
  5
6A
102
{ACAD_REACTORS
330
69
102
}
102
{ACAD_XDICTIONARY
360
F6
102
}
330
69
100
AcDbTableStyle
  3
Standard
 70
     0
 71
     0
 40
0.06
 41
0.06
280
     0
281
     0
  7
Standard
140
4.5
170
     2
 62
     0
 63
   257
283
     0
 90
        4
 91
        0
  1

274
    -2
284
     1
 64
     0
275
    -2
285
     1
 65
     0
276
    -2
286
     1
 66
     0
277
    -2
287
     1
 67
     0
278
    -2
288
     1
 68
     0
279
    -2
289
     1
 69
     0
  7
Standard
140
6.0
170
     5
 62
     0
 63
   257
283
     0
 90
        4
 91
        0
  1

274
    -2
284
     1
 64
     0
275
    -2
285
     1
 65
     0
276
    -2
286
     1
 66
     0
277
    -2
287
     1
 67
     0
278
    -2
288
     1
 68
     0
279
    -2
289
     1
 69
     0
  7
Standard
140
4.5
170
     5
 62
     0
 63
   257
283
     0
 90
        4
 91
        0
  1

274
    -2
284
     1
 64
     0
275
    -2
285
     1
 65
     0
276
    -2
286
     1
 66
     0
277
    -2
287
     1
 67
     0
278
    -2
288
     1
 68
     0
279
    -2
289
     1
 69
     0
  0
VISUALSTYLE
  5
2F
102
{ACAD_REACTORS
330
2A
102
}
330
2A
100
AcDbVisualStyle
  2
2dWireframe
 70
     4
177
     3
291
     0
 70
    58
 90
        0
176
     1
 90
        2
176
     1
 90
        0
176
     1
 90
        0
176
     1
 40
0.6
176
     1
 40
30.0
176
     1
 62
     7
420
 16777215
176
     1
 90
        1
176
     1
 90
        4
176
     1
 62
     7
176
     1
 62
   257
176
     1
 90
        1
176
     1
 90
        1
176
     1
 40
1.0
176
     1
 90
        0
176
     1
 62
   257
176
     1
 40
1.0
176
     1
 90
        1
176
     1
 90
        6
176
     1
 90
        2
176
     1
 62
     7
176
     1
 90
        5
176
     1
 90
        0
176
     1
 90
        0
176
     1
290
     0
176
     1
 90
        1
176
     1
 40
0.0
176
     1
 90
        0
176
     1
290
     1
176
     1
290
     1
176
     1
290
     0
176
     1
290
     0
176
     1
290
     0
176
     1
290
     0
176
     1
290
     0
176
     1
290
     0
176
     1
290
     0
176
     1
 90
       50
176
     1
 40
0.0
176
     1
 40
1.0
176
     1
 90
        0
176
     1
 62
    18
420
        0
176
     1
 90
       50
176
     1
 90
        3
176
     1
 62
     5
420
      255
176
     1
290
     0
176
     1
 90
       50
176
     1
 90
       50
176
     1
 90
       50
176
     1
290
     0
176
     1
 90
       50
176
     1
 62
   256
176
     0
 40
1.0
176
     0
 90
        2
176
     1
  1
strokes_ogs.tif
176
     1
290
     0
176
     1
 40
1.0
176
     1
 40
1.0
176
     1
  0
VISUALSTYLE
  5
32
102
{ACAD_REACTORS
330
2A
102
}
330
2A
100
AcDbVisualStyle
  2
Basic
 70
     7
177
     3
291
     1
 70
    58
 90
        1
176
     1
 90
        0
176
     1
 90
        1
176
     1
 90
        0
176
     1
 40
0.6
176
     1
 40
30.0
176
     1
 62
     7
420
 16777215
176
     1
 90
        0
176
     1
 90
        4
176
     1
 62
     7
176
     1
 62
   257
176
     1
 90
        1
176
     1
 90
        1
176
     1
 40
1.0
176
     1
 90
        8
176
     1
 62
     7
176
     1
 40
1.0
176
     1
 90
        1
176
     1
 90
        6
176
     1
 90
        2
176
     1
 62
     7
176
     1
 90
        5
176
     1
 90
        0
176
     1
 90
        0
176
     1
290
     0
176
     1
 90
        1
176
     1
 40
0.0
176
     1
 90
        0
176
     1
290
     0
176
     1
290
     1
176
     1
290
     1
176
     1
290
     0
176
     1
290
     0
176
     1
290
     0
176
     1
290
     0
176
     1
290
     0
176
     1
290
     0
176
     1
 90
       50
176
     1
 40
0.0
176
     1
 40
1.0
176
     1
 90
        0
176
     1
 62
    18
420
        0
176
     1
 90
       50
176
     1
 90
        3
176
     1
 62
     5
420
      255
176
     1
290
     0
176
     1
 90
       50
176
     1
 90
       50
176
     1
 90
       50
176
     1
290
     0
176
     1
 90
       50
176
     1
 62
   256
176
     0
 40
1.0
176
     0
 90
        2
176
     1
  1
strokes_ogs.tif
176
     1
290
     0
176
     1
 40
1.0
176
     1
 40
1.0
176
     1
  0
VISUALSTYLE
  5
36
102
{ACAD_REACTORS
330
2A
102
}
330
2A
100
AcDbVisualStyle
  2
Brighten
 70
    12
177
     3
291
     1
 70
    58
 90
        2
176
     1
 90
        2
176
     1
 90
        0
176
     1
 90
        0
176
     1
 40
0.6
176
     1
 40
30.0
176
     1
 62
     7
420
 16777215
176
     1
 90
        1
176
     1
 90
        4
176
     1
 62
     7
176
     1
 62
   257
176
     1
 90
        1
176
     1
 90
        1
176
     1
 40
1.0
176
     1
 90
        8
176
     1
 62
     7
176
     1
 40
1.0
176
     1
 90
        1
176
     1
 90
        6
176
     1
 90
        2
176
     1
 62
     7
176
     1
 90
        5
176
     1
 90
        0
176
     1
 90
        0
176
     1
290
     0
176
     1
 90
        1
176
     1
 40
50.0
176
     1
 90
        0
176
     1
290
     0
176
     1
290
     1
176
     1
290
     1
176
     1
290
     0
176
     1
290
     0
176
     1
290
     0
176
     1
290
     0
176
     1
290
     0
176
     1
290
     0
176
     1
 90
       50
176
     1
 40
0.0
176
     1
 40
1.0
176
     1
 90
        0
176
     1
 62
    18
420
        0
176
     1
 90
       50
176
     1
 90
        3
176
     1
 62
     5
420
      255
176
     1
290
     0
176
     1
 90
       50
176
     1
 90
       50
176
     1
 90
       50
176
     1
290
     0
176
     1
 90
       50
176
     1
 62
   256
176
     0
 40
1.0
176
     0
 90
        2
176
     1
  1
strokes_ogs.tif
176
     1
290
     0
176
     1
 40
1.0
176
     1
 40
1.0
176
     1
  0
VISUALSTYLE
  5
3A
102
{ACAD_REACTORS
330
2A
102
}
330
2A
100
AcDbVisualStyle
  2
ColorChange
 70
    16
177
     3
291
     1
 70
    58
 90
        2
176
     1
 90
        2
176
     1
 90
        3
176
     1
 90
        0
176
     1
 40
0.6
176
     1
 40
30.0
176
     1
 62
     8
420
  8421504
176
     1
 90
        1
176
     1
 90
        4
176
     1
 62
     7
176
     1
 62
   257
176
     1
 90
        1
176
     1
 90
        1
176
     1
 40
1.0
176
     1
 90
        8
176
     1
 62
     8
420
  8421504
176
     1
 40
1.0
176
     1
 90
        1
176
     1
 90
        6
176
     1
 90
        2
176
     1
 62
     7
176
     1
 90
        5
176
     1
 90
        0
176
     1
 90
        0
176
     1
290
     0
176
     1
 90
        1
176
     1
 40
0.0
176
     1
 90
        0
176
     1
290
     0
176
     1
290
     1
176
     1
290
     1
176
     1
290
     0
176
     1
290
     0
176
     1
290
     0
176
     1
290
     0
176
     1
290
     0
176
     1
290
     0
176
     1
 90
       50
176
     1
 40
0.0
176
     1
 40
1.0
176
     1
 90
        0
176
     1
 62
    18
420
        0
176
     1
 90
       50
176
     1
 90
        3
176
     1
 62
     5
420
      255
176
     1
290
     0
176
     1
 90
       50
176
     1
 90
       50
176
     1
 90
       50
176
     1
290
     0
176
     1
 90
       50
176
     1
 62
   256
176
     0
 40
1.0
176
     0
 90
        2
176
     1
  1
strokes_ogs.tif
176
     1
290
     0
176
     1
 40
1.0
176
     1
 40
1.0
176
     1
  0
VISUALSTYLE
  5
34
102
{ACAD_REACTORS
330
2A
102
}
330
2A
100
AcDbVisualStyle
  2
Conceptual
 70
     9
177
     3
291
     0
 70
    58
 90
        3
176
     1
 90
        2
176
     1
 90
        0
176
     1
 90
        0
176
     1
 40
0.6
176
     1
 40
30.0
176
     1
 62
     7
420
 16777215
176
     1
 90
        2
176
     1
 90
        2
176
     1
 62
     7
176
     1
 62
   257
176
     1
 90
        1
176
     1
 90
        1
176
     1
 40
179.0
176
     1
 90
        8
176
     1
 62
     7
176
     1
 40
1.0
176
     1
 90
        1
176
     1
 90
        6
176
     1
 90
        2
176
     1
 62
     7
176
     1
 90
        3
176
     1
 90
        0
176
     1
 90
        0
176
     1
290
     0
176
     1
 90
        1
176
     1
 40
0.0
176
     1
 90
        0
176
     1
290
     0
176
     1
290
     1
176
     1
290
     1
176
     1
290
     0
176
     1
290
     0
176
     1
290
     0
176
     1
290
     0
176
     1
290
     0
176
     1
290
     0
176
     1
 90
       50
176
     1
 40
0.0
176
     1
 40
1.0
176
     1
 90
        0
176
     1
 62
    18
420
        0
176
     1
 90
       50
176
     1
 90
        3
176
     1
 62
     5
420
      255
176
     1
290
     0
176
     1
 90
       50
176
     1
 90
       50
176
     1
 90
       50
176
     1
290
     0
176
     1
 90
       50
176
     1
 62
   256
176
     0
 40
1.0
176
     0
 90
        2
176
     1
  1
strokes_ogs.tif
176
     1
290
     0
176
     1
 40
1.0
176
     1
 40
1.0
176
     1
  0
VISUALSTYLE
  5
35
102
{ACAD_REACTORS
330
2A
102
}
330
2A
100
AcDbVisualStyle
  2
Dim
 70
    11
177
     3
291
     1
 70
    58
 90
        2
176
     1
 90
        2
176
     1
 90
        0
176
     1
 90
        0
176
     1
 40
0.6
176
     1
 40
30.0
176
     1
 62
     7
420
 16777215
176
     1
 90
        1
176
     1
 90
        4
176
     1
 62
     7
176
     1
 62
   257
176
     1
 90
        1
176
     1
 90
        1
176
     1
 40
1.0
176
     1
 90
        8
176
     1
 62
     7
176
     1
 40
1.0
176
     1
 90
        1
176
     1
 90
        6
176
     1
 90
        2
176
     1
 62
     7
176
     1
 90
        5
176
     1
 90
        0
176
     1
 90
        0
176
     1
290
     0
176
     1
 90
        1
176
     1
 40
-50.0
176
     1
 90
        0
176
     1
290
     0
176
     1
290
     1
176
     1
290
     1
176
     1
290
     0
176
     1
290
     0
176
     1
290
     0
176
     1
290
     0
176
     1
290
     0
176
     1
290
     0
176
     1
 90
       50
176
     1
 40
0.0
176
     1
 40
1.0
176
     1
 90
        0
176
     1
 62
    18
420
        0
176
     1
 90
       50
176
     1
 90
        3
176
     1
 62
     5
420
      255
176
     1
290
     0
176
     1
 90
       50
176
     1
 90
       50
176
     1
 90
       50
176
     1
290
     0
176
     1
 90
       50
176
     1
 62
   256
176
     0
 40
1.0
176
     0
 90
        2
176
     1
  1
strokes_ogs.tif
176
     1
290
     0
176
     1
 40
1.0
176
     1
 40
1.0
176
     1
  0
VISUALSTYLE
  5
3D
102
{ACAD_REACTORS
330
2A
102
}
330
2A
100
AcDbVisualStyle
  2
EdgeColorOff
 70
    22
177
     3
291
     1
 70
    58
 90
        2
176
     0
 90
        2
176
     0
 90
        0
176
     0
 90
        0
176
     0
 40
0.6
176
     0
 40
30.0
176
     0
 62
     7
420
 16777215
176
     0
 90
        1
176
     0
 90
        4
176
     0
 62
     7
176
     0
 62
   257
176
     0
 90
        1
176
     0
 90
        1
176
     0
 40
1.0
176
     0
 90
        8
176
     2
 62
     7
176
     0
 40
1.0
176
     0
 90
        1
176
     0
 90
        6
176
     0
 90
        2
176
     0
 62
     7
176
     0
 90
        5
176
     0
 90
        0
176
     0
 90
        0
176
     0
290
     0
176
     0
 90
        1
176
     0
 40
0.0
176
     0
 90
        0
176
     0
290
     0
176
     0
290
     1
176
     0
290
     1
176
     0
290
     0
176
     0
290
     0
176
     0
290
     0
176
     0
290
     0
176
     0
290
     0
176
     0
290
     0
176
     0
 90
       50
176
     0
 40
0.0
176
     0
 40
1.0
176
     0
 90
        0
176
     0
 62
    18
420
        0
176
     0
 90
       50
176
     0
 90
        3
176
     0
 62
     5
420
      255
176
     0
290
     0
176
     0
 90
       50
176
     0
 90
       50
176
     0
 90
       50
176
     0
290
     0
176
     0
 90
       50
176
     0
 62
   256
176
     0
 40
1.0
176
     0
 90
        2
176
     0
  1
strokes_ogs.tif
176
     0
290
     0
176
     0
 40
1.0
176
     0
 40
1.0
176
     0
  0
VISUALSTYLE
  5
39
102
{ACAD_REACTORS
330
2A
102
}
330
2A
100
AcDbVisualStyle
  2
Facepattern
 70
    15
177
     3
291
     1
 70
    58
 90
        2
176
     1
 90
        2
176
     1
 90
        0
176
     1
 90
        0
176
     1
 40
0.6
176
     1
 40
30.0
176
     1
 62
     7
420
 16777215
176
     1
 90
        1
176
     1
 90
        4
176
     1
 62
     7
176
     1
 62
   257
176
     1
 90
        1
176
     1
 90
        1
176
     1
 40
1.0
176
     1
 90
        8
176
     1
 62
     7
176
     1
 40
1.0
176
     1
 90
        1
176
     1
 90
        6
176
     1
 90
        2
176
     1
 62
     7
176
     1
 90
        5
176
     1
 90
        0
176
     1
 90
        0
176
     1
290
     0
176
     1
 90
        1
176
     1
 40
0.0
176
     1
 90
        0
176
     1
290
     0
176
     1
290
     1
176
     1
290
     1
176
     1
290
     0
176
     1
290
     0
176
     1
290
     0
176
     1
290
     0
176
     1
290
     0
176
     1
290
     0
176
     1
 90
       50
176
     1
 40
0.0
176
     1
 40
1.0
176
     1
 90
        0
176
     1
 62
    18
420
        0
176
     1
 90
       50
176
     1
 90
        3
176
     1
 62
     5
420
      255
176
     1
290
     0
176
     1
 90
       50
176
     1
 90
       50
176
     1
 90
       50
176
     1
290
     0
176
     1
 90
       50
176
     1
 62
   256
176
     0
 40
1.0
176
     0
 90
        2
176
     1
  1
strokes_ogs.tif
176
     1
290
     0
176
     1
 40
1.0
176
     1
 40
1.0
176
     1
  0
VISUALSTYLE
  5
2B
102
{ACAD_REACTORS
330
2A
102
}
330
2A
100
AcDbVisualStyle
  2
Flat
 70
     0
177
     3
291
     1
 70
    58
 90
        2
176
     1
 90
        1
176
     1
 90
        1
176
     1
 90
        2
176
     1
 40
0.6
176
     1
 40
30.0
176
     1
 62
     7
420
 16777215
176
     1
 90
        0
176
     1
 90
        0
176
     1
 62
     7
176
     1
 62
   257
176
     1
 90
        1
176
     1
 90
        1
176
     1
 40
1.0
176
     1
 90
        8
176
     1
 62
     7
176
     1
 40
1.0
176
     1
 90
        1
176
     1
 90
        6
176
     1
 90
        2
176
     1
 62
     7
176
     1
 90
        5
176
     1
 90
        0
176
     1
 90
        0
176
     1
290
     0
176
     1
 90
       13
176
     1
 40
0.0
176
     1
 90
        0
176
     1
290
     0
176
     1
290
     1
176
     1
290
     1
176
     1
290
     0
176
     1
290
     0
176
     1
290
     0
176
     1
290
     0
176
     1
290
     0
176
     1
290
     0
176
     1
 90
       50
176
     1
 40
0.0
176
     1
 40
1.0
176
     1
 90
        0
176
     1
 62
    18
420
        0
176
     1
 90
       50
176
     1
 90
        3
176
     1
 62
     5
420
      255
176
     1
290
     0
176
     1
 90
       50
176
     1
 90
       50
176
     1
 90
       50
176
     1
290
     0
176
     1
 90
       50
176
     1
 62
   256
176
     0
 40
1.0
176
     0
 90
        2
176
     1
  1
strokes_ogs.tif
176
     1
290
     0
176
     1
 40
1.0
176
     1
 40
1.0
176
     1
  0
VISUALSTYLE
  5
2C
102
{ACAD_REACTORS
330
2A
102
}
330
2A
100
AcDbVisualStyle
  2
FlatWithEdges
 70
     1
177
     3
291
     1
 70
    58
 90
        2
176
     1
 90
        1
176
     1
 90
        1
176
     1
 90
        2
176
     1
 40
0.6
176
     1
 40
30.0
176
     1
 62
     7
420
 16777215
176
     1
 90
        1
176
     1
 90
        0
176
     1
 62
     7
176
     1
 62
   257
176
     1
 90
        1
176
     1
 90
        1
176
     1
 40
1.0
176
     1
 90
        0
176
     1
 62
   257
176
     1
 40
1.0
176
     1
 90
        1
176
     1
 90
        6
176
     1
 90
        2
176
     1
 62
     7
176
     1
 90
        5
176
     1
 90
        0
176
     1
 90
        0
176
     1
290
     0
176
     1
 90
       13
176
     1
 40
0.0
176
     1
 90
        0
176
     1
290
     0
176
     1
290
     1
176
     1
290
     1
176
     1
290
     0
176
     1
290
     0
176
     1
290
     0
176
     1
290
     0
176
     1
290
     0
176
     1
290
     0
176
     1
 90
       50
176
     1
 40
0.0
176
     1
 40
1.0
176
     1
 90
        0
176
     1
 62
    18
420
        0
176
     1
 90
       50
176
     1
 90
        3
176
     1
 62
     5
420
      255
176
     1
290
     0
176
     1
 90
       50
176
     1
 90
       50
176
     1
 90
       50
176
     1
290
     0
176
     1
 90
       50
176
     1
 62
   256
176
     0
 40
1.0
176
     0
 90
        2
176
     1
  1
strokes_ogs.tif
176
     1
290
     0
176
     1
 40
1.0
176
     1
 40
1.0
176
     1
  0
VISUALSTYLE
  5
2D
102
{ACAD_REACTORS
330
2A
102
}
330
2A
100
AcDbVisualStyle
  2
Gouraud
 70
     2
177
     3
291
     1
 70
    58
 90
        2
176
     1
 90
        2
176
     1
 90
        1
176
     1
 90
        2
176
     1
 40
0.6
176
     1
 40
30.0
176
     1
 62
     7
420
 16777215
176
     1
 90
        0
176
     1
 90
        0
176
     1
 62
     7
176
     1
 62
   257
176
     1
 90
        1
176
     1
 90
        1
176
     1
 40
1.0
176
     1
 90
        0
176
     1
 62
     7
176
     1
 40
1.0
176
     1
 90
        1
176
     1
 90
        6
176
     1
 90
        2
176
     1
 62
     7
176
     1
 90
        5
176
     1
 90
        0
176
     1
 90
        0
176
     1
290
     0
176
     1
 90
       13
176
     1
 40
0.0
176
     1
 90
        0
176
     1
290
     0
176
     1
290
     1
176
     1
290
     1
176
     1
290
     0
176
     1
290
     0
176
     1
290
     0
176
     1
290
     0
176
     1
290
     0
176
     1
290
     0
176
     1
 90
       50
176
     1
 40
0.0
176
     1
 40
1.0
176
     1
 90
        0
176
     1
 62
    18
420
        0
176
     1
 90
       50
176
     1
 90
        3
176
     1
 62
     5
420
      255
176
     1
290
     0
176
     1
 90
       50
176
     1
 90
       50
176
     1
 90
       50
176
     1
290
     0
176
     1
 90
       50
176
     1
 62
   256
176
     0
 40
1.0
176
     0
 90
        2
176
     1
  1
strokes_ogs.tif
176
     1
290
     0
176
     1
 40
1.0
176
     1
 40
1.0
176
     1
  0
VISUALSTYLE
  5
2E
102
{ACAD_REACTORS
330
2A
102
}
330
2A
100
AcDbVisualStyle
  2
GouraudWithEdges
 70
     3
177
     3
291
     1
 70
    58
 90
        2
176
     1
 90
        2
176
     1
 90
        1
176
     1
 90
        2
176
     1
 40
0.6
176
     1
 40
30.0
176
     1
 62
     7
420
 16777215
176
     1
 90
        1
176
     1
 90
        0
176
     1
 62
     7
176
     1
 62
   257
176
     1
 90
        1
176
     1
 90
        1
176
     1
 40
1.0
176
     1
 90
        0
176
     1
 62
   257
176
     1
 40
1.0
176
     1
 90
        1
176
     1
 90
        6
176
     1
 90
        2
176
     1
 62
     7
176
     1
 90
        5
176
     1
 90
        0
176
     1
 90
        0
176
     1
290
     0
176
     1
 90
       13
176
     1
 40
0.0
176
     1
 90
        0
176
     1
290
     0
176
     1
290
     1
176
     1
290
     1
176
     1
290
     0
176
     1
290
     0
176
     1
290
     0
176
     1
290
     0
176
     1
290
     0
176
     1
290
     0
176
     1
 90
       50
176
     1
 40
0.0
176
     1
 40
1.0
176
     1
 90
        0
176
     1
 62
    18
420
        0
176
     1
 90
       50
176
     1
 90
        3
176
     1
 62
     5
420
      255
176
     1
290
     0
176
     1
 90
       50
176
     1
 90
       50
176
     1
 90
       50
176
     1
290
     0
176
     1
 90
       50
176
     1
 62
   256
176
     0
 40
1.0
176
     0
 90
        2
176
     1
  1
strokes_ogs.tif
176
     1
290
     0
176
     1
 40
1.0
176
     1
 40
1.0
176
     1
  0
VISUALSTYLE
  5
31
102
{ACAD_REACTORS
330
2A
102
}
330
2A
100
AcDbVisualStyle
  2
Hidden
 70
     6
177
     3
291
     0
 70
    58
 90
        1
176
     1
 90
        2
176
     1
 90
        2
176
     1
 90
        0
176
     1
 40
0.6
176
     1
 40
30.0
176
     1
 62
     7
420
 16777215
176
     1
 90
        2
176
     1
 90
        2
176
     1
 62
     7
176
     1
 62
   257
176
     1
 90
        2
176
     1
 90
        1
176
     1
 40
40.0
176
     1
 90
        0
176
     1
 62
   257
176
     1
 40
1.0
176
     1
 90
        1
176
     1
 90
        6
176
     1
 90
        2
176
     1
 62
     7
176
     1
 90
        3
176
     1
 90
        0
176
     1
 90
        0
176
     1
290
     0
176
     1
 90
        1
176
     1
 40
0.0
176
     1
 90
        0
176
     1
290
     0
176
     1
290
     1
176
     1
290
     1
176
     1
290
     0
176
     1
290
     0
176
     1
290
     0
176
     1
290
     0
176
     1
290
     0
176
     1
290
     0
176
     1
 90
       50
176
     1
 40
0.0
176
     1
 40
1.0
176
     1
 90
        0
176
     1
 62
    18
420
        0
176
     1
 90
       50
176
     1
 90
        3
176
     1
 62
     5
420
      255
176
     1
290
     0
176
     1
 90
       50
176
     1
 90
       50
176
     1
 90
       50
176
     1
290
     0
176
     1
 90
       50
176
     1
 62
   256
176
     0
 40
1.0
176
     0
 90
        2
176
     1
  1
strokes_ogs.tif
176
     1
290
     0
176
     1
 40
1.0
176
     1
 40
1.0
176
     1
  0
VISUALSTYLE
  5
3B
102
{ACAD_REACTORS
330
2A
102
}
330
2A
100
AcDbVisualStyle
  2
JitterOff
 70
    20
177
     3
291
     1
 70
    58
 90
        2
176
     0
 90
        2
176
     0
 90
        0
176
     0
 90
        0
176
     0
 40
0.6
176
     0
 40
30.0
176
     0
 62
     7
420
 16777215
176
     0
 90
        1
176
     0
 90
        4
176
     0
 62
     7
176
     0
 62
   257
176
     0
 90
        1
176
     0
 90
        1
176
     0
 40
1.0
176
     0
 90
       10
176
     2
 62
     7
176
     0
 40
1.0
176
     0
 90
        1
176
     0
 90
        6
176
     0
 90
        2
176
     0
 62
     7
176
     0
 90
        5
176
     0
 90
        0
176
     0
 90
        0
176
     0
290
     0
176
     0
 90
        1
176
     0
 40
0.0
176
     0
 90
        0
176
     0
290
     0
176
     0
290
     1
176
     0
290
     1
176
     0
290
     0
176
     0
290
     0
176
     0
290
     0
176
     0
290
     0
176
     0
290
     0
176
     0
290
     0
176
     0
 90
       50
176
     0
 40
0.0
176
     0
 40
1.0
176
     0
 90
        0
176
     0
 62
    18
420
        0
176
     0
 90
       50
176
     0
 90
        3
176
     0
 62
     5
420
      255
176
     0
290
     0
176
     0
 90
       50
176
     0
 90
       50
176
     0
 90
       50
176
     0
290
     0
176
     0
 90
       50
176
     0
 62
   256
176
     0
 40
1.0
176
     0
 90
        2
176
     0
  1
strokes_ogs.tif
176
     0
290
     0
176
     0
 40
1.0
176
     0
 40
1.0
176
     0
  0
VISUALSTYLE
  5
38
102
{ACAD_REACTORS
330
2A
102
}
330
2A
100
AcDbVisualStyle
  2
Linepattern
 70
    14
177
     3
291
     1
 70
    58
 90
        2
176
     1
 90
        2
176
     1
 90
        0
176
     1
 90
        0
176
     1
 40
0.6
176
     1
 40
30.0
176
     1
 62
     7
420
 16777215
176
     1
 90
        1
176
     1
 90
        4
176
     1
 62
     7
176
     1
 62
   257
176
     1
 90
        7
176
     1
 90
        7
176
     1
 40
1.0
176
     1
 90
        8
176
     1
 62
     7
176
     1
 40
1.0
176
     1
 90
        1
176
     1
 90
        6
176
     1
 90
        2
176
     1
 62
     7
176
     1
 90
        5
176
     1
 90
        0
176
     1
 90
        0
176
     1
290
     0
176
     1
 90
        1
176
     1
 40
0.0
176
     1
 90
        0
176
     1
290
     0
176
     1
290
     1
176
     1
290
     1
176
     1
290
     0
176
     1
290
     0
176
     1
290
     0
176
     1
290
     0
176
     1
290
     0
176
     1
290
     0
176
     1
 90
       50
176
     1
 40
0.0
176
     1
 40
1.0
176
     1
 90
        0
176
     1
 62
    18
420
        0
176
     1
 90
       50
176
     1
 90
        3
176
     1
 62
     5
420
      255
176
     1
290
     0
176
     1
 90
       50
176
     1
 90
       50
176
     1
 90
       50
176
     1
290
     0
176
     1
 90
       50
176
     1
 62
   256
176
     0
 40
1.0
176
     0
 90
        2
176
     1
  1
strokes_ogs.tif
176
     1
290
     0
176
     1
 40
1.0
176
     1
 40
1.0
176
     1
  0
VISUALSTYLE
  5
3C
102
{ACAD_REACTORS
330
2A
102
}
330
2A
100
AcDbVisualStyle
  2
OverhangOff
 70
    21
177
     3
291
     1
 70
    58
 90
        2
176
     0
 90
        2
176
     0
 90
        0
176
     0
 90
        0
176
     0
 40
0.6
176
     0
 40
30.0
176
     0
 62
     7
420
 16777215
176
     0
 90
        1
176
     0
 90
        4
176
     0
 62
     7
176
     0
 62
   257
176
     0
 90
        1
176
     0
 90
        1
176
     0
 40
1.0
176
     0
 90
        9
176
     2
 62
     7
176
     0
 40
1.0
176
     0
 90
        1
176
     0
 90
        6
176
     0
 90
        2
176
     0
 62
     7
176
     0
 90
        5
176
     0
 90
        0
176
     0
 90
        0
176
     0
290
     0
176
     0
 90
        1
176
     0
 40
0.0
176
     0
 90
        0
176
     0
290
     0
176
     0
290
     1
176
     0
290
     1
176
     0
290
     0
176
     0
290
     0
176
     0
290
     0
176
     0
290
     0
176
     0
290
     0
176
     0
290
     0
176
     0
 90
       50
176
     0
 40
0.0
176
     0
 40
1.0
176
     0
 90
        0
176
     0
 62
    18
420
        0
176
     0
 90
       50
176
     0
 90
        3
176
     0
 62
     5
420
      255
176
     0
290
     0
176
     0
 90
       50
176
     0
 90
       50
176
     0
 90
       50
176
     0
290
     0
176
     0
 90
       50
176
     0
 62
   256
176
     0
 40
1.0
176
     0
 90
        2
176
     0
  1
strokes_ogs.tif
176
     0
290
     0
176
     0
 40
1.0
176
     0
 40
1.0
176
     0
  0
VISUALSTYLE
  5
33
102
{ACAD_REACTORS
330
2A
102
}
330
2A
100
AcDbVisualStyle
  2
Realistic
 70
     8
177
     3
291
     0
 70
    58
 90
        2
176
     1
 90
        3
176
     1
 90
        0
176
     1
 90
        2
176
     1
 40
0.6
176
     1
 40
30.0
176
     1
 62
     7
420
 16777215
176
     1
 90
        0
176
     1
 90
        0
176
     1
 62
     7
176
     1
 62
   257
176
     1
 90
        1
176
     1
 90
        1
176
     1
 40
1.0
176
     1
 90
        8
176
     1
 62
   257
176
     1
 40
1.0
176
     1
 90
        1
176
     1
 90
        6
176
     1
 90
        2
176
     1
 62
     7
176
     1
 90
        3
176
     1
 90
        0
176
     1
 90
        0
176
     1
290
     0
176
     1
 90
       13
176
     1
 40
0.0
176
     1
 90
        0
176
     1
290
     0
176
     1
290
     1
176
     1
290
     1
176
     1
290
     0
176
     1
290
     0
176
     1
290
     0
176
     1
290
     0
176
     1
290
     0
176
     1
290
     0
176
     1
 90
       50
176
     1
 40
0.0
176
     1
 40
1.0
176
     1
 90
        0
176
     1
 62
    18
420
        0
176
     1
 90
       50
176
     1
 90
        3
176
     1
 62
     5
420
      255
176
     1
290
     0
176
     1
 90
       50
176
     1
 90
       50
176
     1
 90
       50
176
     1
290
     0
176
     1
 90
       50
176
     1
 62
   256
176
     0
 40
1.0
176
     0
 90
        2
176
     1
  1
strokes_ogs.tif
176
     1
290
     0
176
     1
 40
1.0
176
     1
 40
1.0
176
     1
  0
VISUALSTYLE
  5
42
102
{ACAD_REACTORS
330
2A
102
}
330
2A
100
AcDbVisualStyle
  2
Shaded
 70
    27
177
     3
291
     0
 70
    58
 90
        2
176
     1
 90
        2
176
     1
 90
        1
176
     1
 90
        2
176
     1
 40
0.6
176
     1
 40
30.0
176
     1
 62
     7
420
 16777215
176
     1
 90
        0
176
     1
 90
        4
176
     1
 62
     7
176
     1
 62
   257
176
     1
 90
        1
176
     1
 90
        1
176
     1
 40
1.0
176
     1
 90
        8
176
     1
 62
   257
176
     1
 40
1.0
176
     1
 90
        1
176
     1
 90
        6
176
     1
 90
        2
176
     1
 62
     8
420
  7895160
176
     1
 90
        3
176
     1
 90
        0
176
     1
 90
        0
176
     1
290
     0
176
     1
 90
        5
176
     1
 40
0.0
176
     1
 90
        0
176
     1
290
     0
176
     1
290
     1
176
     1
290
     1
176
     1
290
     0
176
     1
290
     0
176
     1
290
     0
176
     1
290
     0
176
     1
290
     0
176
     1
290
     0
176
     1
 90
       50
176
     1
 40
0.0
176
     1
 40
1.0
176
     1
 90
        0
176
     1
 62
    18
420
        0
176
     1
 90
       50
176
     1
 90
        3
176
     1
 62
     5
420
      255
176
     1
290
     0
176
     1
 90
       50
176
     1
 90
       50
176
     1
 90
       50
176
     1
290
     0
176
     1
 90
       50
176
     1
 62
   256
176
     0
 40
1.0
176
     0
 90
        2
176
     1
  1
strokes_ogs.tif
176
     1
290
     0
176
     1
 40
1.0
176
     1
 40
1.0
176
     1
  0
VISUALSTYLE
  5
41
102
{ACAD_REACTORS
330
2A
102
}
330
2A
100
AcDbVisualStyle
  2
Shaded with edges
 70
    26
177
     3
291
     0
 70
    58
 90
        2
176
     1
 90
        2
176
     1
 90
        1
176
     1
 90
        2
176
     1
 40
0.6
176
     1
 40
30.0
176
     1
 62
     7
420
 16777215
176
     1
 90
        1
176
     1
 90
       10
176
     1
 62
     7
176
     1
 62
   257
176
     1
 90
        2
176
     1
 90
        1
176
     1
 40
1.0
176
     1
 90
        8
176
     1
 62
   257
176
     1
 40
1.0
176
     1
 90
        1
176
     1
 90
        6
176
     1
 90
        2
176
     1
 62
     7
176
     1
 90
        3
176
     1
 90
        0
176
     1
 90
        0
176
     1
290
     0
176
     1
 90
        5
176
     1
 40
0.0
176
     1
 90
        0
176
     1
290
     0
176
     1
290
     1
176
     1
290
     1
176
     1
290
     0
176
     1
290
     0
176
     1
290
     0
176
     1
290
     0
176
     1
290
     0
176
     1
290
     0
176
     1
 90
       50
176
     1
 40
0.0
176
     1
 40
1.0
176
     1
 90
        0
176
     1
 62
    18
420
        0
176
     1
 90
       50
176
     1
 90
        3
176
     1
 62
     5
420
      255
176
     1
290
     0
176
     1
 90
       50
176
     1
 90
       50
176
     1
 90
       50
176
     1
290
     0
176
     1
 90
       50
176
     1
 62
   256
176
     0
 40
1.0
176
     0
 90
        2
176
     1
  1
strokes_ogs.tif
176
     1
290
     0
176
     1
 40
1.0
176
     1
 40
1.0
176
     1
  0
VISUALSTYLE
  5
3E
102
{ACAD_REACTORS
330
2A
102
}
330
2A
100
AcDbVisualStyle
  2
Shades of Gray
 70
    23
177
     3
291
     0
 70
    58
 90
        2
176
     1
 90
        2
176
     1
 90
        3
176
     1
 90
        0
176
     1
 40
0.6
176
     1
 40
30.0
176
     1
 62
     7
420
 16777215
176
     1
 90
        2
176
     1
 90
        2
176
     1
 62
     7
176
     1
 62
     7
176
     1
 90
        1
176
     1
 90
        1
176
     1
 40
40.0
176
     1
 90
        8
176
     1
 62
     7
176
     1
 40
1.0
176
     1
 90
        1
176
     1
 90
        6
176
     1
 90
        2
176
     1
 62
     7
176
     1
 90
        3
176
     1
 90
        0
176
     1
 90
        0
176
     1
290
     0
176
     1
 90
        1
176
     1
 40
0.0
176
     1
 90
        0
176
     1
290
     0
176
     1
290
     1
176
     1
290
     1
176
     1
290
     0
176
     1
290
     0
176
     1
290
     0
176
     1
290
     0
176
     1
290
     0
176
     1
290
     0
176
     1
 90
       50
176
     1
 40
0.0
176
     1
 40
1.0
176
     1
 90
        0
176
     1
 62
    18
420
        0
176
     1
 90
       50
176
     1
 90
        3
176
     1
 62
     5
420
      255
176
     1
290
     0
176
     1
 90
       50
176
     1
 90
       50
176
     1
 90
       50
176
     1
290
     0
176
     1
 90
       50
176
     1
 62
   256
176
     0
 40
1.0
176
     0
 90
        2
176
     1
  1
strokes_ogs.tif
176
     1
290
     0
176
     1
 40
1.0
176
     1
 40
1.0
176
     1
  0
VISUALSTYLE
  5
3F
102
{ACAD_REACTORS
330
2A
102
}
330
2A
100
AcDbVisualStyle
  2
Sketchy
 70
    24
177
     3
291
     0
 70
    58
 90
        1
176
     1
 90
        2
176
     1
 90
        2
176
     1
 90
        0
176
     1
 40
0.6
176
     1
 40
30.0
176
     1
 62
     7
420
 16777215
176
     1
 90
        2
176
     1
 90
        2
176
     1
 62
     7
176
     1
 62
     7
176
     1
 90
        1
176
     1
 90
        1
176
     1
 40
40.0
176
     1
 90
       11
176
     1
 62
     7
176
     1
 40
1.0
176
     1
 90
        1
176
     1
 90
        6
176
     1
 90
        2
176
     1
 62
     7
176
     1
 90
        6
176
     1
 90
        0
176
     1
 90
        0
176
     1
290
     0
176
     1
 90
        1
176
     1
 40
0.0
176
     1
 90
        0
176
     1
290
     0
176
     1
290
     1
176
     1
290
     1
176
     1
290
     0
176
     1
290
     0
176
     1
290
     0
176
     1
290
     0
176
     1
290
     0
176
     1
290
     0
176
     1
 90
       50
176
     1
 40
0.0
176
     1
 40
1.0
176
     1
 90
        0
176
     1
 62
    18
420
        0
176
     1
 90
       50
176
     1
 90
        3
176
     1
 62
     5
420
      255
176
     1
290
     0
176
     1
 90
       50
176
     1
 90
       50
176
     1
 90
       50
176
     1
290
     0
176
     1
 90
       50
176
     1
 62
   256
176
     0
 40
1.0
176
     0
 90
        2
176
     1
  1
strokes_ogs.tif
176
     1
290
     0
176
     1
 40
1.0
176
     1
 40
1.0
176
     1
  0
VISUALSTYLE
  5
37
102
{ACAD_REACTORS
330
2A
102
}
330
2A
100
AcDbVisualStyle
  2
Thicken
 70
    13
177
     3
291
     1
 70
    58
 90
        2
176
     1
 90
        2
176
     1
 90
        0
176
     1
 90
        0
176
     1
 40
0.6
176
     1
 40
30.0
176
     1
 62
     7
420
 16777215
176
     1
 90
        1
176
     1
 90
        4
176
     1
 62
     7
176
     1
 62
   257
176
     1
 90
        1
176
     1
 90
        1
176
     1
 40
1.0
176
     1
 90
       12
176
     1
 62
     7
176
     1
 40
1.0
176
     1
 90
        1
176
     1
 90
        6
176
     1
 90
        2
176
     1
 62
     7
176
     1
 90
        5
176
     1
 90
        0
176
     1
 90
        0
176
     1
290
     0
176
     1
 90
        1
176
     1
 40
0.0
176
     1
 90
        0
176
     1
290
     0
176
     1
290
     1
176
     1
290
     1
176
     1
290
     0
176
     1
290
     0
176
     1
290
     0
176
     1
290
     0
176
     1
290
     0
176
     1
290
     0
176
     1
 90
       50
176
     1
 40
0.0
176
     1
 40
1.0
176
     1
 90
        0
176
     1
 62
    18
420
        0
176
     1
 90
       50
176
     1
 90
        3
176
     1
 62
     5
420
      255
176
     1
290
     0
176
     1
 90
       50
176
     1
 90
       50
176
     1
 90
       50
176
     1
290
     0
176
     1
 90
       50
176
     1
 62
   256
176
     0
 40
1.0
176
     0
 90
        2
176
     1
  1
strokes_ogs.tif
176
     1
290
     0
176
     1
 40
1.0
176
     1
 40
1.0
176
     1
  0
VISUALSTYLE
  5
30
102
{ACAD_REACTORS
330
2A
102
}
330
2A
100
AcDbVisualStyle
  2
Wireframe
 70
     5
177
     3
291
     0
 70
    58
 90
        0
176
     1
 90
        2
176
     1
 90
        0
176
     1
 90
        0
176
     1
 40
0.6
176
     1
 40
30.0
176
     1
 62
     7
420
 16777215
176
     1
 90
        1
176
     1
 90
        4
176
     1
 62
     7
176
     1
 62
   257
176
     1
 90
        1
176
     1
 90
        1
176
     1
 40
1.0
176
     1
 90
        0
176
     1
 62
   257
176
     1
 40
1.0
176
     1
 90
        1
176
     1
 90
        6
176
     1
 90
        2
176
     1
 62
     7
176
     1
 90
        3
176
     1
 90
        0
176
     1
 90
        0
176
     1
290
     0
176
     1
 90
        1
176
     1
 40
0.0
176
     1
 90
        0
176
     1
290
     0
176
     1
290
     1
176
     1
290
     1
176
     1
290
     0
176
     1
290
     0
176
     1
290
     0
176
     1
290
     0
176
     1
290
     0
176
     1
290
     0
176
     1
 90
       50
176
     1
 40
0.0
176
     1
 40
1.0
176
     1
 90
        0
176
     1
 62
    18
420
        0
176
     1
 90
       50
176
     1
 90
        3
176
     1
 62
     5
420
      255
176
     1
290
     0
176
     1
 90
       50
176
     1
 90
       50
176
     1
 90
       50
176
     1
290
     0
176
     1
 90
       50
176
     1
 62
   256
176
     0
 40
1.0
176
     0
 90
        2
176
     1
  1
strokes_ogs.tif
176
     1
290
     0
176
     1
 40
1.0
176
     1
 40
1.0
176
     1
  0
VISUALSTYLE
  5
40
102
{ACAD_REACTORS
330
2A
102
}
330
2A
100
AcDbVisualStyle
  2
X-Ray
 70
    25
177
     3
291
     0
 70
    58
 90
        2
176
     1
 90
        2
176
     1
 90
        1
176
     1
 90
        1
176
     1
 40
0.5
176
     1
 40
30.0
176
     1
 62
     7
420
 16777215
176
     1
 90
        1
176
     1
 90
        0
176
     1
 62
     7
176
     1
 62
   257
176
     1
 90
        1
176
     1
 90
        1
176
     1
 40
1.0
176
     1
 90
        8
176
     1
 62
     7
176
     1
 40
1.0
176
     1
 90
        1
176
     1
 90
        6
176
     1
 90
        2
176
     1
 62
     7
176
     1
 90
        3
176
     1
 90
        0
176
     1
 90
        0
176
     1
290
     0
176
     1
 90
       13
176
     1
 40
0.0
176
     1
 90
        0
176
     1
290
     0
176
     1
290
     1
176
     1
290
     1
176
     1
290
     0
176
     1
290
     0
176
     1
290
     0
176
     1
290
     0
176
     1
290
     0
176
     1
290
     0
176
     1
 90
       50
176
     1
 40
0.0
176
     1
 40
1.0
176
     1
 90
        0
176
     1
 62
    18
420
        0
176
     1
 90
       50
176
     1
 90
        3
176
     1
 62
     5
420
      255
176
     1
290
     0
176
     1
 90
       50
176
     1
 90
       50
176
     1
 90
       50
176
     1
290
     0
176
     1
 90
       50
176
     1
 62
   256
176
     0
 40
1.0
176
     0
 90
        2
176
     1
  1
strokes_ogs.tif
176
     1
290
     0
176
     1
 40
1.0
176
     1
 40
1.0
176
     1
  0
DICTIONARYVAR
  5
F5
102
{ACAD_REACTORS
330
F4
102
}
330
F4
100
DictionaryVariables
280
     0
  1
1:1
  0
DICTIONARYVAR
  5
FD
102
{ACAD_REACTORS
330
F4
102
}
330
F4
100
DictionaryVariables
280
     0
  1
3.500000
  0
DICTIONARYVAR
  5
FE
102
{ACAD_REACTORS
330
F4
102
}
330
F4
100
DictionaryVariables
280
     0
  1
acadiso.lin
  0
DICTIONARYVAR
  5
FA
102
{ACAD_REACTORS
330
F4
102
}
330
F4
100
DictionaryVariables
280
     0
  1
Standard
  0
DICTIONARYVAR
  5
F9
102
{ACAD_REACTORS
330
F4
102
}
330
F4
100
DictionaryVariables
280
     0
  1
Standard
  0
DICTIONARY
  5
F6
330
6A
100
AcDbDictionary
280
     1
281
     1
  3
ACAD_ROUNDTRIP_2008_TABLESTYLE_CELLSTYLEMAP
360
F7
  0
CELLSTYLEMAP
  5
F7
102
{ACAD_REACTORS
330
F6
102
}
330
F6
100
AcDbCellStyleMap
 90
        3
300
CELLSTYLE
  1
TABLEFORMAT_BEGIN
 90
        5
170
     1
 91
        0
 92
    32768
 62
   257
 93
        1
300
CONTENTFORMAT
  1
CONTENTFORMAT_BEGIN
 90
        0
 91
        0
 92
        4
 93
        0
300

 40
0.0
140
1.0
 94
        5
 62
     0
340
11
144
6.0
309
CONTENTFORMAT_END
171
     1
301
MARGIN
  1
CELLMARGIN_BEGIN
 40
1.5
 40
1.5
 40
1.5
 40
1.5
 40
1.5
 40
1.5
309
CELLMARGIN_END
 94
        6
 95
        1
302
GRIDFORMAT
  1
GRIDFORMAT_BEGIN
 90
        0
 91
        1
 62
     0
 92
       -2
340
14
 93
        0
 40
0.045
309
GRIDFORMAT_END
 95
        2
302
GRIDFORMAT
  1
GRIDFORMAT_BEGIN
 90
        0
 91
        1
 62
     0
 92
       -2
340
14
 93
        0
 40
0.045
309
GRIDFORMAT_END
 95
        4
302
GRIDFORMAT
  1
GRIDFORMAT_BEGIN
 90
        0
 91
        1
 62
     0
 92
       -2
340
14
 93
        0
 40
0.045
309
GRIDFORMAT_END
 95
        8
302
GRIDFORMAT
  1
GRIDFORMAT_BEGIN
 90
        0
 91
        1
 62
     0
 92
       -2
340
14
 93
        0
 40
0.045
309
GRIDFORMAT_END
 95
       16
302
GRIDFORMAT
  1
GRIDFORMAT_BEGIN
 90
        0
 91
        1
 62
     0
 92
       -2
340
14
 93
        0
 40
0.045
309
GRIDFORMAT_END
 95
       32
302
GRIDFORMAT
  1
GRIDFORMAT_BEGIN
 90
        0
 91
        1
 62
     0
 92
       -2
340
14
 93
        0
 40
0.045
309
GRIDFORMAT_END
309
TABLEFORMAT_END
  1
CELLSTYLE_BEGIN
 90
        1
 91
        1
300
_TITLE
309
CELLSTYLE_END
300
CELLSTYLE
  1
TABLEFORMAT_BEGIN
 90
        5
170
     1
 91
        0
 92
        0
 62
   257
 93
        1
300
CONTENTFORMAT
  1
CONTENTFORMAT_BEGIN
 90
        0
 91
        0
 92
        4
 93
        0
300

 40
0.0
140
1.0
 94
        5
 62
     0
340
11
144
4.5
309
CONTENTFORMAT_END
171
     1
301
MARGIN
  1
CELLMARGIN_BEGIN
 40
1.5
 40
1.5
 40
1.5
 40
1.5
 40
1.5
 40
1.5
309
CELLMARGIN_END
 94
        6
 95
        1
302
GRIDFORMAT
  1
GRIDFORMAT_BEGIN
 90
        0
 91
        1
 62
     0
 92
       -2
340
14
 93
        0
 40
0.045
309
GRIDFORMAT_END
 95
        2
302
GRIDFORMAT
  1
GRIDFORMAT_BEGIN
 90
        0
 91
        1
 62
     0
 92
       -2
340
14
 93
        0
 40
0.045
309
GRIDFORMAT_END
 95
        4
302
GRIDFORMAT
  1
GRIDFORMAT_BEGIN
 90
        0
 91
        1
 62
     0
 92
       -2
340
14
 93
        0
 40
0.045
309
GRIDFORMAT_END
 95
        8
302
GRIDFORMAT
  1
GRIDFORMAT_BEGIN
 90
        0
 91
        1
 62
     0
 92
       -2
340
14
 93
        0
 40
0.045
309
GRIDFORMAT_END
 95
       16
302
GRIDFORMAT
  1
GRIDFORMAT_BEGIN
 90
        0
 91
        1
 62
     0
 92
       -2
340
14
 93
        0
 40
0.045
309
GRIDFORMAT_END
 95
       32
302
GRIDFORMAT
  1
GRIDFORMAT_BEGIN
 90
        0
 91
        1
 62
     0
 92
       -2
340
14
 93
        0
 40
0.045
309
GRIDFORMAT_END
309
TABLEFORMAT_END
  1
CELLSTYLE_BEGIN
 90
        2
 91
        1
300
_HEADER
309
CELLSTYLE_END
300
CELLSTYLE
  1
TABLEFORMAT_BEGIN
 90
        5
170
     1
 91
        0
 92
        0
 62
   257
 93
        1
300
CONTENTFORMAT
  1
CONTENTFORMAT_BEGIN
 90
        0
 91
        0
 92
        4
 93
        0
300

 40
0.0
140
1.0
 94
        2
 62
     0
340
11
144
4.5
309
CONTENTFORMAT_END
171
     1
301
MARGIN
  1
CELLMARGIN_BEGIN
 40
1.5
 40
1.5
 40
1.5
 40
1.5
 40
1.5
 40
1.5
309
CELLMARGIN_END
 94
        6
 95
        1
302
GRIDFORMAT
  1
GRIDFORMAT_BEGIN
 90
        0
 91
        1
 62
     0
 92
       -2
340
14
 93
        0
 40
0.045
309
GRIDFORMAT_END
 95
        2
302
GRIDFORMAT
  1
GRIDFORMAT_BEGIN
 90
        0
 91
        1
 62
     0
 92
       -2
340
14
 93
        0
 40
0.045
309
GRIDFORMAT_END
 95
        4
302
GRIDFORMAT
  1
GRIDFORMAT_BEGIN
 90
        0
 91
        1
 62
     0
 92
       -2
340
14
 93
        0
 40
0.045
309
GRIDFORMAT_END
 95
        8
302
GRIDFORMAT
  1
GRIDFORMAT_BEGIN
 90
        0
 91
        1
 62
     0
 92
       -2
340
14
 93
        0
 40
0.045
309
GRIDFORMAT_END
 95
       16
302
GRIDFORMAT
  1
GRIDFORMAT_BEGIN
 90
        0
 91
        1
 62
     0
 92
       -2
340
14
 93
        0
 40
0.045
309
GRIDFORMAT_END
 95
       32
302
GRIDFORMAT
  1
GRIDFORMAT_BEGIN
 90
        0
 91
        1
 62
     0
 92
       -2
340
14
 93
        0
 40
0.045
309
GRIDFORMAT_END
309
TABLEFORMAT_END
  1
CELLSTYLE_BEGIN
 90
        3
 91
        2
300
_DATA
309
CELLSTYLE_END
  0
ENDSEC
  0
EOF
