  0
SECTION
  2
HEADER
  9
$ACADVER
  1
AC1032
  9
$ACADMAINTVER
 90
       55
  9
$DWGCODEPAGE
  3
ANSI_1252
  9
$LASTSAVEDBY
  1
villesi
  9
$REQUIREDVERSIONS
160
                 0
  9
$INSBASE
 10
0.0
 20
0.0
 30
0.0
  9
$EXTMIN
 10
0.0
 20
0.0
 30
0.0
  9
$EXTMAX
 10
550.0
 20
500.0
 30
0.0
  9
$LIMMIN
 10
0.0
 20
0.0
  9
$LIMMAX
 10
550.0
 20
500.0
  9
$ORTHOMODE
 70
     0
  9
$REGENMODE
 70
     1
  9
$FILLMODE
 70
     1
  9
$QTEXTMODE
 70
     0
  9
$MIRRTEXT
 70
     1
  9
$LTSCALE
 40
1.0
  9
$ATTMODE
 70
     1
  9
$TEXTSIZE
 40
5.0
  9
$TRACEWID
 40
1.0
  9
$TEXTSTYLE
  7
Standard
  9
$CLAYER
  8
0
  9
$CELTYPE
  6
ByLayer
  9
$CECOLOR
 62
   256
  9
$CELTSCALE
 40
1.0
  9
$DISPSILH
 70
     0
  9
$DIMSCALE
 40
1.0
  9
$DIMASZ
 40
6.0
  9
$DIMEXO
 40
1.0
  9
$DIMDLI
 40
3.75
  9
$DIMRND
 40
0.0
  9
$DIMDLE
 40
0.0
  9
$DIMEXE
 40
1.0
  9
$DIMTP
 40
0.0
  9
$DIMTM
 40
0.0
  9
$DIMTXT
 40
5.0
  9
$DIMCEN
 40
2.5
  9
$DIMTSZ
 40
0.0
  9
$DIMTOL
 70
     0
  9
$DIMLIM
 70
     0
  9
$DIMTIH
 70
     1
  9
$DIMTOH
 70
     1
  9
$DIMSE1
 70
     0
  9
$DIMSE2
 70
     0
  9
$DIMTAD
 70
     1
  9
$DIMZIN
 70
     0
  9
$DIMBLK
  1

  9
$DIMASO
 70
     1
  9
$DIMSHO
 70
     1
  9
$DIMPOST
  1

  9
$DIMAPOST
  1

  9
$DIMALT
 70
     0
  9
$DIMALTD
 70
     3
  9
$DIMALTF
 40
0.0393700787
  9
$DIMLFAC
 40
1.0
  9
$DIMTOFL
 70
     1
  9
$DIMTVP
 40
0.0
  9
$DIMTIX
 70
     0
  9
$DIMSOXD
 70
     0
  9
$DIMSAH
 70
     0
  9
$DIMBLK1
  1

  9
$DIMBLK2
  1

  9
$DIMSTYLE
  2
ISO-25
  9
$DIMCLRD
 70
     0
  9
$DIMCLRE
 70
     0
  9
$DIMCLRT
 70
     0
  9
$DIMTFAC
 40
1.0
  9
$DIMGAP
 40
1.524
  9
$DIMJUST
 70
     0
  9
$DIMSD1
 70
     0
  9
$DIMSD2
 70
     0
  9
$DIMTOLJ
 70
     0
  9
$DIMTZIN
 70
     0
  9
$DIMALTZ
 70
     0
  9
$DIMALTTZ
 70
     0
  9
$DIMUPT
 70
     0
  9
$DIMDEC
 70
     2
  9
$DIMTDEC
 70
     2
  9
$DIMALTU
 70
     2
  9
$DIMALTTD
 70
     3
  9
$DIMTXSTY
  7
Standard
  9
$DIMAUNIT
 70
     0
  9
$DIMADEC
 70
     2
  9
$DIMALTRND
 40
0.0
  9
$DIMAZIN
 70
     0
  9
$DIMDSEP
 70
    44
  9
$DIMATFIT
 70
     3
  9
$DIMFRAC
 70
     0
  9
$DIMLDRBLK
  1

  9
$DIMLUNIT
 70
     2
  9
$DIMLWD
 70
    -2
  9
$DIMLWE
 70
    -2
  9
$DIMTMOVE
 70
     0
  9
$DIMFXL
 40
1.0
  9
$DIMFXLON
 70
     0
  9
$DIMJOGANG
 40
0.7853981634
  9
$DIMTFILL
 70
     0
  9
$DIMTFILLCLR
 70
     0
  9
$DIMARCSYM
 70
     0
  9
$DIMLTYPE
  6

  9
$DIMLTEX1
  6

  9
$DIMLTEX2
  6

  9
$DIMTXTDIRECTION
 70
     0
  9
$LUNITS
 70
     2
  9
$LUPREC
 70
     2
  9
$SKETCHINC
 40
1.0
  9
$FILLETRAD
 40
10.0
  9
$AUNITS
 70
     0
  9
$AUPREC
 70
     2
  9
$MENU
  1
.
  9
$ELEVATION
 40
0.0
  9
$PELEVATION
 40
0.0
  9
$THICKNESS
 40
0.0
  9
$LIMCHECK
 70
     0
  9
$CHAMFERA
 40
0.0
  9
$CHAMFERB
 40
0.0
  9
$CHAMFERC
 40
0.0
  9
$CHAMFERD
 40
0.0
  9
$SKPOLY
 70
     0
  9
$TDCREATE
 40
2459942.301913264
  9
$TDUCREATE
 40
2459942.218579931
  9
$TDUPDATE
 40
2459942.301913738
  9
$TDUUPDATE
 40
2459942.218580405
  9
$TDINDWG
 40
0.0000000116
  9
$TDUSRTIMER
 40
0.0000000116
  9
$USRTIMER
 70
     1
  9
$ANGBASE
 50
0.0
  9
$ANGDIR
 70
     0
  9
$PDMODE
 70
     0
  9
$PDSIZE
 40
-1.0
  9
$PLINEWID
 40
0.0
  9
$SPLFRAME
 70
     0
  9
$SPLINETYPE
 70
     6
  9
$SPLINESEGS
 70
     8
  9
$HANDSEED
  5
FF
  9
$SURFTAB1
 70
     6
  9
$SURFTAB2
 70
     6
  9
$SURFTYPE
 70
     6
  9
$SURFU
 70
     6
  9
$SURFV
 70
     6
  9
$UCSBASE
  2

  9
$UCSNAME
  2

  9
$UCSORG
 10
0.0
 20
0.0
 30
0.0
  9
$UCSXDIR
 10
1.0
 20
0.0
 30
0.0
  9
$UCSYDIR
 10
0.0
 20
1.0
 30
0.0
  9
$UCSORTHOREF
  2

  9
$UCSORTHOVIEW
 70
     0
  9
$UCSORGTOP
 10
0.0
 20
0.0
 30
0.0
  9
$UCSORGBOTTOM
 10
0.0
 20
0.0
 30
0.0
  9
$UCSORGLEFT
 10
0.0
 20
0.0
 30
0.0
  9
$UCSORGRIGHT
 10
0.0
 20
0.0
 30
0.0
  9
$UCSORGFRONT
 10
0.0
 20
0.0
 30
0.0
  9
$UCSORGBACK
 10
0.0
 20
0.0
 30
0.0
  9
$PUCSBASE
  2

  9
$PUCSNAME
  2

  9
$PUCSORG
 10
0.0
 20
0.0
 30
0.0
  9
$PUCSXDIR
 10
1.0
 20
0.0
 30
0.0
  9
$PUCSYDIR
 10
0.0
 20
1.0
 30
0.0
  9
$PUCSORTHOREF
  2

  9
$PUCSORTHOVIEW
 70
     0
  9
$PUCSORGTOP
 10
0.0
 20
0.0
 30
0.0
  9
$PUCSORGBOTTOM
 10
0.0
 20
0.0
 30
0.0
  9
$PUCSORGLEFT
 10
0.0
 20
0.0
 30
0.0
  9
$PUCSORGRIGHT
 10
0.0
 20
0.0
 30
0.0
  9
$PUCSORGFRONT
 10
0.0
 20
0.0
 30
0.0
  9
$PUCSORGBACK
 10
0.0
 20
0.0
 30
0.0
  9
$USERI1
 70
     0
  9
$USERI2
 70
     0
  9
$USERI3
 70
     0
  9
$USERI4
 70
     0
  9
$USERI5
 70
     0
  9
$USERR1
 40
0.0
  9
$USERR2
 40
0.0
  9
$USERR3
 40
0.0
  9
$USERR4
 40
0.0
  9
$USERR5
 40
0.0
  9
$WORLDVIEW
 70
     1
  9
$SHADEDGE
 70
     3
  9
$SHADEDIF
 70
    70
  9
$TILEMODE
 70
     1
  9
$MAXACTVP
 70
    64
  9
$PINSBASE
 10
0.0
 20
0.0
 30
0.0
  9
$PLIMCHECK
 70
     0
  9
$PEXTMIN
 10
1.0000000000E+20
 20
1.0000000000E+20
 30
1.0000000000E+20
  9
$PEXTMAX
 10
-1.0000000000E+20
 20
-1.0000000000E+20
 30
-1.0000000000E+20
  9
$PLIMMIN
 10
0.0
 20
0.0
  9
$PLIMMAX
 10
420.0
 20
297.0
  9
$UNITMODE
 70
     0
  9
$VISRETAIN
 70
     1
  9
$PLINEGEN
 70
     0
  9
$PSLTSCALE
 70
     1
  9
$TREEDEPTH
 70
  3020
  9
$CMLSTYLE
  2
Standard
  9
$CMLJUST
 70
     0
  9
$CMLSCALE
 40
20.0
  9
$PROXYGRAPHICS
 70
     1
  9
$MEASUREMENT
 70
     1
  9
$CELWEIGHT
370
    -1
  9
$ENDCAPS
280
     0
  9
$JOINSTYLE
280
     0
  9
$LWDISPLAY
290
     1
  9
$INSUNITS
 70
     4
  9
$HYPERLINKBASE
  1

  9
$STYLESHEET
  1

  9
$XEDIT
290
     1
  9
$CEPSNTYPE
380
     0
  9
$PSTYLEMODE
290
     1
  9
$FINGERPRINTGUID
  2
{122b64d6-bcba-4d18-87dd-23afb1b62741}
  9
$VERSIONGUID
  2
{FAEB1C32-E019-11D5-929B-00C0DF256EC4}
  9
$EXTNAMES
290
     1
  9
$PSVPSCALE
 40
0.0
  9
$OLESTARTUP
290
     0
  9
$SORTENTS
280
   127
  9
$INDEXCTL
280
     0
  9
$HIDETEXT
280
     1
  9
$XCLIPFRAME
280
     2
  9
$HALOGAP
280
     0
  9
$OBSCOLOR
 70
   257
  9
$OBSLTYPE
280
     0
  9
$INTERSECTIONDISPLAY
280
     0
  9
$INTERSECTIONCOLOR
 70
   257
  9
$DIMASSOC
280
     2
  9
$PROJECTNAME
  1

  9
$CAMERADISPLAY
290
     0
  9
$LENSLENGTH
 40
50.0
  9
$CAMERAHEIGHT
 40
0.0
  9
$STEPSPERSEC
 40
2.0
  9
$STEPSIZE
 40
6.0
  9
$3DDWFPREC
 40
2.0
  9
$PSOLWIDTH
 40
5.0
  9
$PSOLHEIGHT
 40
80.0
  9
$LOFTANG1
 40
1.5707963268
  9
$LOFTANG2
 40
1.5707963268
  9
$LOFTMAG1
 40
0.0
  9
$LOFTMAG2
 40
0.0
  9
$LOFTPARAM
 70
     7
  9
$LOFTNORMALS
280
     1
  9
$LATITUDE
 40
37.795
  9
$LONGITUDE
 40
-122.394
  9
$NORTHDIRECTION
 40
0.0
  9
$TIMEZONE
 70
 -8000
  9
$LIGHTGLYPHDISPLAY
280
     1
  9
$TILEMODELIGHTSYNCH
280
     1
  9
$CMATERIAL
347
44
  9
$SOLIDHIST
280
     0
  9
$SHOWHIST
280
     1
  9
$DWFFRAME
280
     2
  9
$DGNFRAME
280
     2
  9
$REALWORLDSCALE
290
     1
  9
$INTERFERECOLOR
 62
   256
  9
$CSHADOW
280
     0
  9
$SHADOWPLANELOCATION
 40
0.0
  0
ENDSEC
  0
SECTION
  2
CLASSES
  0
CLASS
  1
ACDBDICTIONARYWDFLT
  2
AcDbDictionaryWithDefault
  3
ObjectDBX Classes
 90
        0
 91
        3
280
     0
281
     0
  0
CLASS
  1
VISUALSTYLE
  2
AcDbVisualStyle
  3
ObjectDBX Classes
 90
     4095
 91
        3
280
     0
281
     0
  0
CLASS
  1
MATERIAL
  2
AcDbMaterial
  3
ObjectDBX Classes
 90
     1153
 91
        3
280
     0
281
     0
  0
CLASS
  1
SCALE
  2
AcDbScale
  3
ObjectDBX Classes
 90
     1153
 91
        3
280
     0
281
     0
  0
CLASS
  1
TABLESTYLE
  2
AcDbTableStyle
  3
ObjectDBX Classes
 90
     4095
 91
        3
280
     0
281
     0
  0
CLASS
  1
MLEADERSTYLE
  2
AcDbMLeaderStyle
  3
ACDB_MLEADERSTYLE_CLASS
 90
     4095
 91
        3
280
     0
281
     0
  0
CLASS
  1
SUN
  2
AcDbSun
  3
SCENEOE
 90
     1153
 91
        3
280
     0
281
     0
  0
CLASS
  1
DICTIONARYVAR
  2
AcDbDictionaryVar
  3
ObjectDBX Classes
 90
        0
 91
        3
280
     0
281
     0
  0
CLASS
  1
CELLSTYLEMAP
  2
AcDbCellStyleMap
  3
ObjectDBX Classes
 90
     1152
 91
        3
280
     0
281
     0
  0
ENDSEC
  0
SECTION
  2
TABLES
  0
TABLE
  2
VPORT
  5
8
330
0
100
AcDbSymbolTable
 70
     1
  0
VPORT
  5
29
330
8
100
AcDbSymbolTableRecord
100
AcDbViewportTableRecord
  2
*Active
 70
     0
 10
0.0
 20
0.0
 11
1.0
 21
1.0
 12
275.0
 22
250.0
 13
0.0
 23
0.0
 14
10.0
 24
10.0
 15
10.0
 25
10.0
 16
0.0
 26
0.0
 36
1.0
 17
0.0
 27
0.0
 37
0.0
 40
500.0
 41
1.1
 42
50.0
 43
0.0
 44
0.0
 50
0.0
 51
0.0
 71
     0
 72
  2000
 73
     1
 74
     3
 75
     0
 76
     0
 77
     0
 78
     0
281
     0
 65
     1
110
0.0
120
0.0
130
0.0
111
1.0
121
0.0
131
0.0
112
0.0
122
1.0
132
0.0
 79
     0
146
0.0
348
2F
 60
     3
 61
     5
292
     1
282
     1
141
0.0
142
0.0
 63
   250
361
6D
  0
ENDTAB
  0
TABLE
  2
LTYPE
  5
5
330
0
100
AcDbSymbolTable
 70
     6
  0
LTYPE
  5
14
330
5
100
AcDbSymbolTableRecord
100
AcDbLinetypeTableRecord
  2
ByBlock
 70
     0
  3

 72
    65
 73
     0
 40
0.0
  0
LTYPE
  5
15
330
5
100
AcDbSymbolTableRecord
100
AcDbLinetypeTableRecord
  2
ByLayer
 70
     0
  3

 72
    65
 73
     0
 40
0.0
  0
LTYPE
  5
16
330
5
100
AcDbSymbolTableRecord
100
AcDbLinetypeTableRecord
  2
Continuous
 70
     0
  3
Solid line
 72
    65
 73
     0
 40
0.0
  0
LTYPE
  5
6E
330
5
100
AcDbSymbolTableRecord
100
AcDbLinetypeTableRecord
  2
HIDDEN
 70
     0
  3
Hidden __ __ __ __ __ __ __ __ __ __ __ __ __ __
 72
    65
 73
     2
 40
1.905
 49
1.27
 74
     0
 49
-0.635
 74
     0
  0
LTYPE
  5
6F
330
5
100
AcDbSymbolTableRecord
100
AcDbLinetypeTableRecord
  2
PHANTOM
 70
     0
  3
Phantom ______  __  __  ______  __  __  ______
 72
    65
 73
     6
 40
12.7
 49
6.35
 74
     0
 49
-1.27
 74
     0
 49
1.27
 74
     0
 49
-1.27
 74
     0
 49
1.27
 74
     0
 49
-1.27
 74
     0
  0
LTYPE
  5
70
330
5
100
AcDbSymbolTableRecord
100
AcDbLinetypeTableRecord
  2
CENTER
 70
     0
  3
Center ____ _ ____ _ ____ _ ____ _ ____ _ ____
 72
    65
 73
     4
 40
10.16
 49
6.35
 74
     0
 49
-1.27
 74
     0
 49
1.27
 74
     0
 49
-1.27
 74
     0
  0
LTYPE
  5
71
330
5
100
AcDbSymbolTableRecord
100
AcDbLinetypeTableRecord
  2
CENTERX2
 70
     0
  3
Center (2x) ________  __  ________  __  _____
 72
    65
 73
     4
 40
20.32
 49
12.7
 74
     0
 49
-2.54
 74
     0
 49
2.54
 74
     0
 49
-2.54
 74
     0
  0
LTYPE
  5
72
330
5
100
AcDbSymbolTableRecord
100
AcDbLinetypeTableRecord
  2
DOT2
 70
     0
  3
Dot (.5x) ........................................
 72
    65
 73
     2
 40
0.635
 49
0.0
 74
     0
 49
-0.635
 74
     0
  0
ENDTAB
  0
TABLE
  2
LAYER
  5
2
330
0
100
AcDbSymbolTable
 70
     2
  0
LAYER
  5
10
330
2
100
AcDbSymbolTableRecord
100
AcDbLayerTableRecord
  2
0
 70
     0
 62
     7
  6
Continuous
370
    -3
390
F
347
46
348
0
  0
LAYER
  5
73
330
2
100
AcDbSymbolTableRecord
100
AcDbLayerTableRecord
  2
TABLE_BL1
 70
     0
 62
   179
  6
Continuous
370
    -3
390
F
347
46
348
0
  0
ENDTAB
  0
TABLE
  2
STYLE
  5
3
330
0
100
AcDbSymbolTable
 70
     1
  0
STYLE
  5
11
330
3
100
AcDbSymbolTableRecord
100
AcDbTextStyleTableRecord
  2
Standard
 70
     0
 40
0.0
 41
1.0
 50
0.0
 71
     0
 42
5.0
  3
txt
  4

  0
ENDTAB
  0
TABLE
  2
VIEW
  5
6
330
0
100
AcDbSymbolTable
 70
     0
  0
ENDTAB
  0
TABLE
  2
UCS
  5
7
330
0
100
AcDbSymbolTable
 70
     0
  0
ENDTAB
  0
TABLE
  2
APPID
  5
9
330
0
100
AcDbSymbolTable
 70
     1
  0
APPID
  5
12
330
9
100
AcDbSymbolTableRecord
100
AcDbRegAppTableRecord
  2
ACAD
 70
     0
  0
ENDTAB
  0
TABLE
  2
DIMSTYLE
  5
A
330
0
100
AcDbSymbolTable
 70
     1
100
AcDbDimStyleTable
  0
DIMSTYLE
105
27
330
A
100
AcDbSymbolTableRecord
100
AcDbDimStyleTableRecord
  2
ISO-25
 70
     0
 41
2.5
 42
0.625
 43
3.75
 44
1.25
 73
     0
 74
     0
 77
     1
 78
     8
140
2.5
141
2.5
143
0.0393700787
147
0.625
171
     3
172
     1
178
     0
271
     2
272
     2
274
     3
278
    44
283
     0
284
     8
340
11
  0
ENDTAB
  0
TABLE
  2
BLOCK_RECORD
  5
1
330
0
100
AcDbSymbolTable
 70
     1
  0
BLOCK_RECORD
  5
1F
330
1
100
AcDbSymbolTableRecord
100
AcDbBlockTableRecord
  2
*Model_Space
340
22
 70
     0
280
     1
281
     0
  0
BLOCK_RECORD
  5
1B
330
1
100
AcDbSymbolTableRecord
100
AcDbBlockTableRecord
  2
*Paper_Space
340
1E
 70
     0
280
     1
281
     0
  0
BLOCK_RECORD
  5
23
330
1
100
AcDbSymbolTableRecord
100
AcDbBlockTableRecord
  2
*Paper_Space0
340
26
 70
     0
280
     1
281
     0
  0
ENDTAB
  0
ENDSEC
  0
SECTION
  2
BLOCKS
  0
BLOCK
  5
20
330
1F
100
AcDbEntity
  8
0
100
AcDbBlockBegin
  2
*Model_Space
 70
     0
 10
0.0
 20
0.0
 30
0.0
  3
*Model_Space
  1

  0
ENDBLK
  5
21
330
1F
100
AcDbEntity
  8
0
100
AcDbBlockEnd
  0
BLOCK
  5
1C
330
1B
100
AcDbEntity
 67
     1
  8
0
100
AcDbBlockBegin
  2
*Paper_Space
 70
     0
 10
0.0
 20
0.0
 30
0.0
  3
*Paper_Space
  1

  0
ENDBLK
  5
1D
330
1B
100
AcDbEntity
 67
     1
  8
0
100
AcDbBlockEnd
  0
BLOCK
  5
24
330
23
100
AcDbEntity
  8
0
100
AcDbBlockBegin
  2
*Paper_Space0
 70
     0
 10
0.0
 20
0.0
 30
0.0
  3
*Paper_Space0
  1

  0
ENDBLK
  5
25
330
23
100
AcDbEntity
  8
0
100
AcDbBlockEnd
  0
ENDSEC
  0
SECTION
  2
ENTITIES
  0
LINE
  5
74
330
1F
100
AcDbEntity
  8
0
  6
Continuous
 62
     7
370
    25
100
AcDbLine
 10
413.9213381779
 20
427.8116433153
 30
0.0
 11
430.0887756302
 21
443.9790808662
 31
0.0
  0
SPLINE
  5
75
330
1F
100
AcDbEntity
  8
0
  6
Continuous
 62
     7
370
    25
100
AcDbSpline
210
0.0
220
0.0
230
1.0
 70
     8
 71
     3
 72
    27
 73
    23
 74
     0
 42
0.00000001
 43
0.00000001
 40
0.0
 40
0.0
 40
0.0
 40
0.0
 40
0.0379429266673426
 40
0.0759628774754893
 40
0.114060462610724
 40
0.1522362885364284
 40
0.1904909579945824
 40
0.2288250700078372
 40
0.2672392198821372
 40
0.3057339992098913
 40
0.3443099958736918
 40
0.3829677940505691
 40
0.4217079742167346
 40
0.4605311131528321
 40
0.4994377839497334
 40
0.5681989973164473
 40
0.6378714244424832
 40
0.7084579810946676
 40
0.7799614707969491
 40
0.852384590175148
 40
0.9257299340076807
 40
1.0
 40
1.0
 40
1.0
 40
1.0
 10
438.5503750409927
 20
440.4863438214804
 30
0.0
 10
438.4656360366648
 20
440.5696286492641
 30
0.0
 10
438.2959860078308
 20
440.7363673730311
 30
0.0
 10
438.0318764557101
 20
440.9769011678733
 30
0.0
 10
437.760635750269
 20
441.2104218916677
 30
0.0
 10
437.4817727597788
 20
441.4359827761884
 30
0.0
 10
437.1956814967893
 20
441.6535179696534
 30
0.0
 10
436.9025293019006
 20
441.862731134943
 30
0.0
 10
436.6025555553712
 20
442.0633945639681
 30
0.0
 10
436.2959912294884
 20
442.2552691893526
 30
0.0
 10
435.9830804533923
 20
442.4381264573943
 30
0.0
 10
435.6640742085841
 20
442.6117429437092
 30
0.0
 10
435.339233132643
 20
442.7759018339492
 30
0.0
 10
435.0088217517642
 20
442.9303942772652
 30
0.0
 10
434.5875066854044
 20
443.1119007360371
 30
0.0
 10
434.0684176281683
 20
443.3099058611858
 30
0.0
 10
433.4448368216695
 20
443.509671472394
 30
0.0
 10
432.8028827579234
 20
443.6769437398896
 30
0.0
 10
432.1441594365708
 20
443.8101244761365
 30
0.0
 10
431.4704296419197
 20
443.9064884784183
 30
0.0
 10
430.783628235023
 20
443.9679107652926
 30
0.0
 10
430.321358498552
 20
443.9753419816852
 30
0.0
 10
430.088775708756
 20
443.9790808659423
 30
0.0
  0
SPLINE
  5
76
330
1F
100
AcDbEntity
  8
0
  6
Continuous
 62
     7
370
    25
100
AcDbSpline
210
0.0
220
0.0
230
1.0
 70
     8
 71
     3
 72
    28
 73
    24
 74
     0
 42
0.00000001
 43
0.00000001
 40
0.0
 40
0.0
 40
0.0
 40
0.0
 40
0.0372538734538319
 40
0.0742763091319246
 40
0.1110676112564034
 40
0.147628089825835
 40
0.1839580607542061
 40
0.2200578460137386
 40
0.2559277737818147
 40
0.2915681785920547
 40
0.3269794014897076
 40
0.3621617901914869
 40
0.3971156992499956
 40
0.431841490222851
 40
0.466339531846732
 40
0.5006102002164133
 40
0.5727906424625763
 40
0.6446851617993712
 40
0.7162974595185286
 40
0.7876312808538535
 40
0.8586904150824114
 40
0.9294786956042769
 40
1.0
 40
1.0
 40
1.0
 40
1.0
 10
442.0431120854544
 20
432.0247444892437
 30
0.0
 10
442.0422078023043
 20
432.141395329923
 30
0.0
 10
442.0404048538167
 20
432.3739723239241
 30
0.0
 10
442.0249302800715
 20
432.7214677635079
 30
0.0
 10
442.0003291405674
 20
433.0662233368154
 30
0.0
 10
441.9658876730406
 20
433.4079708546288
 30
0.0
 10
441.9220541850059
 20
433.7464520407685
 30
0.0
 10
441.8689755728389
 20
434.0814195617651
 30
0.0
 10
441.8068851732576
 20
434.4126367674507
 30
0.0
 10
441.7359992307705
 20
434.7398777426645
 30
0.0
 10
441.6565437838414
 20
435.0629272860449
 30
0.0
 10
441.5687470094939
 20
435.3815807718461
 30
0.0
 10
441.4728405295415
 20
435.695644450534
 30
0.0
 10
441.3690591620219
 20
436.0049340344045
 30
0.0
 10
441.2576381082441
 20
436.3092795586565
 30
0.0
 10
441.0947487374737
 20
436.7195010573642
 30
0.0
 10
440.8669729606419
 20
437.2297271696802
 30
0.0
 10
440.5569849216349
 20
437.8301374332931
 30
0.0
 10
440.2148595591844
 20
438.4097524944019
 30
0.0
 10
439.842211558675
 20
438.9671285699472
 30
0.0
 10
439.4399018295238
 20
439.50012062011
 30
0.0
 10
439.0118993150862
 20
440.0097226412676
 30
0.0
 10
438.7040225752351
 20
440.3276703275429
 30
0.0
 10
438.5503750409927
 20
440.4863438214804
 30
0.0
  0
LINE
  5
77
330
1F
100
AcDbEntity
  8
0
  6
Continuous
 62
     7
370
    25
100
AcDbLine
 10
442.0431120858
 20
432.0247443958
 30
0.0
 11
425.87567452
 21
415.8573068982
 31
0.0
  0
SPLINE
  5
78
330
1F
100
AcDbEntity
  8
0
  6
Continuous
 62
     7
370
    25
100
AcDbSpline
210
0.0
220
0.0
230
1.0
 70
     8
 71
     3
 72
     8
 73
     4
 74
     0
 42
0.00000001
 43
0.00000001
 40
0.0
 40
0.0
 40
0.0
 40
0.0
 40
1.0
 40
1.0
 40
1.0
 40
1.0
 10
425.875674537502
 20
415.8573069327525
 30
0.0
 10
425.8756179364225
 20
415.8647678832205
 30
0.0
 10
425.8755542789302
 20
415.8722286767135
 30
0.0
 10
425.8754835654991
 20
415.8796892997178
 30
0.0
  0
SPLINE
  5
79
330
1F
100
AcDbEntity
  8
0
  6
Continuous
 62
     7
370
    25
100
AcDbSpline
210
0.0
220
0.0
230
1.0
 70
     8
 71
     3
 72
    31
 73
    27
 74
     0
 42
0.00000001
 43
0.00000001
 40
0.0
 40
0.0
 40
0.0
 40
0.0
 40
0.0185024119734811
 40
0.0369059927815773
 40
0.0552111548199795
 40
0.0734183300727983
 40
0.0915279691244184
 40
0.1095405401873677
 40
0.1274565281461975
 40
0.1452764336175184
 40
0.1630007720261731
 40
0.1806300726976214
 40
0.1981648779665767
 40
0.2156057423019421
 40
0.2329532314481094
 40
0.2502079215826361
 40
0.3756382335596318
 40
0.5000270157175732
 40
0.6238050129015273
 40
0.7498460329904745
 40
0.8117280965721647
 40
0.8749044020833975
 40
0.9054529972184249
 40
0.9364838461908818
 40
0.9679989225871836
 40
1.0
 40
1.0
 40
1.0
 40
1.0
 10
425.875483565498
 20
415.8796893018574
 30
0.0
 10
425.8734366720707
 20
415.9947090510457
 30
0.0
 10
425.8693538187559
 20
416.2241341681261
 30
0.0
 10
425.8507191782822
 20
416.5670458542474
 30
0.0
 10
425.8231363489989
 20
416.9075446343167
 30
0.0
 10
425.7858863407216
 20
417.245370354118
 30
0.0
 10
425.7393906009472
 20
417.5802746411429
 30
0.0
 10
425.6837737320195
 20
417.9120184641532
 30
0.0
 10
425.6192449501835
 20
418.2403727312489
 30
0.0
 10
425.5459961726966
 20
418.5651180158318
 30
0.0
 10
425.464228484365
 20
418.8860446596095
 30
0.0
 10
425.37414493553
 20
419.2029521505402
 30
0.0
 10
425.2759506926384
 20
419.5156509257155
 30
0.0
 10
425.1698572309346
 20
419.8239551908074
 30
0.0
 10
425.0560633403869
 20
420.1277089297527
 30
0.0
 10
424.6812478602808
 20
421.0520176774686
 30
0.0
 10
423.8828532422225
 20
422.5277331934636
 30
0.0
 10
422.3899740577862
 20
424.3364828367884
 30
0.0
 10
420.576110633142
 20
425.8293390518126
 30
0.0
 10
418.8530775634163
 20
426.7584459607373
 30
0.0
 10
417.3807508701483
 20
427.2937359548175
 30
0.0
 10
416.4404558245261
 20
427.5353753166135
 30
0.0
 10
415.6760624542105
 20
427.6735708191272
 30
0.0
 10
415.1015105876467
 20
427.7487112448348
 30
0.0
 10
414.5151704223007
 20
427.7985826741515
 30
0.0
 10
414.1202894007331
 20
427.8072676189187
 30
0.0
 10
413.9213381516066
 20
427.8116433182197
 30
0.0
  0
SPLINE
  5
7A
330
1F
100
AcDbEntity
  8
0
  6
Continuous
 62
     7
370
    25
100
AcDbSpline
210
0.0
220
0.0
230
1.0
 70
     8
 71
     3
 72
    27
 73
    23
 74
     0
 42
0.00000001
 43
0.00000001
 40
0.0
 40
0.0
 40
0.0
 40
0.0
 40
0.0379432834462661
 40
0.0759635315695308
 40
0.1140613545543479
 40
0.1522373588652412
 40
0.1904921472481745
 40
0.228826318732563
 40
0.2672404686338739
 40
0.3057351885567002
 40
0.3443110663985018
 40
0.38296868635374
 40
0.4217086289186386
 40
0.4605314708963603
 40
0.4994377854027457
 40
0.568199684824819
 40
0.6378725693763466
 40
0.7084593547189162
 40
0.779962844303568
 40
0.8523857347125159
 40
0.9257306207071716
 40
0.9999999999999999
 40
0.9999999999999999
 40
0.9999999999999999
 40
0.9999999999999999
 10
105.6955761837166
 20
440.4863438170444
 30
0.0
 10
105.612290579207
 20
440.4016040093114
 30
0.0
 10
105.4455504325243
 20
440.2319525064561
 30
0.0
 10
105.2050148616105
 20
439.967840791514
 30
0.0
 10
104.9714928392838
 20
439.6965982545807
 30
0.0
 10
104.7459311107909
 20
439.4177337901437
 30
0.0
 10
104.5283954897872
 20
439.1316414479036
 30
0.0
 10
104.3191822760714
 20
438.8384886005681
 30
0.0
 10
104.1185191377545
 20
438.5385146589009
 30
0.0
 10
103.9266451004425
 20
438.2319506232136
 30
0.0
 10
103.7437886742546
 20
437.9190406482289
 30
0.0
 10
103.5701732382155
 20
437.6000357384838
 30
0.0
 10
103.406015560057
 20
437.2751965518411
 30
0.0
 10
103.2515244413704
 20
436.9447876323558
 30
0.0
 10
103.0700180257012
 20
436.5234724379468
 30
0.0
 10
102.8720121793384
 20
436.0043810103909
 30
0.0
 10
102.6722457096665
 20
435.3807959612939
 30
0.0
 10
102.5049735294814
 20
434.7388396512973
 30
0.0
 10
102.3717934934498
 20
434.0801161892918
 30
0.0
 10
102.2754304456876
 20
433.4063884320832
 30
0.0
 10
102.2140090442814
 20
432.719591274359
 30
0.0
 10
102.2065779553283
 20
432.2573251231866
 30
0.0
 10
102.2028391407704
 20
432.0247444843927
 30
0.0
  0
SPLINE
  5
7B
330
1F
100
AcDbEntity
  8
0
  6
Continuous
 62
     7
370
    25
100
AcDbSpline
210
0.0
220
0.0
230
1.0
 70
     8
 71
     3
 72
    28
 73
    24
 74
     0
 42
0.00000001
 43
0.00000001
 40
0.0
 40
0.0
 40
0.0
 40
0.0
 40
0.0372542459090951
 40
0.0742769967303166
 40
0.1110685566855481
 40
0.1476292357745595
 40
0.1839593499139847
 40
0.2200592210802531
 40
0.2559291774565658
 40
0.2915695535840796
 40
0.326980690517359
 40
0.3621629359843306
 40
0.3971166445507623
 40
0.4318421777895356
 40
0.4663399044547383
 40
0.5006102006608393
 40
0.5727912573324101
 40
0.6446861864457347
 40
0.7162986891532342
 40
0.7876325105796453
 40
0.8586914399242336
 40
0.9294793105415601
 40
1.0
 40
1.0
 40
1.0
 40
1.0
 10
114.1571755166833
 20
443.9790808592376
 30
0.0
 10
114.040523509725
 20
443.9781765579725
 30
0.0
 10
113.8079443626239
 20
443.9763735747026
 30
0.0
 10
113.4604459705909
 20
443.9608987238653
 30
0.0
 10
113.1156879963973
 20
443.9362971982458
 30
0.0
 10
112.773938631648
 20
443.9018552679116
 30
0.0
 10
112.435456152197
 20
443.8580212909694
 30
0.0
 10
112.1004878885646
 20
443.8049422093321
 30
0.0
 10
111.7692704854366
 20
443.7428514053565
 30
0.0
 10
111.4420298500536
 20
443.6719651680186
 30
0.0
 10
111.1189811735142
 20
443.5925095792288
 30
0.0
 10
110.8003290690696
 20
443.5047128582703
 30
0.0
 10
110.4862672715902
 20
443.4088066680415
 30
0.0
 10
110.1769800521998
 20
443.3050258660701
 30
0.0
 10
109.8726373567766
 20
443.193605692743
 30
0.0
 10
109.4624161032959
 20
443.030716322413
 30
0.0
 10
108.9521881846636
 20
442.8029395642153
 30
0.0
 10
108.3517747013164
 20
442.4929493594959
 30
0.0
 10
107.7721582828393
 20
442.150822503516
 30
0.0
 10
107.2147825632774
 20
441.7781739706541
 30
0.0
 10
106.6817923984052
 20
441.3758649421576
 30
0.0
 10
106.1721936116347
 20
440.9478645789381
 30
0.0
 10
105.8542482731406
 20
440.6399900316238
 30
0.0
 10
105.6955761837166
 20
440.4863438170444
 30
0.0
  0
LINE
  5
7C
330
1F
100
AcDbEntity
  8
0
  6
Continuous
 62
     7
370
    25
100
AcDbLine
 10
114.1571755893
 20
443.9790808662
 30
0.0
 11
130.3246130416
 21
427.8116433153
 31
0.0
  0
SPLINE
  5
7D
330
1F
100
AcDbEntity
  8
0
  6
Continuous
 62
     7
370
    25
100
AcDbSpline
210
0.0
220
0.0
230
1.0
 70
     8
 71
     3
 72
    27
 73
    23
 74
     0
 42
0.00000001
 43
0.00000001
 40
0.0
 40
0.0
 40
0.0
 40
0.0
 40
0.0183480200306121
 40
0.0365369235329459
 40
0.0545670173271696
 40
0.0724386313313699
 40
0.0901521174093759
 40
0.107707848251138
 40
0.1251062162860192
 40
0.1882838792593357
 40
0.2501667292965365
 40
0.3762077765629935
 40
0.4999893139306579
 40
0.6243743000406559
 40
0.7498119750799955
 40
0.7844058623723832
 40
0.8193750575059691
 40
0.8547240404770992
 40
0.8904570956610858
 40
0.9265782834039563
 40
0.9630914105626641
 40
1.0
 40
1.0
 40
1.0
 40
1.0
 10
130.3246130723558
 20
427.8116433190746
 30
0.0
 10
130.2104165930364
 20
427.8098318297241
 30
0.0
 10
129.9830139618171
 20
427.8062245605054
 30
0.0
 10
129.6436711300123
 20
427.7885449118153
 30
0.0
 10
129.3078346795727
 20
427.7622062037693
 30
0.0
 10
128.975746440559
 20
427.7265999574328
 30
0.0
 10
128.6476366317564
 20
427.6822324435121
 30
0.0
 10
128.3237090258403
 20
427.6293146000768
 30
0.0
 10
127.7229998466955
 20
427.5143261373405
 30
0.0
 10
126.861141194325
 20
427.2925102732814
 30
0.0
 10
125.3872985303722
 20
426.7560134969705
 30
0.0
 10
123.6626984957316
 20
425.824754820861
 30
0.0
 10
121.8478977782503
 20
424.3286647042103
 30
0.0
 10
120.3550415680698
 20
422.5160796567075
 30
0.0
 10
119.5059367763792
 20
420.9418261283107
 30
0.0
 10
119.065464716739
 20
419.8073154894271
 30
0.0
 10
118.8617588597723
 20
419.1850514243495
 30
0.0
 10
118.6906759050463
 20
418.5459753182023
 30
0.0
 10
118.5535745424807
 20
417.8916027123663
 30
0.0
 10
118.4529917914441
 20
417.2236741492189
 30
0.0
 10
118.3869139287747
 20
416.5440670254282
 30
0.0
 10
118.3758423082469
 20
416.0870474893392
 30
0.0
 10
118.3702766811353
 20
415.857306927495
 30
0.0
  0
LINE
  5
7E
330
1F
100
AcDbEntity
  8
0
  6
Continuous
 62
     7
370
    25
100
AcDbLine
 10
118.3702766997
 20
415.8573068982
 30
0.0
 11
102.2028391338
 21
432.0247443958
 31
0.0
  0
SPLINE
  5
7F
330
1F
100
AcDbEntity
  8
0
  6
Continuous
 62
     7
370
    25
100
AcDbSpline
210
0.0
220
0.0
230
1.0
 70
     8
 71
     3
 72
    27
 73
    23
 74
     0
 42
0.00000001
 43
0.00000001
 40
0.0
 40
0.0
 40
0.0
 40
0.0
 40
0.0379432834807876
 40
0.075963531638769
 40
0.1140613546586104
 40
0.1522373590049694
 40
0.1904921474239289
 40
0.2288263189450288
 40
0.2672404688838327
 40
0.3057351888450848
 40
0.3443110667263412
 40
0.3829686867221914
 40
0.4217086293289597
 40
0.4605314713499447
 40
0.4994377859010946
 40
0.568199685271964
 40
0.6378725697636327
 40
0.7084593550389189
 40
0.7799628445500677
 40
0.8523857348804461
 40
0.9257306207925791
 40
1.0
 40
1.0
 40
1.0
 40
1.0
 10
105.6955761818551
 20
47.63154496418414
 30
0.0
 10
105.7803159895896
 20
47.548259359665
 30
0.0
 10
105.9499674924481
 20
47.38151921296296
 30
0.0
 10
106.2140792074115
 20
47.14098364203595
 30
0.0
 10
106.4853217443791
 20
46.9074616197078
 30
0.0
 10
106.7641862088639
 20
46.68189989122617
 30
0.0
 10
107.0502785511652
 20
46.46436427024641
 30
0.0
 10
107.3434313985754
 20
46.25515105656686
 30
0.0
 10
107.6434053403308
 20
46.05448791829908
 30
0.0
 10
107.9499693761194
 20
45.86261388104834
 30
0.0
 10
108.26287935122
 20
45.67975745493658
 30
0.0
 10
108.5818842610911
 20
45.5061420189776
 30
0.0
 10
108.9067234478851
 20
45.34198434094505
 30
0.0
 10
109.237132367491
 20
45.18749322227275
 30
0.0
 10
109.6584475618954
 20
45.00598680738558
 30
0.0
 10
110.1775389878122
 20
44.80798095842872
 30
0.0
 10
110.801124035415
 20
44.60821448737071
 30
0.0
 10
111.4430803438208
 20
44.44094230545062
 30
0.0
 10
112.1018038043374
 20
44.30776226785335
 30
0.0
 10
112.7755315601066
 20
44.21139921855499
 30
0.0
 10
113.4623287164484
 20
44.14997781567428
 30
0.0
 10
113.9245948667619
 20
44.14254672579551
 30
0.0
 10
114.1571755051209
 20
44.13880791077182
 30
0.0
  0
SPLINE
  5
80
330
1F
100
AcDbEntity
  8
0
  6
Continuous
 62
     7
370
    25
100
AcDbSpline
210
0.0
220
0.0
230
1.0
 70
     8
 71
     3
 72
    28
 73
    24
 74
     0
 42
0.00000001
 43
0.00000001
 40
0.0
 40
0.0
 40
0.0
 40
0.0
 40
0.037254245866104
 40
0.0742769966449181
 40
0.1110685565584681
 40
0.1476292356066504
 40
0.1839593497062367
 40
0.2200592208337996
 40
0.2559291771726637
 40
0.2915695532641409
 40
0.3269806901629463
 40
0.3621629355971392
 40
0.3971166441326554
 40
0.4318421773425163
 40
0.4663399039809784
 40
0.500610200162668
 40
0.5727912569161245
 40
0.6446861861065165
 40
0.7162986888869924
 40
0.7876325103830497
 40
0.8586914397947161
 40
0.9294793104773189
 40
1.0
 40
1.0
 40
1.0
 40
1.0
 10
102.2028391302644
 20
56.09314428820125
 30
0.0
 10
102.2037434317465
 20
55.97649228145959
 30
0.0
 10
102.2055464154491
 20
55.74391313478952
 30
0.0
 10
102.2210212669575
 20
55.3964147434251
 30
0.0
 10
102.2456227932618
 20
55.05165676991222
 30
0.0
 10
102.2800647242959
 20
54.70990740585782
 30
0.0
 10
102.3238987019529
 20
54.37142492711519
 30
0.0
 10
102.3769777843203
 20
54.03645666420512
 30
0.0
 10
102.4390685890407
 20
53.70523926181301
 30
0.0
 10
102.5099548271387
 20
53.37799862717996
 30
0.0
 10
102.5894104167029
 20
53.05494995140395
 30
0.0
 10
102.6772071384527
 20
52.73629784773737
 30
0.0
 10
102.7731133294806
 20
52.42223605104726
 30
0.0
 10
102.8768941322934
 20
52.11294883247072
 30
0.0
 10
102.9883143063752
 20
51.80860613783519
 30
0.0
 10
103.1512036784273
 20
51.39838488527587
 30
0.0
 10
103.3789804352284
 20
50.88815696617344
 30
0.0
 10
103.6889706400372
 20
50.28774348265303
 30
0.0
 10
104.0310974957182
 20
49.70812706388708
 30
0.0
 10
104.4037460284438
 20
49.15075134412089
 30
0.0
 10
104.8060550568207
 20
48.61776117907668
 30
0.0
 10
105.2340554199724
 20
48.10816239217722
 30
0.0
 10
105.5419299672799
 20
47.7902170536324
 30
0.0
 10
105.6955761818551
 20
47.63154496418414
 30
0.0
  0
LINE
  5
81
330
1F
100
AcDbEntity
  8
0
  6
Continuous
 62
     7
370
    25
100
AcDbLine
 10
102.2028391338
 20
56.0931443847
 30
0.0
 11
117.9173935878
 21
71.8076986128
 31
0.0
  0
SPLINE
  5
82
330
1F
100
AcDbEntity
  8
0
  6
Continuous
 62
     7
370
    25
100
AcDbSpline
210
0.0
220
0.0
230
1.0
 70
     8
 71
     3
 72
    27
 73
    23
 74
     0
 42
0.00000001
 43
0.00000001
 40
0.0
 40
0.0
 40
0.0
 40
0.0
 40
0.0183454347259159
 40
0.036532610609691
 40
0.0545618369685801
 40
0.0724334461664051
 40
0.0901477924638443
 40
0.1077052509010476
 40
0.1251062162129466
 40
0.1882799437278203
 40
0.2501667290031774
 40
0.3761954666850832
 40
0.4999893156985458
 40
0.6243625481151824
 40
0.7498119759501073
 40
0.784398389487911
 40
0.8193626134871353
 40
0.8547091225372916
 40
0.8904421942095364
 40
0.9265658805818877
 40
0.9630839787028941
 40
1.0
 40
1.0
 40
1.0
 40
1.0
 10
117.9173935717543
 20
71.80769874133941
 30
0.0
 10
117.9192046764328
 20
71.69351835410703
 30
0.0
 10
117.9228112621028
 20
71.46614256888603
 30
0.0
 10
117.9404873391956
 20
71.1268318849531
 30
0.0
 10
117.9668223082751
 20
70.79101140436386
 30
0.0
 10
118.0024258574719
 20
70.45892297222255
 30
0.0
 10
118.0467930932852
 20
70.13079689821622
 30
0.0
 10
118.0997143961184
 20
69.80683711958122
 30
0.0
 10
118.2147021032266
 20
69.20612530484021
 30
0.0
 10
118.4365192759549
 20
68.34425056355845
 30
0.0
 10
118.9729854643571
 20
66.87047804469503
 30
0.0
 10
119.9042375154895
 20
65.14585046799343
 30
0.0
 10
121.4002659260407
 20
63.33108917979885
 30
0.0
 10
123.2128939160682
 20
61.83816979274786
 30
0.0
 10
124.7871011618315
 20
60.98907122387093
 30
0.0
 10
125.9216049625098
 20
60.54859423121484
 30
0.0
 10
126.5437773360203
 20
60.34490767986311
 30
0.0
 10
127.1828050582741
 20
60.17382307532112
 30
0.0
 10
127.8371748404924
 20
60.03670642016748
 30
0.0
 10
128.5051475584703
 20
59.93610257839593
 30
0.0
 10
129.1848463475144
 20
59.87000482764954
 30
0.0
 10
129.6419431198404
 20
59.85892984839861
 30
0.0
 10
129.8717299589246
 20
59.85336235234734
 30
0.0
  0
LINE
  5
83
330
1F
100
AcDbEntity
  8
0
  6
Continuous
 62
     7
370
    25
100
AcDbLine
 10
129.871729881
 20
59.8533623614
 30
0.0
 11
114.1571755893
 21
44.1388079142
 31
0.0
  0
SPLINE
  5
84
330
1F
100
AcDbEntity
  8
0
  6
Continuous
 62
     7
370
    25
100
AcDbSpline
210
0.0
220
0.0
230
1.0
 70
     8
 71
     3
 72
    27
 73
    23
 74
     0
 42
0.00000001
 43
0.00000001
 40
0.0
 40
0.0
 40
0.0
 40
0.0
 40
0.0379432834807421
 40
0.0759635316386748
 40
0.1140613546584758
 40
0.1522373590047881
 40
0.1904921474236996
 40
0.2288263189447537
 40
0.2672404688835163
 40
0.3057351888447163
 40
0.3443110667259231
 40
0.3829686867217209
 40
0.4217086293284475
 40
0.460531471349376
 40
0.4994377859004735
 40
0.5681996855835336
 40
0.6378725702832065
 40
0.7084593556624004
 40
0.7799628451734407
 40
0.8523857353998068
 40
0.9257306211041134
 40
1.0
 40
1.0
 40
1.0
 40
1.0
 10
438.5503750362033
 20
47.63154496282759
 30
0.0
 10
438.6336606407193
 20
47.7162847705675
 30
0.0
 10
438.800400787415
 20
47.88593627343685
 30
0.0
 10
439.0409363583318
 20
48.15004798841638
 30
0.0
 10
439.2744583806495
 20
48.42129052539962
 30
0.0
 10
439.5000201091202
 20
48.70015498989979
 30
0.0
 10
439.7175557300883
 20
48.98624733221624
 30
0.0
 10
439.9267689437558
 20
49.27940017964127
 30
0.0
 10
440.1274320820111
 20
49.579374121411
 30
0.0
 10
440.3193061192491
 20
49.88593815721379
 30
0.0
 10
440.5021625453473
 20
50.19884813232795
 30
0.0
 10
440.6757779812926
 20
50.51785304221243
 30
0.0
 10
440.8399356593107
 20
50.84269222901924
 30
0.0
 10
440.994426777969
 20
51.17310114863746
 30
0.0
 10
441.1759331932208
 20
51.5944163439562
 30
0.0
 10
441.3739390426954
 20
52.11350777143234
 30
0.0
 10
441.5737055141302
 20
52.73709282098086
 30
0.0
 10
441.7409776959886
 20
53.37904913042419
 30
0.0
 10
441.8741577332339
 20
54.03777259102208
 30
0.0
 10
441.970520782055
 20
54.71150034588224
 30
0.0
 10
442.0319421844816
 20
55.39829750030967
 30
0.0
 10
442.0393732742621
 20
55.86056364900269
 30
0.0
 10
442.0431120892339
 20
56.09314428638893
 30
0.0
  0
SPLINE
  5
85
330
1F
100
AcDbEntity
  8
0
  6
Continuous
 62
     7
370
    25
100
AcDbSpline
210
0.0
220
0.0
230
1.0
 70
     8
 71
     3
 72
    28
 73
    24
 74
     0
 42
0.00000001
 43
0.00000001
 40
0.0
 40
0.0
 40
0.0
 40
0.0
 40
0.0372542458726585
 40
0.0742769966710056
 40
0.1110685566170781
 40
0.1476292357107831
 40
0.1839593498688979
 40
0.2200592210679762
 40
0.2559291774913919
 40
0.2915695536804342
 40
0.3269806906898224
 40
0.3621629362476326
 40
0.3971166449197976
 40
0.4318421782793488
 40
0.4663399050805385
 40
0.5006102014379983
 40
0.5727912578531783
 40
0.6446861867572451
 40
0.7162986893034264
 40
0.7876325106172364
 40
0.8586914398987244
 40
0.9294793105032644
 40
1.0
 40
1.0
 40
1.0
 40
1.0
 10
430.0887757122442
 20
44.1388079107555
 30
0.0
 10
430.205427719008
 20
44.139712212244
 30
0.0
 10
430.4380068657625
 20
44.14151519595974
 30
0.0
 10
430.7855052573136
 20
44.15699004750046
 30
0.0
 10
431.1302632311338
 20
44.18159157385795
 30
0.0
 10
431.472012595614
 20
44.2160335049781
 30
0.0
 10
431.8104950748993
 20
44.25986748276295
 30
0.0
 10
432.1454633384659
 20
44.31294656531032
 30
0.0
 10
432.4766807416258
 20
44.37503737027196
 30
0.0
 10
432.803921377134
 20
44.44592360868197
 30
0.0
 10
433.1269700538884
 20
44.525379198638
 30
0.0
 10
433.4456221586323
 20
44.6131759208675
 30
0.0
 10
433.7596839564937
 20
44.70908211247179
 30
0.0
 10
434.06897117633
 20
44.81286291596573
 30
0.0
 10
434.3733138723087
 20
44.92428309083932
 30
0.0
 10
434.7835351247088
 20
45.08717246331192
 30
0.0
 10
435.2937630423339
 20
45.31494921997734
 30
0.0
 10
435.8941765232649
 20
45.62493942394946
 30
0.0
 10
436.4737929399849
 20
45.96706627877595
 30
0.0
 10
437.031168658222
 20
46.33971481071886
 30
0.0
 10
437.5641588222241
 20
46.74202383845805
 30
0.0
 10
438.0737576085234
 20
47.17002420119468
 30
0.0
 10
438.3917029468203
 20
47.47789874829783
 30
0.0
 10
438.5503750362033
 20
47.63154496282759
 30
0.0
  0
LINE
  5
86
330
1F
100
AcDbEntity
  8
0
  6
Continuous
 62
     7
370
    25
100
AcDbLine
 10
430.0887756302
 20
44.1388079142
 30
0.0
 11
414.3742213385
 21
59.8533623614
 31
0.0
  0
SPLINE
  5
87
330
1F
100
AcDbEntity
  8
0
  6
Continuous
 62
     7
370
    25
100
AcDbSpline
210
0.0
220
0.0
230
1.0
 70
     8
 71
     3
 72
    31
 73
    27
 74
     0
 42
0.00000001
 43
0.00000001
 40
0.0
 40
0.0
 40
0.0
 40
0.0
 40
0.0185095956969579
 40
0.0369192661403629
 40
0.0552294217323594
 40
0.0734404926941043
 40
0.091552928068684
 40
0.1095671947403453
 40
0.1274837764701524
 40
0.1453031729480424
 40
0.1630258988614179
 40
0.1806524829802548
 40
0.1981834672588197
 40
0.2156194059540197
 40
0.2329608647604383
 40
0.2502084199621108
 40
0.375655838264739
 40
0.5000270787043707
 40
0.6238189445504411
 40
0.749845663262221
 40
0.8117314571163148
 40
0.8749041725932147
 40
0.9054560965774578
 40
0.9364880815126373
 40
0.968002118898083
 40
1.0
 40
1.0
 40
1.0
 40
1.0
 10
414.3742212626271
 20
59.85336235234124
 30
0.0
 10
414.4894254236017
 20
59.85519833816566
 30
0.0
 10
414.7192118084116
 20
59.85886039812585
 30
0.0
 10
415.0626761990102
 20
59.8769048443267
 30
0.0
 10
415.4037192909955
 20
59.90392758482441
 30
0.0
 10
415.7420812010791
 20
59.94064855470793
 30
0.0
 10
416.077511834565
 20
59.98664375438489
 30
0.0
 10
416.4097711369729
 20
60.04178690065143
 30
0.0
 10
416.7386289739577
 20
60.10586684944422
 30
0.0
 10
417.0638650449754
 20
60.17868980557214
 30
0.0
 10
417.3852689336289
 20
60.26005278831842
 30
0.0
 10
417.7026394938341
 20
60.34975085802133
 30
0.0
 10
418.0157866542414
 20
60.44757696956194
 30
0.0
 10
418.3245242053484
 20
60.55331777572736
 30
0.0
 10
418.6286959136879
 20
60.66677266449918
 30
0.0
 10
419.5546538709589
 20
61.04074027893567
 30
0.0
 10
421.0331267486055
 20
61.83820971579676
 30
0.0
 10
422.8456657945605
 20
63.33107782270878
 30
0.0
 10
424.3417230042859
 20
65.14585640379123
 30
0.0
 10
425.2729526652112
 20
66.8704687548983
 30
0.0
 10
425.8094533925249
 20
68.34426591868409
 30
0.0
 10
426.0516611199744
 20
69.28564323545584
 30
0.0
 10
426.1901783363256
 20
70.05093075012397
 30
0.0
 10
426.2654926163847
 20
70.62618202765245
 30
0.0
 10
426.315472941757
 20
71.21320173124928
 30
0.0
 10
426.3241739837891
 20
71.60852918390454
 30
0.0
 10
426.3285576477539
 20
71.80769874337714
 30
0.0
  0
LINE
  5
88
330
1F
100
AcDbEntity
  8
0
  6
Continuous
 62
     7
370
    25
100
AcDbLine
 10
426.3285576411
 20
71.8076986128
 30
0.0
 11
442.0431120858
 21
56.0931443847
 31
0.0
  0
SPLINE
  5
89
330
1F
100
AcDbEntity
  8
0
  6
Continuous
 62
     7
370
    25
100
AcDbSpline
210
0.0
220
0.0
230
1.0
 70
     8
 71
     3
 72
    14
 73
    10
 74
     0
 42
0.00000001
 43
0.00000001
 40
0.0
 40
0.0
 40
0.0
 40
0.0
 40
0.25
 40
0.25
 40
0.5
 40
0.5
 40
0.75
 40
0.75
 40
1.0
 40
1.0
 40
1.0
 40
1.0
 10
455.702341029756
 20
20.47272664424377
 30
0.0
 10
455.702341029756
 20
19.81846769224374
 30
0.0
 10
455.572485460756
 20
19.16483520824361
 30
0.0
 10
455.0725691927561
 20
17.95696300024391
 30
0.0
 10
454.702703817256
 20
17.40320278474375
 30
0.0
 10
453.7787172152561
 20
16.47921618274373
 30
0.0
 10
453.2249569997558
 20
16.10935080724393
 30
0.0
 10
452.0170847917562
 20
15.60943453924377
 30
0.0
 10
451.363452307756
 20
15.47957897024382
 30
0.0
 10
450.709193355756
 20
15.47957897024377
 30
0.0
  0
LINE
  5
8A
330
1F
100
AcDbEntity
  8
0
  6
Continuous
 62
     7
370
    25
100
AcDbLine
 10
93.5367578129
 20
15.4795789702
 30
0.0
 11
450.7091934066
 21
15.4795789702
 31
0.0
  0
SPLINE
  5
8B
330
1F
100
AcDbEntity
  8
0
  6
Continuous
 62
     7
370
    25
100
AcDbSpline
210
0.0
220
0.0
230
1.0
 70
     8
 71
     3
 72
    14
 73
    10
 74
     0
 42
0.00000001
 43
0.00000001
 40
0.0
 40
0.0
 40
0.0
 40
0.0
 40
0.25
 40
0.25
 40
0.5
 40
0.5
 40
0.75
 40
0.75
 40
1.0
 40
1.0
 40
1.0
 40
1.0
 10
93.53675786375601
 20
15.47957897024377
 30
0.0
 10
92.88249891175602
 20
15.47957897024374
 30
0.0
 10
92.22886642775599
 20
15.60943453924388
 30
0.0
 10
91.02099421975602
 20
16.10935080724379
 30
0.0
 10
90.46723400425599
 20
16.47921618274387
 30
0.0
 10
89.54324740225597
 20
17.40320278474361
 30
0.0
 10
89.17338202675593
 20
17.95696300024382
 30
0.0
 10
88.6734657587559
 20
19.16483520824369
 30
0.0
 10
88.54361018975595
 20
19.81846769224374
 30
0.0
 10
88.54361018975601
 20
20.47272664424377
 30
0.0
  0
LINE
  5
8C
330
1F
100
AcDbEntity
  8
0
  6
Continuous
 62
     7
370
    25
100
AcDbLine
 10
88.5436101898
 20
467.6451622642
 30
0.0
 11
88.5436101898
 21
20.4727265163
 31
0.0
  0
SPLINE
  5
8D
330
1F
100
AcDbEntity
  8
0
  6
Continuous
 62
     7
370
    25
100
AcDbSpline
210
0.0
220
0.0
230
1.0
 70
     8
 71
     3
 72
    14
 73
    10
 74
     0
 42
0.00000001
 43
0.00000001
 40
0.0
 40
0.0
 40
0.0
 40
0.0
 40
0.25
 40
0.25
 40
0.5
 40
0.5
 40
0.75
 40
0.75
 40
1.0
 40
1.0
 40
1.0
 40
1.0
 10
88.54361018975601
 20
467.6451621362438
 30
0.0
 10
88.54361018975604
 20
468.2994210882438
 30
0.0
 10
88.67346575875604
 20
468.9530535722439
 30
0.0
 10
89.17338202675596
 20
470.1609257802436
 30
0.0
 10
89.54324740225609
 20
470.7146859957438
 30
0.0
 10
90.46723400425594
 20
471.6386725977438
 30
0.0
 10
91.0209942197562
 20
472.0085379732436
 30
0.0
 10
92.22886642775588
 20
472.5084542412438
 30
0.0
 10
92.88249891175602
 20
472.6383098102438
 30
0.0
 10
93.53675786375601
 20
472.6383098102438
 30
0.0
  0
LINE
  5
8E
330
1F
100
AcDbEntity
  8
0
  6
Continuous
 62
     7
370
    25
100
AcDbLine
 10
450.7091934066
 20
472.6383098102
 30
0.0
 11
93.5367578129
 21
472.6383098102
 31
0.0
  0
SPLINE
  5
8F
330
1F
100
AcDbEntity
  8
0
  6
Continuous
 62
     7
370
    25
100
AcDbSpline
210
0.0
220
0.0
230
1.0
 70
     8
 71
     3
 72
    14
 73
    10
 74
     0
 42
0.00000001
 43
0.00000001
 40
0.0
 40
0.0
 40
0.0
 40
0.0
 40
0.25
 40
0.25
 40
0.5
 40
0.5
 40
0.75
 40
0.75
 40
1.0
 40
1.0
 40
1.0
 40
1.0
 10
450.709193355756
 20
472.6383098102438
 30
0.0
 10
451.363452307756
 20
472.6383098102438
 30
0.0
 10
452.0170847917561
 20
472.5084542412437
 30
0.0
 10
453.224956999756
 20
472.0085379732438
 30
0.0
 10
453.7787172152561
 20
471.6386725977437
 30
0.0
 10
454.7027038172561
 20
470.7146859957439
 30
0.0
 10
455.0725691927561
 20
470.1609257802437
 30
0.0
 10
455.5724854607561
 20
468.9530535722438
 30
0.0
 10
455.702341029756
 20
468.2994210882438
 30
0.0
 10
455.702341029756
 20
467.6451621362438
 30
0.0
  0
LINE
  5
90
330
1F
100
AcDbEntity
  8
0
  6
Continuous
 62
     7
370
    25
100
AcDbLine
 10
455.7023410298
 20
20.4727265163
 30
0.0
 11
455.7023410298
 21
467.6451622642
 31
0.0
  0
LINE
  5
91
330
1F
100
AcDbEntity
  8
0
  6
Continuous
 62
     7
370
    25
100
AcDbLine
 10
430.0887755659
 20
43.1426131001
 30
0.0
 11
114.1571756536
 21
43.1426131001
 31
0.0
  0
SPLINE
  5
92
330
1F
100
AcDbEntity
  8
0
  6
Continuous
 62
     7
370
    25
100
AcDbSpline
210
0.0
220
0.0
230
1.0
 70
     8
 71
     3
 72
    10
 73
     6
 74
     0
 42
0.00000001
 43
0.00000001
 40
0.0
 40
0.0
 40
0.0
 40
0.0
 40
0.5
 40
0.5
 40
1.0
 40
1.0
 40
1.0
 40
1.0
 10
430.088775708756
 20
43.14261321624377
 30
0.0
 10
431.7886826507561
 20
43.1426132162438
 30
0.0
 10
433.485337928256
 20
43.47894389824389
 30
0.0
 10
436.6189459462562
 20
44.77405086624386
 30
0.0
 10
438.0546556127561
 20
45.73231401724379
 30
0.0
 10
439.252130798756
 20
46.92978920124377
 30
0.0
  0
SPLINE
  5
93
330
1F
100
AcDbEntity
  8
0
  6
Continuous
 62
     7
370
    25
100
AcDbSpline
210
0.0
220
0.0
230
1.0
 70
     8
 71
     3
 72
    10
 73
     6
 74
     0
 42
0.00000001
 43
0.00000001
 40
0.0
 40
0.0
 40
0.0
 40
0.0
 40
0.5
 40
0.5
 40
1.0
 40
1.0
 40
1.0
 40
1.0
 10
439.252130798756
 20
46.92978920124377
 30
0.0
 10
440.449605982756
 20
48.12726438724377
 30
0.0
 10
441.407869133756
 20
49.56297405374377
 30
0.0
 10
442.702976101756
 20
52.6965820717438
 30
0.0
 10
443.039306783756
 20
54.39323734924378
 30
0.0
 10
443.039306783756
 20
56.09314429124379
 30
0.0
  0
LINE
  5
94
330
1F
100
AcDbEntity
  8
0
  6
Continuous
 62
     7
370
    25
100
AcDbLine
 10
443.0393066319
 20
432.024744634
 30
0.0
 11
443.0393066319
 21
56.0931441465
 31
0.0
  0
SPLINE
  5
95
330
1F
100
AcDbEntity
  8
0
  6
Continuous
 62
     7
370
    25
100
AcDbSpline
210
0.0
220
0.0
230
1.0
 70
     8
 71
     3
 72
    22
 73
    18
 74
     0
 42
0.00000001
 43
0.00000001
 40
0.0
 40
0.0
 40
0.0
 40
0.0
 40
0.0357420945467459
 40
0.0714149636392345
 40
0.107046825607964
 40
0.1426659962439197
 40
0.1783008215920846
 40
0.2139796103854548
 40
0.2497305669222427
 40
0.3745939955062658
 40
0.4995090750309951
 40
0.6244895388836924
 40
0.7495473076285228
 40
0.8122015214385601
 40
0.8747280998613552
 40
0.9372774963110077
 40
1.0
 40
1.0
 40
1.0
 40
1.0
 10
439.252130779026
 20
441.1880996086774
 30
0.0
 10
439.337140888957
 20
441.1017081914513
 30
0.0
 10
439.5069964608442
 20
440.929092680296
 30
0.0
 10
439.752271180548
 20
440.6614263252492
 30
0.0
 10
439.9901598314955
 20
440.3877734899992
 30
0.0
 10
440.2200108472945
 20
440.1074825626999
 30
0.0
 10
440.4419971919588
 20
439.820730963483
 30
0.0
 10
440.6560751193852
 20
439.5274629432332
 30
0.0
 10
441.0333056294791
 20
438.9790336694376
 30
0.0
 10
441.5317627564385
 20
438.1469581402503
 30
0.0
 10
442.0746107883168
 20
436.9958071860752
 30
0.0
 10
442.5030856688643
 20
435.7966358376588
 30
0.0
 10
442.7599088473746
 20
434.7660287990115
 30
0.0
 10
442.9047974750509
 20
433.9296731746425
 30
0.0
 10
442.9820500213252
 20
433.2976040048666
 30
0.0
 10
443.0303871617749
 20
432.6622657549744
 30
0.0
 10
443.0363307374843
 20
432.2374473530742
 30
0.0
 10
443.0393066319104
 20
432.0247446340219
 30
0.0
  0
SPLINE
  5
96
330
1F
100
AcDbEntity
  8
0
  6
Continuous
 62
     7
370
    25
100
AcDbSpline
210
0.0
220
0.0
230
1.0
 70
     8
 71
     3
 72
    22
 73
    18
 74
     0
 42
0.00000001
 43
0.00000001
 40
0.0
 40
0.0
 40
0.0
 40
0.0
 40
0.035873762966379
 40
0.0716700541367186
 40
0.1074168010900356
 40
0.1431420475964605
 40
0.1788738880493592
 40
0.2146404013035841
 40
0.2504695846962766
 40
0.3755273675049058
 40
0.5005078470627738
 40
0.6254229352099823
 40
0.7502863670665025
 40
0.8127974255402018
 40
0.8751522454527754
 40
0.9375025261420861
 40
1.0
 40
1.0
 40
1.0
 40
1.0
 10
430.0887755658962
 20
444.9752756803529
 30
0.0
 10
430.2104211569455
 20
444.9743028572134
 30
0.0
 10
430.4534496372353
 20
444.9723593118112
 30
0.0
 10
430.817411302373
 20
444.9565873520173
 30
0.0
 10
431.1803026799058
 20
444.9313949444311
 30
0.0
 10
431.5421238236962
 20
444.895864693469
 30
0.0
 10
431.9028715857747
 20
444.8502431376619
 30
0.0
 10
432.2625544907345
 20
444.7944603002416
 30
0.0
 10
432.9184289621888
 20
444.6739064427099
 30
0.0
 10
433.860686103401
 20
444.4390315520437
 30
0.0
 10
435.0598262026387
 20
444.0105847000344
 30
0.0
 10
436.2110192461276
 20
443.4677346223696
 30
0.0
 10
437.1209629698214
 20
442.9225448306592
 30
0.0
 10
437.8139181958338
 20
442.4353358595844
 30
0.0
 10
438.3144299163316
 20
442.0445003580971
 30
0.0
 10
438.7965568775742
 20
441.6310044342803
 30
0.0
 10
439.1001535002946
 20
441.3358505441846
 30
0.0
 10
439.252130779026
 20
441.1880996086774
 30
0.0
  0
LINE
  5
97
330
1F
100
AcDbEntity
  8
0
  6
Continuous
 62
     7
370
    25
100
AcDbLine
 10
114.1571756536
 20
444.9752756804
 30
0.0
 11
430.0887755659
 21
444.9752756804
 31
0.0
  0
SPLINE
  5
98
330
1F
100
AcDbEntity
  8
0
  6
Continuous
 62
     7
370
    25
100
AcDbSpline
210
0.0
220
0.0
230
1.0
 70
     8
 71
     3
 72
    22
 73
    18
 74
     0
 42
0.00000001
 43
0.00000001
 40
0.0
 40
0.0
 40
0.0
 40
0.0
 40
0.0357420940233972
 40
0.07141496324211
 40
0.1070468258749308
 40
0.1426659975994787
 40
0.1783008243462566
 40
0.2139796147331643
 40
0.2497305729433019
 40
0.3745939860983505
 40
0.4995090555363468
 40
0.6244895163752094
 40
0.7495472804532569
 40
0.8122014869105229
 40
0.8747280670066099
 40
0.9372774747806347
 40
1.0
 40
1.0
 40
1.0
 40
1.0
 10
104.993820440486
 20
441.1880996086774
 30
0.0
 10
105.080211872885
 20
441.2731097049095
 30
0.0
 10
105.2528274159242
 20
441.4429652509682
 30
0.0
 10
105.5204938023448
 20
441.6882399506995
 30
0.0
 10
105.7941466600644
 20
441.9261285990385
 30
0.0
 10
106.074437599922
 20
442.1559796301747
 30
0.0
 10
106.3611892009153
 20
442.3779660097848
 30
0.0
 10
106.6544572166632
 20
442.5920439845609
 30
0.0
 10
107.2028863802829
 20
442.9692746132129
 30
0.0
 10
108.0349619693206
 20
443.4677315418182
 30
0.0
 10
109.186112774731
 20
444.010579690914
 30
0.0
 10
110.3852840826055
 20
444.4390546906152
 30
0.0
 10
111.4158912239444
 20
444.6958772942932
 30
0.0
 10
112.2522467586697
 20
444.8407663218445
 30
0.0
 10
112.884315955113
 20
444.9180189704845
 30
0.0
 10
113.5196543318161
 20
444.9663561984863
 30
0.0
 10
113.9444728560727
 20
444.9722997818523
 30
0.0
 10
114.1571756536158
 20
444.9752756803529
 30
0.0
  0
SPLINE
  5
99
330
1F
100
AcDbEntity
  8
0
  6
Continuous
 62
     7
370
    25
100
AcDbSpline
210
0.0
220
0.0
230
1.0
 70
     8
 71
     3
 72
    22
 73
    18
 74
     0
 42
0.00000001
 43
0.00000001
 40
0.0
 40
0.0
 40
0.0
 40
0.0
 40
0.0358737493812991
 40
0.0716700303699418
 40
0.1074167704504311
 40
0.1431420132902724
 40
0.1788738531724927
 40
0.2146403688343627
 40
0.2504695574887572
 40
0.3755273449809433
 40
0.5005078275694088
 40
0.6254229258201045
 40
0.7502863731223511
 40
0.8127974287048744
 40
0.8751522462350567
 40
0.9375025256668094
 40
1.0
 40
1.0
 40
1.0
 40
1.0
 10
101.2066445876017
 20
432.0247446340219
 30
0.0
 10
101.2076174091672
 20
432.1463901759543
 30
0.0
 10
101.2095609515162
 20
432.3894185695572
 30
0.0
 10
101.2253328848739
 20
432.7533801224972
 30
0.0
 10
101.2505252493724
 20
433.1162714233689
 30
0.0
 10
101.2860554405331
 20
433.4780925257486
 30
0.0
 10
101.3316769154359
 20
433.8388402827501
 30
0.0
 10
101.3874596683349
 20
434.1985232149498
 30
0.0
 10
101.5080132345081
 20
434.854397768572
 30
0.0
 10
101.7428887047002
 20
435.7966548003835
 30
0.0
 10
102.1713354163672
 20
436.9957949459098
 30
0.0
 10
102.7141853898777
 20
438.1469881320501
 30
0.0
 10
103.2593753665972
 20
439.0569317957881
 30
0.0
 10
103.7465841734512
 20
439.7498871512422
 30
0.0
 10
104.1374196335768
 20
440.2503988586199
 30
0.0
 10
104.5509155542188
 20
440.7325257888796
 30
0.0
 10
104.8460694833759
 20
441.0361223557805
 30
0.0
 10
104.993820440486
 20
441.1880996086774
 30
0.0
  0
LINE
  5
9A
330
1F
100
AcDbEntity
  8
0
  6
Continuous
 62
     7
370
    25
100
AcDbLine
 10
101.2066445876
 20
56.0931441465
 30
0.0
 11
101.2066445876
 21
432.024744634
 31
0.0
  0
SPLINE
  5
9B
330
1F
100
AcDbEntity
  8
0
  6
Continuous
 62
     7
370
    25
100
AcDbSpline
210
0.0
220
0.0
230
1.0
 70
     8
 71
     3
 72
    10
 73
     6
 74
     0
 42
0.00000001
 43
0.00000001
 40
0.0
 40
0.0
 40
0.0
 40
0.0
 40
0.5
 40
0.5
 40
1.0
 40
1.0
 40
1.0
 40
1.0
 10
101.206644435756
 20
56.09314429124379
 30
0.0
 10
101.206644435756
 20
54.39323734924378
 30
0.0
 10
101.542975117756
 20
52.69658207174355
 30
0.0
 10
102.838082085756
 20
49.56297405374388
 30
0.0
 10
103.796345236756
 20
48.12726438724377
 30
0.0
 10
104.993820420756
 20
46.92978920124377
 30
0.0
  0
SPLINE
  5
9C
330
1F
100
AcDbEntity
  8
0
  6
Continuous
 62
     7
370
    25
100
AcDbSpline
210
0.0
220
0.0
230
1.0
 70
     8
 71
     3
 72
    10
 73
     6
 74
     0
 42
0.00000001
 43
0.00000001
 40
0.0
 40
0.0
 40
0.0
 40
0.0
 40
0.5
 40
0.5
 40
1.0
 40
1.0
 40
1.0
 40
1.0
 10
104.993820420756
 20
46.92978920124377
 30
0.0
 10
106.191295606756
 20
45.73231401724382
 30
0.0
 10
107.627005273256
 20
44.7740508662437
 30
0.0
 10
110.760613291256
 20
43.47894389824372
 30
0.0
 10
112.457268568756
 20
43.14261321624374
 30
0.0
 10
114.157175510756
 20
43.14261321624377
 30
0.0
  0
SPLINE
  5
9D
330
1F
100
AcDbEntity
  8
0
  6
Continuous
 62
     7
370
    25
100
AcDbSpline
210
0.0
220
0.0
230
1.0
 70
    24
 71
     3
 72
    14
 73
    10
 74
     0
 42
0.00000001
 43
0.00000001
 40
0.0
 40
0.0
 40
0.0
 40
0.0
 40
0.25
 40
0.25
 40
0.5
 40
0.5
 40
0.75
 40
0.75
 40
1.0
 40
1.0
 40
1.0
 40
1.0
 10
93.53675786305432
 20
14.48094943624412
 30
0.0
 10
93.53675786305502
 20
14.48695371873221
 30
0.0
 10
93.53675786305813
 20
14.51369718537385
 30
0.0
 10
93.53675786307022
 20
14.6174830225145
 30
0.0
 10
93.53675786307927
 20
14.69475938523793
 30
0.0
 10
93.53675786310184
 20
14.88768940490526
 30
0.0
 10
93.53675786311518
 20
15.00277795291688
 30
0.0
 10
93.53675786314314
 20
15.24168252429636
 30
0.0
 10
93.53675786315758
 20
15.36485320771494
 30
0.0
 10
93.53675786317098
 20
15.47957897024377
 30
0.0
  0
SPLINE
  5
9E
330
1F
100
AcDbEntity
  8
0
  6
Continuous
 62
     7
370
    25
100
AcDbSpline
210
0.0
220
0.0
230
1.0
 70
     8
 71
     3
 72
    14
 73
    10
 74
     0
 42
0.00000001
 43
0.00000001
 40
0.0
 40
0.0
 40
0.0
 40
0.0
 40
0.25
 40
0.25
 40
0.5
 40
0.5
 40
0.75
 40
0.75
 40
1.0
 40
1.0
 40
1.0
 40
1.0
 10
87.54498065575602
 20
20.47272664424377
 30
0.0
 10
87.54533808575601
 20
19.68797341024381
 30
0.0
 10
87.70145091575587
 20
18.90390049974378
 30
0.0
 10
88.30173720375609
 20
17.45484061374372
 30
0.0
 10
88.74567611825601
 20
16.79042882074366
 30
0.0
 10
89.85446004025596
 20
15.68164489874377
 30
0.0
 10
90.51887183325597
 20
15.23770598424371
 30
0.0
 10
91.96793171925604
 20
14.6374196962438
 30
0.0
 10
92.75200462975607
 20
14.4813068662438
 30
0.0
 10
93.53675786375601
 20
14.48094943624378
 30
0.0
  0
SPLINE
  5
9F
330
1F
100
AcDbEntity
  8
0
  6
Continuous
 62
     7
370
    25
100
AcDbSpline
210
0.0
220
0.0
230
1.0
 70
    24
 71
     3
 72
    14
 73
    10
 74
     0
 42
0.00000001
 43
0.00000001
 40
0.0
 40
0.0
 40
0.0
 40
0.0
 40
0.25
 40
0.25
 40
0.5
 40
0.5
 40
0.75
 40
0.75
 40
1.0
 40
1.0
 40
1.0
 40
1.0
 10
88.54361018975601
 20
20.47272664455796
 30
0.0
 10
88.42888442722663
 20
20.47272664456523
 30
0.0
 10
88.30571374380713
 20
20.47272664457295
 30
0.0
 10
88.06680917242643
 20
20.47272664458802
 30
0.0
 10
87.95172062441416
 20
20.47272664459521
 30
0.0
 10
87.75879060474651
 20
20.47272664460739
 30
0.0
 10
87.68151424202306
 20
20.47272664461211
 30
0.0
 10
87.57772840488359
 20
20.4727266446186
 30
0.0
 10
87.55098493824285
 20
20.47272664462022
 30
0.0
 10
87.54498065575586
 20
20.4727266446206
 30
0.0
  0
LINE
  5
A0
330
1F
100
AcDbEntity
  8
0
  6
Continuous
 62
     7
370
    25
100
AcDbLine
 10
87.5449806558
 20
20.4727264335
 30
0.0
 11
87.5449806558
 21
467.645162347
 31
0.0
  0
SPLINE
  5
A1
330
1F
100
AcDbEntity
  8
0
  6
Continuous
 62
     7
370
    25
100
AcDbSpline
210
0.0
220
0.0
230
1.0
 70
    24
 71
     3
 72
    14
 73
    10
 74
     0
 42
0.00000001
 43
0.00000001
 40
0.0
 40
0.0
 40
0.0
 40
0.0
 40
0.25
 40
0.25
 40
0.5
 40
0.5
 40
0.75
 40
0.75
 40
1.0
 40
1.0
 40
1.0
 40
1.0
 10
87.54498065575636
 20
467.6451621369455
 30
0.0
 10
87.5509849382444
 20
467.6451621369447
 30
0.0
 10
87.57772840488609
 20
467.6451621369415
 30
0.0
 10
87.68151424202667
 20
467.6451621369293
 30
0.0
 10
87.75879060475015
 20
467.6451621369204
 30
0.0
 10
87.95172062441742
 20
467.6451621368978
 30
0.0
 10
88.06680917242906
 20
467.6451621368844
 30
0.0
 10
88.30571374380852
 20
467.6451621368565
 30
0.0
 10
88.42888442722716
 20
467.6451621368423
 30
0.0
 10
88.54361018975601
 20
467.6451621368288
 30
0.0
  0
SPLINE
  5
A2
330
1F
100
AcDbEntity
  8
0
  6
Continuous
 62
     7
370
    25
100
AcDbSpline
210
0.0
220
0.0
230
1.0
 70
     8
 71
     3
 72
    14
 73
    10
 74
     0
 42
0.00000001
 43
0.00000001
 40
0.0
 40
0.0
 40
0.0
 40
0.0
 40
0.25
 40
0.25
 40
0.5
 40
0.5
 40
0.75
 40
0.75
 40
1.0
 40
1.0
 40
1.0
 40
1.0
 10
93.53675786375601
 20
473.6369393442438
 30
0.0
 10
92.75200462975606
 20
473.6365819142437
 30
0.0
 10
91.96793171925604
 20
473.4804690842437
 30
0.0
 10
90.5188718332561
 20
472.8801827962438
 30
0.0
 10
89.85446004025596
 20
472.4362438817438
 30
0.0
 10
88.74567611825599
 20
471.3274599597438
 30
0.0
 10
88.30173720375598
 20
470.6630481667439
 30
0.0
 10
87.70145091575596
 20
469.2139882807438
 30
0.0
 10
87.54533808575599
 20
468.4299153702438
 30
0.0
 10
87.54498065575602
 20
467.6451621362438
 30
0.0
  0
SPLINE
  5
A3
330
1F
100
AcDbEntity
  8
0
  6
Continuous
 62
     7
370
    25
100
AcDbSpline
210
0.0
220
0.0
230
1.0
 70
    24
 71
     3
 72
    14
 73
    10
 74
     0
 42
0.00000001
 43
0.00000001
 40
0.0
 40
0.0
 40
0.0
 40
0.0
 40
0.2499999999999999
 40
0.2499999999999999
 40
0.4999999999999999
 40
0.4999999999999999
 40
0.7499999999999999
 40
0.7499999999999999
 40
1.0
 40
1.0
 40
1.0
 40
1.0
 10
93.53675786407015
 20
472.6383098102438
 30
0.0
 10
93.53675786407733
 20
472.7530355727733
 30
0.0
 10
93.5367578640851
 20
472.8762062561926
 30
0.0
 10
93.5367578641001
 20
473.1151108275734
 30
0.0
 10
93.53675786410726
 20
473.2301993755856
 30
0.0
 10
93.53675786411944
 20
473.4231293952533
 30
0.0
 10
93.53675786412427
 20
473.5004057579767
 30
0.0
 10
93.5367578641307
 20
473.6041915951161
 30
0.0
 10
93.53675786413237
 20
473.6309350617569
 30
0.0
 10
93.5367578641328
 20
473.636939344244
 30
0.0
  0
SPLINE
  5
A4
330
1F
100
AcDbEntity
  8
0
  6
Continuous
 62
     7
370
    25
100
AcDbSpline
210
0.0
220
0.0
230
1.0
 70
    24
 71
     3
 72
    14
 73
    10
 74
     0
 42
0.00000001
 43
0.00000001
 40
0.0
 40
0.0
 40
0.0
 40
0.0
 40
0.25
 40
0.25
 40
0.5
 40
0.5
 40
0.75
 40
0.75
 40
1.0
 40
1.0
 40
1.0
 40
1.0
 10
456.7009705637557
 20
20.47272664354208
 30
0.0
 10
456.6949662812676
 20
20.47272664354283
 30
0.0
 10
456.6682228146259
 20
20.47272664354602
 30
0.0
 10
456.5644369774854
 20
20.47272664355823
 30
0.0
 10
456.4871606147619
 20
20.47272664356717
 30
0.0
 10
456.2942305950946
 20
20.47272664358976
 30
0.0
 10
456.179142047083
 20
20.47272664360317
 30
0.0
 10
455.9402374757035
 20
20.47272664363106
 30
0.0
 10
455.8170667922848
 20
20.47272664364533
 30
0.0
 10
455.702341029756
 20
20.47272664365873
 30
0.0
  0
SPLINE
  5
A5
330
1F
100
AcDbEntity
  8
0
  6
Continuous
 62
     7
370
    25
100
AcDbSpline
210
0.0
220
0.0
230
1.0
 70
    24
 71
     3
 72
    14
 73
    10
 74
     0
 42
0.00000001
 43
0.00000001
 40
0.0
 40
0.0
 40
0.0
 40
0.0
 40
0.25
 40
0.25
 40
0.5
 40
0.5
 40
0.75
 40
0.75
 40
1.0
 40
1.0
 40
1.0
 40
1.0
 10
455.702341029756
 20
467.6451621359296
 30
0.0
 10
455.8170667922854
 20
467.6451621359223
 30
0.0
 10
455.9402374757049
 20
467.6451621359146
 30
0.0
 10
456.1791420470856
 20
467.6451621358996
 30
0.0
 10
456.2942305950979
 20
467.6451621358923
 30
0.0
 10
456.4871606147657
 20
467.6451621358802
 30
0.0
 10
456.5644369774889
 20
467.6451621358754
 30
0.0
 10
456.6682228146285
 20
467.6451621358689
 30
0.0
 10
456.6949662812692
 20
467.6451621358673
 30
0.0
 10
456.7009705637561
 20
467.6451621358669
 30
0.0
  0
LINE
  5
A6
330
1F
100
AcDbEntity
  8
0
  6
Continuous
 62
     7
370
    25
100
AcDbLine
 10
456.7009705638
 20
467.645162347
 30
0.0
 11
456.7009705638
 21
20.4727264335
 31
0.0
  0
SPLINE
  5
A7
330
1F
100
AcDbEntity
  8
0
  6
Continuous
 62
     7
370
    25
100
AcDbSpline
210
0.0
220
0.0
230
1.0
 70
     8
 71
     3
 72
    14
 73
    10
 74
     0
 42
0.00000001
 43
0.00000001
 40
0.0
 40
0.0
 40
0.0
 40
0.0
 40
0.25
 40
0.25
 40
0.5
 40
0.5
 40
0.75
 40
0.75
 40
1.0
 40
1.0
 40
1.0
 40
1.0
 10
450.709193355756
 20
14.48094943624378
 30
0.0
 10
451.4939465897559
 20
14.48130686624385
 30
0.0
 10
452.278019500256
 20
14.63741969624391
 30
0.0
 10
453.7270793862559
 20
15.23770598424379
 30
0.0
 10
454.391491179256
 20
15.6816448987438
 30
0.0
 10
455.500275101256
 20
16.79042882074377
 30
0.0
 10
455.944214015756
 20
17.45484061374364
 30
0.0
 10
456.544500303756
 20
18.90390049974375
 30
0.0
 10
456.7006131337561
 20
19.68797341024378
 30
0.0
 10
456.700970563756
 20
20.47272664424377
 30
0.0
  0
SPLINE
  5
A8
330
1F
100
AcDbEntity
  8
0
  6
Continuous
 62
     7
370
    25
100
AcDbSpline
210
0.0
220
0.0
230
1.0
 70
    24
 71
     3
 72
    14
 73
    10
 74
     0
 42
0.00000001
 43
0.00000001
 40
0.0
 40
0.0
 40
0.0
 40
0.0
 40
0.25
 40
0.25
 40
0.5
 40
0.5
 40
0.7500000000000001
 40
0.7500000000000001
 40
1.0
 40
1.0
 40
1.0
 40
1.0
 10
450.7091933554419
 20
15.47957897024377
 30
0.0
 10
450.7091933554347
 20
15.36485320771438
 30
0.0
 10
450.7091933554269
 20
15.24168252429489
 30
0.0
 10
450.7091933554119
 20
15.00277795291427
 30
0.0
 10
450.7091933554048
 20
14.88768940490198
 30
0.0
 10
450.7091933553926
 20
14.69475938523426
 30
0.0
 10
450.7091933553878
 20
14.61748302251084
 30
0.0
 10
450.7091933553813
 20
14.51369718537132
 30
0.0
 10
450.7091933553796
 20
14.48695371873071
 30
0.0
 10
450.7091933553792
 20
14.48094943624362
 30
0.0
  0
SPLINE
  5
A9
330
1F
100
AcDbEntity
  8
0
  6
Continuous
 62
     7
370
    25
100
AcDbSpline
210
0.0
220
0.0
230
1.0
 70
     8
 71
     3
 72
    14
 73
    10
 74
     0
 42
0.00000001
 43
0.00000001
 40
0.0
 40
0.0
 40
0.0
 40
0.0
 40
0.25
 40
0.25
 40
0.5
 40
0.5
 40
0.75
 40
0.75
 40
1.0
 40
1.0
 40
1.0
 40
1.0
 10
456.700970563756
 20
467.6451621362438
 30
0.0
 10
456.700613133756
 20
468.4299153702437
 30
0.0
 10
456.5445003037561
 20
469.2139882807438
 30
0.0
 10
455.9442140157559
 20
470.6630481667439
 30
0.0
 10
455.500275101256
 20
471.3274599597439
 30
0.0
 10
454.391491179256
 20
472.4362438817438
 30
0.0
 10
453.727079386256
 20
472.8801827962439
 30
0.0
 10
452.278019500256
 20
473.4804690842438
 30
0.0
 10
451.4939465897559
 20
473.6365819142437
 30
0.0
 10
450.709193355756
 20
473.6369393442438
 30
0.0
  0
SPLINE
  5
AA
330
1F
100
AcDbEntity
  8
0
  6
Continuous
 62
     7
370
    25
100
AcDbSpline
210
0.0
220
0.0
230
1.0
 70
    24
 71
     3
 72
    14
 73
    10
 74
     0
 42
0.00000001
 43
0.00000001
 40
0.0
 40
0.0
 40
0.0
 40
0.0
 40
0.25
 40
0.25
 40
0.5
 40
0.5
 40
0.75
 40
0.75
 40
1.0
 40
1.0
 40
1.0
 40
1.0
 10
450.7091933564577
 20
473.6369393442434
 30
0.0
 10
450.709193356457
 20
473.6309350617553
 30
0.0
 10
450.7091933564539
 20
473.6041915951138
 30
0.0
 10
450.7091933564417
 20
473.5004057579731
 30
0.0
 10
450.7091933564327
 20
473.4231293952496
 30
0.0
 10
450.7091933564101
 20
473.2301993755824
 30
0.0
 10
450.7091933563967
 20
473.1151108275707
 30
0.0
 10
450.7091933563688
 20
472.8762062561912
 30
0.0
 10
450.7091933563544
 20
472.7530355727726
 30
0.0
 10
450.7091933563411
 20
472.6383098102438
 30
0.0
  0
SPLINE
  5
AB
330
1F
100
AcDbEntity
  8
0
  6
Continuous
 62
     7
370
    25
100
AcDbSpline
210
0.0
220
0.0
230
1.0
 70
    24
 71
     3
 72
    14
 73
    10
 74
     0
 42
0.00000001
 43
0.00000001
 40
0.0
 40
0.0
 40
0.0
 40
0.0
 40
0.25
 40
0.25
 40
0.5
 40
0.5
 40
0.75
 40
0.75
 40
1.0
 40
1.0
 40
1.0
 40
1.0
 10
105.6955761787559
 20
47.63154495924374
 30
0.0
 10
105.6859923736963
 20
47.6219611541841
 30
0.0
 10
105.6625921166103
 20
47.59856089709816
 30
0.0
 10
105.584133774023
 20
47.52010255451081
 30
0.0
 10
105.5289795341673
 20
47.46494831465512
 30
0.0
 10
105.3952554859435
 20
47.33122426643127
 30
0.0
 10
105.3170057613581
 20
47.25297454184593
 30
0.0
 10
105.155132860407
 20
47.09110164089481
 30
0.0
 10
105.0718699356295
 20
47.0078387161173
 30
0.0
 10
104.9938204207559
 20
46.92978920124374
 30
0.0
  0
SPLINE
  5
AC
330
1F
100
AcDbEntity
  8
0
  6
Continuous
 62
     7
370
    25
100
AcDbSpline
210
0.0
220
0.0
230
1.0
 70
    24
 71
     3
 72
    14
 73
    10
 74
     0
 42
0.00000001
 43
0.00000001
 40
0.0
 40
0.0
 40
0.0
 40
0.0
 40
0.2499999999999999
 40
0.2499999999999999
 40
0.4999999999999999
 40
0.4999999999999999
 40
0.7499999999999999
 40
0.7499999999999999
 40
1.0
 40
1.0
 40
1.0
 40
1.0
 10
102.2028391337564
 20
56.09314429191178
 30
0.0
 10
102.1930255393764
 20
56.09314429191231
 30
0.0
 10
102.1630384550418
 20
56.09314429191389
 30
0.0
 10
102.0555189680409
 20
56.09314429191981
 30
0.0
 10
101.9778051352519
 20
56.09314429192416
 30
0.0
 10
101.7866641514275
 20
56.09314429193479
 30
0.0
 10
101.6737443270515
 20
56.09314429194098
 30
0.0
 10
101.4397460932943
 20
56.09314429195397
 30
0.0
 10
101.3192428036901
 20
56.09314429196066
 30
0.0
 10
101.206644435756
 20
56.09314429196699
 30
0.0
  0
SPLINE
  5
AD
330
1F
100
AcDbEntity
  8
0
  6
Continuous
 62
     7
370
    25
100
AcDbSpline
210
0.0
220
0.0
230
1.0
 70
    24
 71
     3
 72
    14
 73
    10
 74
     0
 42
0.00000001
 43
0.00000001
 40
0.0
 40
0.0
 40
0.0
 40
0.0
 40
0.25
 40
0.25
 40
0.5
 40
0.5
 40
0.75
 40
0.75
 40
1.0
 40
1.0
 40
1.0
 40
1.0
 10
101.206644435756
 20
432.024744490864
 30
0.0
 10
101.3192428036892
 20
432.02474449085
 30
0.0
 10
101.4397460932921
 20
432.0247444908351
 30
0.0
 10
101.6737443270472
 20
432.0247444908061
 30
0.0
 10
101.7866641514221
 20
432.0247444907921
 30
0.0
 10
101.9778051352456
 20
432.0247444907683
 30
0.0
 10
102.0555189680348
 20
432.0247444907587
 30
0.0
 10
102.1630384550375
 20
432.0247444907454
 30
0.0
 10
102.1930255393734
 20
432.0247444907416
 30
0.0
 10
102.2028391337551
 20
432.0247444907404
 30
0.0
  0
LINE
  5
AE
330
1F
100
AcDbEntity
  8
0
  6
Continuous
 62
     7
370
    25
100
AcDbLine
 10
102.2028391338
 20
432.0247443958
 30
0.0
 11
102.2028391338
 21
56.0931443847
 31
0.0
  0
SPLINE
  5
AF
330
1F
100
AcDbEntity
  8
0
  6
Continuous
 62
     7
370
    25
100
AcDbSpline
210
0.0
220
0.0
230
1.0
 70
    24
 71
     3
 72
    14
 73
    10
 74
     0
 42
0.00000001
 43
0.00000001
 40
0.0
 40
0.0
 40
0.0
 40
0.0
 40
0.25
 40
0.25
 40
0.5
 40
0.5
 40
0.75
 40
0.75
 40
1.0
 40
1.0
 40
1.0
 40
1.0
 10
443.039306783756
 20
56.09314428962359
 30
0.0
 10
442.9267084158229
 20
56.0931442896376
 30
0.0
 10
442.8062051262199
 20
56.09314428965242
 30
0.0
 10
442.5722068924648
 20
56.09314428968151
 30
0.0
 10
442.4592870680898
 20
56.09314428969547
 30
0.0
 10
442.2681460842663
 20
56.09314428971921
 30
0.0
 10
442.1904322514771
 20
56.09314428972886
 30
0.0
 10
442.0829127644746
 20
56.09314428974221
 30
0.0
 10
442.0529256801385
 20
56.09314428974599
 30
0.0
 10
442.0431120857569
 20
56.09314428974724
 30
0.0
  0
LINE
  5
B0
330
1F
100
AcDbEntity
  8
0
  6
Continuous
 62
     7
370
    25
100
AcDbLine
 10
442.0431120858
 20
56.0931443847
 30
0.0
 11
442.0431120858
 21
432.0247443958
 31
0.0
  0
SPLINE
  5
B1
330
1F
100
AcDbEntity
  8
0
  6
Continuous
 62
     7
370
    25
100
AcDbSpline
210
0.0
220
0.0
230
1.0
 70
    24
 71
     3
 72
    14
 73
    10
 74
     0
 42
0.00000001
 43
0.00000001
 40
0.0
 40
0.0
 40
0.0
 40
0.0
 40
0.2500000000000001
 40
0.2500000000000001
 40
0.5000000000000001
 40
0.5000000000000001
 40
0.7500000000000001
 40
0.7500000000000001
 40
1.0
 40
1.0
 40
1.0
 40
1.0
 10
442.0431120857556
 20
432.0247444885758
 30
0.0
 10
442.0529256801357
 20
432.0247444885752
 30
0.0
 10
442.0829127644702
 20
432.0247444885736
 30
0.0
 10
442.1904322514712
 20
432.0247444885676
 30
0.0
 10
442.2681460842601
 20
432.0247444885633
 30
0.0
 10
442.4592870680846
 20
432.0247444885528
 30
0.0
 10
442.5722068924607
 20
432.0247444885465
 30
0.0
 10
442.8062051262177
 20
432.0247444885334
 30
0.0
 10
442.926708415822
 20
432.0247444885267
 30
0.0
 10
443.039306783756
 20
432.0247444885206
 30
0.0
  0
SPLINE
  5
B2
330
1F
100
AcDbEntity
  8
0
  6
Continuous
 62
     7
370
    25
100
AcDbSpline
210
0.0
220
0.0
230
1.0
 70
    24
 71
     3
 72
    14
 73
    10
 74
     0
 42
0.00000001
 43
0.00000001
 40
0.0
 40
0.0
 40
0.0
 40
0.0
 40
0.25
 40
0.25
 40
0.5
 40
0.5
 40
0.75
 40
0.75
 40
1.0
 40
1.0
 40
1.0
 40
1.0
 10
438.550375040756
 20
440.4863438212438
 30
0.0
 10
438.5599588458157
 20
440.4959276263035
 30
0.0
 10
438.5833591029016
 20
440.5193278833895
 30
0.0
 10
438.6618174454889
 20
440.5977862259768
 30
0.0
 10
438.7169716853447
 20
440.6529404658324
 30
0.0
 10
438.8506957335685
 20
440.7866645140562
 30
0.0
 10
438.9289454581539
 20
440.8649142386417
 30
0.0
 10
439.090818359105
 20
441.0267871395928
 30
0.0
 10
439.1740812838825
 20
441.1100500643703
 30
0.0
 10
439.252130798756
 20
441.1880995792438
 30
0.0
  0
SPLINE
  5
B3
330
1F
100
AcDbEntity
  8
0
  6
Continuous
 62
     7
370
    25
100
AcDbSpline
210
0.0
220
0.0
230
1.0
 70
    24
 71
     3
 72
    14
 73
    10
 74
     0
 42
0.00000001
 43
0.00000001
 40
0.0
 40
0.0
 40
0.0
 40
0.0
 40
0.25
 40
0.25
 40
0.5
 40
0.5
 40
0.75
 40
0.75
 40
1.0
 40
1.0
 40
1.0
 40
1.0
 10
105.695576178756
 20
440.4863438212438
 30
0.0
 10
105.6859923736964
 20
440.4959276263035
 30
0.0
 10
105.6625921166104
 20
440.5193278833895
 30
0.0
 10
105.5841337740231
 20
440.5977862259768
 30
0.0
 10
105.5289795341673
 20
440.6529404658324
 30
0.0
 10
105.3952554859435
 20
440.7866645140562
 30
0.0
 10
105.3170057613581
 20
440.8649142386417
 30
0.0
 10
105.155132860407
 20
441.0267871395928
 30
0.0
 10
105.0718699356296
 20
441.1100500643703
 30
0.0
 10
104.993820420756
 20
441.1880995792438
 30
0.0
  0
SPLINE
  5
B4
330
1F
100
AcDbEntity
  8
0
  6
Continuous
 62
     7
370
    25
100
AcDbSpline
210
0.0
220
0.0
230
1.0
 70
    24
 71
     3
 72
    14
 73
    10
 74
     0
 42
0.00000001
 43
0.00000001
 40
0.0
 40
0.0
 40
0.0
 40
0.0
 40
0.25
 40
0.25
 40
0.5
 40
0.5
 40
0.75
 40
0.75
 40
1.0
 40
1.0
 40
1.0
 40
1.0
 10
438.550375040756
 20
47.63154495924377
 30
0.0
 10
438.5599588458157
 20
47.62196115418407
 30
0.0
 10
438.5833591029016
 20
47.59856089709816
 30
0.0
 10
438.6618174454889
 20
47.52010255451081
 30
0.0
 10
438.7169716853446
 20
47.46494831465512
 30
0.0
 10
438.8506957335685
 20
47.33122426643127
 30
0.0
 10
438.9289454581539
 20
47.25297454184593
 30
0.0
 10
439.090818359105
 20
47.09110164089481
 30
0.0
 10
439.1740812838825
 20
47.0078387161173
 30
0.0
 10
439.252130798756
 20
46.92978920124377
 30
0.0
  0
SPLINE
  5
B5
330
1F
100
AcDbEntity
  8
0
  6
Continuous
 62
     7
370
    25
100
AcDbSpline
210
0.0
220
0.0
230
1.0
 70
    24
 71
     3
 72
    14
 73
    10
 74
     0
 42
0.00000001
 43
0.00000001
 40
0.0
 40
0.0
 40
0.0
 40
0.0
 40
0.25
 40
0.25
 40
0.5
 40
0.5
 40
0.75
 40
0.75
 40
1.0
 40
1.0
 40
1.0
 40
1.0
 10
430.0887757103763
 20
444.9752755642438
 30
0.0
 10
430.0887757103624
 20
444.8626771963106
 30
0.0
 10
430.0887757103474
 20
444.7421739067078
 30
0.0
 10
430.0887757103183
 20
444.5081756729526
 30
0.0
 10
430.0887757103042
 20
444.3952558485777
 30
0.0
 10
430.0887757102806
 20
444.2041148647541
 30
0.0
 10
430.0887757102709
 20
444.126401031965
 30
0.0
 10
430.0887757102576
 20
444.0188815449624
 30
0.0
 10
430.0887757102539
 20
443.9888944606264
 30
0.0
 10
430.0887757102526
 20
443.9790808662447
 30
0.0
  0
LINE
  5
B6
330
1F
100
AcDbEntity
  8
0
  6
Continuous
 62
     7
370
    25
100
AcDbLine
 10
430.0887756302
 20
443.9790808662
 30
0.0
 11
114.1571755893
 21
443.9790808662
 31
0.0
  0
SPLINE
  5
B7
330
1F
100
AcDbEntity
  8
0
  6
Continuous
 62
     7
370
    25
100
AcDbSpline
210
0.0
220
0.0
230
1.0
 70
    24
 71
     3
 72
    14
 73
    10
 74
     0
 42
0.00000001
 43
0.00000001
 40
0.0
 40
0.0
 40
0.0
 40
0.0
 40
0.2500000000000001
 40
0.2500000000000001
 40
0.5
 40
0.5
 40
0.75
 40
0.75
 40
1.0
 40
1.0
 40
1.0
 40
1.0
 10
114.157175511424
 20
443.9790808662434
 30
0.0
 10
114.1571755114245
 20
443.9888944606234
 30
0.0
 10
114.1571755114262
 20
444.018881544958
 30
0.0
 10
114.1571755114321
 20
444.126401031959
 30
0.0
 10
114.1571755114364
 20
444.204114864748
 30
0.0
 10
114.157175511447
 20
444.3952558485724
 30
0.0
 10
114.1571755114533
 20
444.5081756729484
 30
0.0
 10
114.1571755114662
 20
444.7421739067055
 30
0.0
 10
114.1571755114729
 20
444.8626771963097
 30
0.0
 10
114.1571755114792
 20
444.9752755642438
 30
0.0
  0
SPLINE
  5
B8
330
1F
100
AcDbEntity
  8
0
  6
Continuous
 62
     7
370
    25
100
AcDbSpline
210
0.0
220
0.0
230
1.0
 70
    24
 71
     3
 72
    14
 73
    10
 74
     0
 42
0.00000001
 43
0.00000001
 40
0.0
 40
0.0
 40
0.0
 40
0.0
 40
0.2500000000000001
 40
0.2500000000000001
 40
0.5
 40
0.5
 40
0.75
 40
0.75
 40
1.0
 40
1.0
 40
1.0
 40
1.0
 10
430.088775708088
 20
44.13880791424418
 30
0.0
 10
430.0887757080874
 20
44.1289943198642
 30
0.0
 10
430.0887757080858
 20
44.09900723552956
 30
0.0
 10
430.0887757080799
 20
43.99148774852857
 30
0.0
 10
430.0887757080756
 20
43.91377391573958
 30
0.0
 10
430.088775708065
 20
43.72263293191514
 30
0.0
 10
430.0887757080587
 20
43.60971310753916
 30
0.0
 10
430.0887757080458
 20
43.37571487378192
 30
0.0
 10
430.0887757080391
 20
43.25521158417786
 30
0.0
 10
430.0887757080328
 20
43.14261321624377
 30
0.0
  0
SPLINE
  5
B9
330
1F
100
AcDbEntity
  8
0
  6
Continuous
 62
     7
370
    25
100
AcDbSpline
210
0.0
220
0.0
230
1.0
 70
    24
 71
     3
 72
    14
 73
    10
 74
     0
 42
0.00000001
 43
0.00000001
 40
0.0
 40
0.0
 40
0.0
 40
0.0
 40
0.25
 40
0.25
 40
0.5
 40
0.5
 40
0.75
 40
0.75
 40
1.0
 40
1.0
 40
1.0
 40
1.0
 10
114.1571755091357
 20
43.14261321624377
 30
0.0
 10
114.1571755091497
 20
43.25521158417697
 30
0.0
 10
114.1571755091647
 20
43.37571487377981
 30
0.0
 10
114.1571755091938
 20
43.60971310753492
 30
0.0
 10
114.1571755092078
 20
43.72263293190989
 30
0.0
 10
114.1571755092315
 20
43.91377391573351
 30
0.0
 10
114.1571755092412
 20
43.99148774852257
 30
0.0
 10
114.1571755092546
 20
44.09900723552521
 30
0.0
 10
114.1571755092583
 20
44.12899431986117
 30
0.0
 10
114.1571755092595
 20
44.13880791424285
 30
0.0
  0
LINE
  5
BA
330
1F
100
AcDbEntity
  8
0
  6
Continuous
 62
     7
370
    25
100
AcDbLine
 10
114.1571755893
 20
44.1388079142
 30
0.0
 11
430.0887756302
 21
44.1388079142
 31
0.0
  0
LINE
  5
BB
330
1F
100
AcDbEntity
  8
0
  6
Continuous
 62
     7
370
    25
100
AcDbLine
 10
450.7091932124
 20
14.4809494362
 30
0.0
 11
93.5367580071
 21
14.4809494362
 31
0.0
  0
LINE
  5
BC
330
1F
100
AcDbEntity
  8
0
  6
Continuous
 62
     7
370
    25
100
AcDbLine
 10
93.5367580071
 20
473.6369393442
 30
0.0
 11
450.7091932124
 21
473.6369393442
 31
0.0
  0
LINE
  5
BD
330
1F
100
AcDbEntity
  8
0
  6
Continuous
 62
     7
370
    25
100
AcDbLine
 10
93.5367580071
 20
14.4809494362
 30
0.0
 11
93.114752907
 21
14.0589443902
 31
0.0
  0
SPLINE
  5
BE
330
1F
100
AcDbEntity
  8
0
  6
Continuous
 62
     7
370
    25
100
AcDbSpline
210
0.0
220
0.0
230
1.0
 70
     8
 71
     3
 72
    26
 73
    22
 74
     0
 42
0.00000001
 43
0.00000001
 40
0.0
 40
0.0
 40
0.0
 40
0.0
 40
0.0260249598958102
 40
0.051828351491015
 40
0.0774103049142797
 40
0.1027709537288391
 40
0.1279104350511537
 40
0.1528288896745956
 40
0.1775264621984822
 40
0.2020033011627012
 40
0.2262595591882592
 40
0.250295393123972
 40
0.3759818370996367
 40
0.500024130966893
 40
0.6240664249930125
 40
0.7497528694450987
 40
0.7980362902091571
 40
0.8472015570544331
 40
0.8972498578393712
 40
0.9481823170456182
 40
1.0
 40
1.0
 40
1.0
 40
1.0
 10
93.11475281718262
 20
14.05894438977098
 30
0.0
 10
93.03316152246616
 20
14.0599035203558
 30
0.0
 10
92.87067357558342
 20
14.06181361578995
 30
0.0
 10
92.62838479431842
 20
14.07715827099137
 30
0.0
 10
92.38896067875663
 20
14.10132340218756
 30
0.0
 10
92.15275957463734
 20
14.13491619797572
 30
0.0
 10
91.92011867753003
 20
14.17740498630796
 30
0.0
 10
91.69135457337335
 20
14.22854702436729
 30
0.0
 10
91.46676147492933
 20
14.28801367148957
 30
0.0
 10
91.24661809743742
 20
14.35548665170428
 30
0.0
 10
91.0311630516381
 20
14.43065035167901
 30
0.0
 10
90.5233332710777
 20
14.62966717964948
 30
0.0
 10
89.76086614254031
 20
15.03743489821199
 30
0.0
 10
88.84999932091561
 20
15.78594982285389
 30
0.0
 10
88.10144390756273
 20
16.69688630184638
 30
0.0
 10
87.65763410344985
 20
17.52669436877244
 30
0.0
 10
87.41475419996952
 20
18.18316676516424
 30
0.0
 10
87.2875511934805
 20
18.62826904398474
 30
0.0
 10
87.19441878656592
 20
19.09002454600217
 30
0.0
 10
87.13431925567583
 20
19.56603351572308
 30
0.0
 10
87.12677848010222
 20
19.88823362118164
 30
0.0
 10
87.12297560927709
 20
20.05072159989818
 30
0.0
  0
LINE
  5
BF
330
1F
100
AcDbEntity
  8
0
  6
Continuous
 62
     7
370
    25
100
AcDbLine
 10
87.1229756098
 20
20.0507217098
 30
0.0
 11
87.5449806558
 21
20.4727264335
 31
0.0
  0
LINE
  5
C0
330
1F
100
AcDbEntity
  8
0
  6
Continuous
 62
     7
370
    25
100
AcDbLine
 10
456.7009705638
 20
20.4727264335
 30
0.0
 11
457.1229756098
 21
20.0507217098
 31
0.0
  0
SPLINE
  5
C1
330
1F
100
AcDbEntity
  8
0
  6
Continuous
 62
     7
370
    25
100
AcDbSpline
210
0.0
220
0.0
230
1.0
 70
     8
 71
     3
 72
    26
 73
    22
 74
     0
 42
0.00000001
 43
0.00000001
 40
0.0
 40
0.0
 40
0.0
 40
0.0
 40
0.0260249598959876
 40
0.0518283514913694
 40
0.0774103049147977
 40
0.1027709537295084
 40
0.1279104350519688
 40
0.1528288896755474
 40
0.1775264621995577
 40
0.2020033011638929
 40
0.226259559189548
 40
0.2502953931253625
 40
0.3759818374187534
 40
0.5000241309686525
 40
0.6240664249946293
 40
0.7497528694463281
 40
0.7980362904140886
 40
0.8472015573610462
 40
0.8972498581456908
 40
0.9481823172497191
 40
1.0
 40
1.0
 40
1.0
 40
1.0
 10
457.1229756102326
 20
20.05072159904339
 30
0.0
 10
457.1220164796649
 20
19.96913030432465
 30
0.0
 10
457.1201063842648
 20
19.80664235743743
 30
0.0
 10
457.1047617291138
 20
19.56435357616307
 30
0.0
 10
457.080596597967
 20
19.32492946059025
 30
0.0
 10
457.0470038022274
 20
19.08872835645817
 30
0.0
 10
457.0045150139429
 20
18.85608745933606
 30
0.0
 10
456.9533729759299
 20
18.62732335516348
 30
0.0
 10
456.8939063288533
 20
18.40273025670139
 30
0.0
 10
456.8264333486825
 20
18.18258687919067
 30
0.0
 10
456.751269648751
 20
17.96713183337065
 30
0.0
 10
456.5522528205192
 20
17.45930205183177
 30
0.0
 10
456.1444851018906
 20
16.69683492326415
 30
0.0
 10
455.3959701772309
 20
15.78596810169008
 30
0.0
 10
454.485033699147
 20
15.03741268876527
 30
0.0
 10
453.6552256317329
 20
14.59360288417574
 30
0.0
 10
452.9987532344409
 20
14.35072298031781
 30
0.0
 10
452.553650954666
 20
14.22351997364588
 30
0.0
 10
452.0918954526172
 20
14.13038756685314
 30
0.0
 10
451.6158864838335
 20
14.07028803618252
 30
0.0
 10
451.2936863793317
 20
14.06274726059603
 30
0.0
 10
451.1311984012534
 20
14.05894438976804
 30
0.0
  0
LINE
  5
C2
330
1F
100
AcDbEntity
  8
0
  6
Continuous
 62
     7
370
    25
100
AcDbLine
 10
451.1311983125
 20
14.0589443902
 30
0.0
 11
450.7091932124
 21
14.4809494362
 31
0.0
  0
LINE
  5
C3
330
1F
100
AcDbEntity
  8
0
  6
Continuous
 62
     7
370
    25
100
AcDbLine
 10
450.7091932124
 20
473.6369393442
 30
0.0
 11
451.1311983125
 21
474.0589443902
 31
0.0
  0
SPLINE
  5
C4
330
1F
100
AcDbEntity
  8
0
  6
Continuous
 62
     7
370
    25
100
AcDbSpline
210
0.0
220
0.0
230
1.0
 70
     8
 71
     3
 72
    26
 73
    22
 74
     0
 42
0.00000001
 43
0.00000001
 40
0.0
 40
0.0
 40
0.0
 40
0.0
 40
0.0260249600107542
 40
0.0518283516954276
 40
0.0774103051826638
 40
0.1027709540356937
 40
0.127910435370981
 40
0.152828889981884
 40
0.1775264624677153
 40
0.2020033013683648
 40
0.2262595593048232
 40
0.2502953931259269
 40
0.3759818375782328
 40
0.5000241316045196
 40
0.624066425630681
 40
0.7497528700826138
 40
0.7980362908210828
 40
0.8472015575897849
 40
0.8972498582471908
 40
0.9481823172749795
 40
1.0
 40
1.0
 40
1.0
 40
1.0
 10
451.1311983984052
 20
474.0589443893792
 30
0.0
 10
451.212789693464
 20
474.0579852588382
 30
0.0
 10
451.3752776409517
 20
474.056075163492
 30
0.0
 10
451.6175664230076
 20
474.0407305083334
 30
0.0
 10
451.85699053912
 20
474.016565377148
 30
0.0
 10
452.0931916435503
 20
473.982972581363
 30
0.0
 10
452.3258325407312
 20
473.9404837930556
 30
0.0
 10
452.5545966447283
 20
473.8893417550709
 30
0.0
 10
452.779189742787
 20
473.8298751080996
 30
0.0
 10
452.9993331196754
 20
473.7624021281387
 30
0.0
 10
453.2147881646643
 20
473.6872384285452
 30
0.0
 10
453.7226179460172
 20
473.4882216005985
 30
0.0
 10
454.4850850759844
 20
473.0804538815258
 30
0.0
 10
455.3959518987946
 20
472.3319389555728
 30
0.0
 10
456.1445073119789
 20
471.4210024761427
 30
0.0
 10
456.5883171156666
 20
470.5911944093261
 30
0.0
 10
456.8311970187674
 20
469.9347220133077
 30
0.0
 10
456.9584000249189
 20
469.4896197352527
 30
0.0
 10
457.0515324315356
 20
469.0278642345115
 30
0.0
 10
457.1116319622632
 20
468.551855266581
 30
0.0
 10
457.1191727379803
 20
468.2296551624809
 30
0.0
 10
457.122975608876
 20
468.0671671845236
 30
0.0
  0
LINE
  5
C5
330
1F
100
AcDbEntity
  8
0
  6
Continuous
 62
     7
370
    25
100
AcDbLine
 10
457.1229756098
 20
468.0671670706
 30
0.0
 11
456.7009705638
 21
467.645162347
 31
0.0
  0
LINE
  5
C6
330
1F
100
AcDbEntity
  8
0
  6
Continuous
 62
     7
370
    25
100
AcDbLine
 10
87.5449806558
 20
467.645162347
 30
0.0
 11
87.1229756098
 21
468.0671670706
 31
0.0
  0
SPLINE
  5
C7
330
1F
100
AcDbEntity
  8
0
  6
Continuous
 62
     7
370
    25
100
AcDbSpline
210
0.0
220
0.0
230
1.0
 70
     8
 71
     3
 72
    26
 73
    22
 74
     0
 42
0.00000001
 43
0.00000001
 40
0.0
 40
0.0
 40
0.0
 40
0.0
 40
0.0260249600105792
 40
0.0518283516950734
 40
0.0774103051821381
 40
0.1027709540350166
 40
0.1279104353701521
 40
0.1528288899809214
 40
0.1775264624666225
 40
0.2020033013671558
 40
0.2262595593035111
 40
0.2502953931245102
 40
0.3759818375764393
 40
0.5000241316026008
 40
0.6240664256288833
 40
0.7497528700811897
 40
0.7980362908198645
 40
0.8472015575888141
 40
0.8972498582465094
 40
0.9481823172746165
 40
1.0
 40
1.0
 40
1.0
 40
1.0
 10
87.12297561084445
 20
468.067167179608
 30
0.0
 10
87.12393474139665
 20
468.1487584746645
 30
0.0
 10
87.12584483676517
 20
468.3112464221477
 30
0.0
 10
87.14118949195645
 20
468.5535352041956
 30
0.0
 10
87.1653546231739
 20
468.7929593202985
 30
0.0
 10
87.19894741899037
 20
469.0291604247186
 30
0.0
 10
87.24143620732832
 20
469.2618013218879
 30
0.0
 10
87.29257824534304
 20
469.4905654258727
 30
0.0
 10
87.35204489234322
 20
469.7151585239179
 30
0.0
 10
87.41951787233252
 20
469.9353019007921
 30
0.0
 10
87.49468157195336
 20
470.1507569457659
 30
0.0
 10
87.69369839996432
 20
470.6585867270808
 30
0.0
 10
88.10146611913153
 20
471.421053856977
 30
0.0
 10
88.84998104519238
 20
472.3319206796689
 30
0.0
 10
89.76091752470724
 20
473.0804760927175
 30
0.0
 10
90.59072559157039
 20
473.5242858962861
 30
0.0
 10
91.24719798761194
 20
473.7671657992944
 30
0.0
 10
91.69230026567816
 20
473.8943688053839
 30
0.0
 10
92.1540557664263
 20
473.9875012119364
 30
0.0
 10
92.63006473435905
 20
474.0476007425984
 30
0.0
 10
92.9522648384565
 20
474.0551415182711
 30
0.0
 10
93.11475281641238
 20
474.0589443891444
 30
0.0
  0
LINE
  5
C8
330
1F
100
AcDbEntity
  8
0
  6
Continuous
 62
     7
370
    25
100
AcDbLine
 10
93.114752907
 20
474.0589443902
 30
0.0
 11
93.5367580071
 21
473.6369393442
 31
0.0
  0
SPLINE
  5
C9
330
1F
100
AcDbEntity
  8
0
  6
Continuous
 62
     7
370
    25
100
AcDbSpline
210
0.0
220
0.0
230
1.0
 70
     8
 71
     3
 72
    24
 73
    20
 74
     0
 42
0.00000001
 43
0.00000001
 40
0.0
 40
0.0
 40
0.0
 40
0.0
 40
0.0434710851869095
 40
0.0851367222886272
 40
0.1249969187327126
 40
0.1897006966842436
 40
0.2499916247346163
 40
0.3749835126965489
 40
0.4999724508844521
 40
0.5624663169670763
 40
0.6249605019506843
 40
0.6874561011304114
 40
0.7499546881117561
 40
0.8124581447677939
 40
0.8749682652083256
 40
0.9059187021574818
 40
0.9374840328054459
 40
0.9683103028933951
 40
0.9999999999999999
 40
0.9999999999999999
 40
0.9999999999999999
 40
0.9999999999999999
 10
117.9173935877966
 20
71.80769861284581
 30
0.0
 10
117.9308632798513
 20
76.79180136753283
 30
0.0
 10
117.9572432385491
 20
86.55300632156859
 30
0.0
 10
117.9953489670262
 20
100.8845348276795
 30
0.0
 10
118.039321312585
 20
117.6507092117955
 30
0.0
 10
118.087822180359
 20
136.5527629070068
 30
0.0
 10
118.1590019817674
 20
165.2166938002158
 30
0.0
 10
118.2420075388947
 20
200.794762726285
 30
0.0
 10
118.3143003196123
 20
236.6287814993501
 30
0.0
 10
118.3613884115085
 20
265.2981966242991
 30
0.0
 10
118.3900413100631
 20
286.8016862252899
 30
0.0
 10
118.410727838213
 20
308.3069408362067
 30
0.0
 10
118.4222690705828
 20
329.8141807907547
 30
0.0
 10
118.4239074422773
 20
351.3234930790037
 30
0.0
 10
118.4169308952525
 20
369.2137827142309
 30
0.0
 10
118.4066362476057
 20
383.5548262853813
 30
0.0
 10
118.396698871057
 20
394.26134292813
 30
0.0
 10
118.3847073966943
 20
405.0523915787037
 30
0.0
 10
118.375131019426
 20
412.2226582146091
 30
0.0
 10
118.3702766996638
 20
415.8573068981734
 30
0.0
  0
SPLINE
  5
CA
330
1F
100
AcDbEntity
  8
0
  6
Continuous
 62
     7
370
    25
100
AcDbSpline
210
0.0
220
0.0
230
1.0
 70
     8
 71
     3
 72
    24
 73
    20
 74
     0
 42
0.00000001
 43
0.00000001
 40
0.0
 40
0.0
 40
0.0
 40
0.0
 40
0.0212176807892567
 40
0.0420517543903255
 40
0.0625022601327823
 40
0.0940588703891625
 40
0.1250008221626561
 40
0.1874966572946974
 40
0.2499913553547519
 40
0.3124866424305957
 40
0.3749840008134352
 40
0.437484375203262
 40
0.499987244441995
 40
0.6249908095726372
 40
0.7499934448905448
 40
0.8102882039410907
 40
0.8749964247507412
 40
0.9354668661036262
 40
1.0
 40
1.0
 40
1.0
 40
1.0
 10
425.8756745200404
 20
415.8573068981734
 30
0.0
 10
425.8723855600086
 20
413.4237530836556
 30
0.0
 10
425.8658671030279
 20
408.6006431349211
 30
0.0
 10
425.8572365047054
 20
401.4317899032764
 30
0.0
 10
425.8481310055853
 20
393.0769455263678
 30
0.0
 10
425.8393283001496
 20
383.5625174169249
 30
0.0
 10
425.8290229594273
 20
369.2250882914162
 30
0.0
 10
425.8220481057297
 20
351.338414462525
 30
0.0
 10
425.8236765579267
 20
329.83212421846
 30
0.0
 10
425.8352090307517
 20
308.3260648565326
 30
0.0
 10
425.8558881921543
 20
286.8202759433539
 30
0.0
 10
425.8845375972247
 20
265.314840836474
 30
0.0
 10
425.9316257460948
 20
236.6420044144147
 30
0.0
 10
426.003922041437
 20
200.8040417850394
 30
0.0
 10
426.0869370249458
 20
165.2226244382963
 30
0.0
 10
426.158115790036
 20
136.5565100688056
 30
0.0
 10
426.2127012112009
 20
115.2903698336208
 30
0.0
 10
426.2699236945516
 20
93.53873931811188
 30
0.0
 10
426.3085940554645
 20
79.20664610888447
 30
0.0
 10
426.3285576410951
 20
71.80769861284581
 30
0.0
  0
SPLINE
  5
CB
330
1F
100
AcDbEntity
  8
0
  6
Continuous
 62
     7
370
    25
100
AcDbSpline
210
0.0
220
0.0
230
1.0
 70
     8
 71
     3
 72
    21
 73
    17
 74
     0
 42
0.00000001
 43
0.00000001
 40
0.0
 40
0.0
 40
0.0
 40
0.0
 40
0.0318329359863466
 40
0.0632784603165092
 40
0.094336595768668
 40
0.1250073659841062
 40
0.1881127179052957
 40
0.2500088420717554
 40
0.375005683850497
 40
0.5000000058057729
 40
0.6249943277610487
 40
0.7499911695397904
 40
0.81188729370625
 40
0.8749926456274395
 40
0.9367215452734464
 40
1.0
 40
1.0
 40
1.0
 40
1.0
 10
414.3742213385072
 20
59.853362361381
 30
0.0
 10
411.3556146637953
 20
59.85758291471269
 30
0.0
 10
405.3551382151625
 20
59.86597265660223
 30
0.0
 10
396.4093787258263
 20
59.87765461577737
 30
0.0
 10
387.5737222747243
 20
59.88857399865985
 30
0.0
 10
375.7356438467964
 20
59.90227686782939
 30
0.0
 10
360.9729204326058
 20
59.91757703146119
 30
0.0
 10
337.2645550825212
 20
59.93807907905635
 30
0.0
 10
307.6861477841827
 20
59.95561781281983
 30
0.0
 10
272.1229756930341
 20
59.96276940751633
 30
0.0
 10
236.5598031022135
 20
59.95561916745154
 30
0.0
 10
206.9813970506711
 20
59.93807480016974
 30
0.0
 10
183.2730292133552
 20
59.91758444098019
 30
0.0
 10
165.5650063407516
 20
59.89919567721774
 30
0.0
 10
147.7262878682403
 20
59.87796558036757
 30
0.0
 10
135.8722290405733
 20
59.86163092759008
 30
0.0
 10
129.8717298810049
 20
59.853362361381
 30
0.0
  0
SPLINE
  5
CC
330
1F
100
AcDbEntity
  8
0
  6
Continuous
 62
     7
370
    25
100
AcDbSpline
210
0.0
220
0.0
230
1.0
 70
     8
 71
     3
 72
    24
 73
    20
 74
     0
 42
0.00000001
 43
0.00000001
 40
0.0
 40
0.0
 40
0.0
 40
0.0
 40
0.0446343141693312
 40
0.0862974154247259
 40
0.1249893257639104
 40
0.191239814735475
 40
0.2499747935499926
 40
0.3124658430715956
 40
0.3749563645837541
 40
0.4374482603405189
 40
0.4999453691305651
 40
0.5624525638355238
 40
0.6249624908181496
 40
0.6874690134423568
 40
0.7499745965573555
 40
0.8087210844201153
 40
0.8749863912827888
 40
0.9341492533549997
 40
1.0
 40
1.0
 40
1.0
 40
1.0
 10
130.3246130416288
 20
427.8116433152838
 30
0.0
 10
134.5430962352098
 20
427.8001893582452
 30
0.0
 10
142.6992470217456
 20
427.7780439101248
 30
0.0
 10
154.5125523090025
 20
427.7468179458235
 30
0.0
 10
168.3692042060464
 20
427.711079827284
 30
0.0
 10
183.8400148450218
 20
427.6729080753519
 30
0.0
 10
201.5613558614435
 20
427.6324741102084
 30
0.0
 10
218.9285918171779
 20
427.5973893001765
 30
0.0
 10
236.6526708890377
 20
427.5684483899215
 30
0.0
 10
254.3791246812912
 20
427.5491671629234
 30
0.0
 10
272.1084311755303
 20
427.5423160856846
 30
0.0
 10
289.8394439791106
 20
427.5491454021714
 30
0.0
 10
307.5700716520682
 20
427.5684153984438
 30
0.0
 10
325.2987445333739
 20
427.5973539445504
 30
0.0
 10
342.6699557429466
 20
427.6324434705941
 30
0.0
 10
360.3951623516939
 20
427.67287706995
 30
0.0
 10
377.803369806915
 20
427.7158534002301
 30
0.0
 10
395.8823017429888
 20
427.7627833717601
 30
0.0
 10
407.6976301642006
 20
427.7947859835104
 30
0.0
 10
413.9213381778832
 20
427.8116433152838
 30
0.0
  0
SPLINE
  5
CD
330
1F
100
AcDbEntity
  8
0
  6
Continuous
 62
     7
370
    25
100
AcDbSpline
210
0.0
220
0.0
230
1.0
 70
     8
 71
     3
 72
    12
 73
     8
 74
     0
 42
0.00000001
 43
0.00000001
 40
0.0
 40
0.0
 40
0.0
 40
0.0
 40
0.25
 40
0.25
 40
0.5
 40
0.5
 40
1.0
 40
1.0
 40
1.0
 40
1.0
 10
295.1229756097561
 20
441.2593071574104
 30
0.0
 10
295.2552849944403
 20
441.2593071574103
 30
0.0
 10
295.3851272036599
 20
441.2570237798419
 30
0.0
 10
295.6274357187518
 20
441.2482260243718
 30
0.0
 10
295.738365430582
 20
441.2417161287966
 30
0.0
 10
296.0147829787734
 20
441.2175038206034
 30
0.0
 10
296.1229756097561
 20
441.1948790733368
 30
0.0
 10
296.1229756097561
 20
441.1718184938827
 30
0.0
  0
LINE
  5
CE
330
1F
100
AcDbEntity
  8
0
  6
Continuous
 62
     7
370
    25
100
AcDbLine
 10
295.1229756098
 20
441.2593071574
 30
0.0
 11
249.1229756098
 21
441.2593071574
 31
0.0
  0
SPLINE
  5
CF
330
1F
100
AcDbEntity
  8
0
  6
Continuous
 62
     7
370
    25
100
AcDbSpline
210
0.0
220
0.0
230
1.0
 70
     8
 71
     3
 72
    12
 73
     8
 74
     0
 42
0.00000001
 43
0.00000001
 40
0.0
 40
0.0
 40
0.0
 40
0.0
 40
0.25
 40
0.25
 40
0.5
 40
0.5
 40
1.0
 40
1.0
 40
1.0
 40
1.0
 10
248.1229756097561
 20
441.1718184938826
 30
0.0
 10
248.1229756097561
 20
441.1833495410309
 30
0.0
 10
248.1488361986363
 20
441.1946627809877
 30
0.0
 10
248.2488341412721
 20
441.2158248086827
 30
0.0
 10
248.3228398225803
 20
441.2255220560938
 30
0.0
 10
248.5991450345747
 20
441.2497591551732
 30
0.0
 10
248.8583391428117
 20
441.2593071574104
 30
0.0
 10
249.1229756097561
 20
441.2593071574104
 30
0.0
  0
LINE
  5
D0
330
1F
100
AcDbEntity
  8
0
  6
Continuous
 62
     7
370
    25
100
AcDbLine
 10
248.1229756098
 20
441.1718184939
 30
0.0
 11
248.1229756098
 21
439.2470678963
 31
0.0
  0
SPLINE
  5
D1
330
1F
100
AcDbEntity
  8
0
  6
Continuous
 62
     7
370
    25
100
AcDbSpline
210
0.0
220
0.0
230
1.0
 70
     8
 71
     3
 72
    12
 73
     8
 74
     0
 42
0.00000001
 43
0.00000001
 40
0.0
 40
0.0
 40
0.0
 40
0.0
 40
0.2499999999999988
 40
0.2499999999999988
 40
0.4999999999999977
 40
0.4999999999999977
 40
1.0
 40
1.0
 40
1.0
 40
1.0
 10
249.1229756097561
 20
439.1595792327448
 30
0.0
 10
248.9906662250719
 20
439.1595792327448
 30
0.0
 10
248.8608240158522
 20
439.1618626103133
 30
0.0
 10
248.6185155007603
 20
439.1706603657835
 30
0.0
 10
248.5075857889302
 20
439.1771702613586
 30
0.0
 10
248.2311682407387
 20
439.2013825695518
 30
0.0
 10
248.1229756097561
 20
439.2240073168184
 30
0.0
 10
248.1229756097561
 20
439.2470678962725
 30
0.0
  0
LINE
  5
D2
330
1F
100
AcDbEntity
  8
0
  6
Continuous
 62
     7
370
    25
100
AcDbLine
 10
249.1229756098
 20
439.1595792327
 30
0.0
 11
295.1229756098
 21
439.1595792327
 31
0.0
  0
SPLINE
  5
D3
330
1F
100
AcDbEntity
  8
0
  6
Continuous
 62
     7
370
    25
100
AcDbSpline
210
0.0
220
0.0
230
1.0
 70
     8
 71
     3
 72
    12
 73
     8
 74
     0
 42
0.00000001
 43
0.00000001
 40
0.0
 40
0.0
 40
0.0
 40
0.0
 40
0.2499999999999988
 40
0.2499999999999988
 40
0.4999999999999977
 40
0.4999999999999977
 40
1.0
 40
1.0
 40
1.0
 40
1.0
 10
296.1229756097561
 20
439.2470678962725
 30
0.0
 10
296.1229756097561
 20
439.2355368491242
 30
0.0
 10
296.0971150208758
 20
439.2242236091675
 30
0.0
 10
295.99711707824
 20
439.2030615814725
 30
0.0
 10
295.9231113969319
 20
439.1933643340614
 30
0.0
 10
295.6468061849374
 20
439.1691272349821
 30
0.0
 10
295.3876120767004
 20
439.1595792327448
 30
0.0
 10
295.1229756097561
 20
439.1595792327448
 30
0.0
  0
LINE
  5
D4
330
1F
100
AcDbEntity
  8
0
  6
Continuous
 62
     7
370
    25
100
AcDbLine
 10
296.1229756098
 20
439.2470678963
 30
0.0
 11
296.1229756098
 21
441.1718184939
 31
0.0
  0
LINE
  5
D5
330
1F
100
AcDbEntity
  8
0
  6
Continuous
 62
     7
370
    25
100
AcDbLine
 10
87.1229756098
 20
468.0671670706
 30
0.0
 11
87.1229756098
 21
20.0507217098
 31
0.0
  0
LINE
  5
D6
330
1F
100
AcDbEntity
  8
0
  6
Continuous
 62
     7
370
    25
100
AcDbLine
 10
457.1229756098
 20
20.0507217098
 30
0.0
 11
457.1229756098
 21
468.0671670706
 31
0.0
  0
LINE
  5
D7
330
1F
100
AcDbEntity
  8
0
  6
Continuous
 62
     7
370
    25
100
AcDbLine
 10
93.114752907
 20
14.0589443902
 30
0.0
 11
451.1311983125
 21
14.0589443902
 31
0.0
  0
LINE
  5
D8
330
1F
100
AcDbEntity
  8
0
  6
Continuous
 62
     7
370
    25
100
AcDbLine
 10
451.1311983125
 20
474.0589443902
 30
0.0
 11
93.114752907
 21
474.0589443902
 31
0.0
  0
SPLINE
  5
D9
330
1F
100
AcDbEntity
  8
0
  6
Continuous
 62
     7
370
    25
100
AcDbSpline
210
0.0
220
0.0
230
1.0
 70
     8
 71
     3
 72
    10
 73
     6
 74
     0
 42
0.00000001
 43
0.00000001
 40
0.0
 40
0.0
 40
0.0
 40
0.0
 40
0.5
 40
0.5
 40
1.0
 40
1.0
 40
1.0
 40
1.0
 10
129.6777880703746
 20
71.43651823238368
 30
0.0
 10
126.7101149738719
 20
71.44604390574996
 30
0.0
 10
123.8652263520492
 20
71.48926105402641
 30
0.0
 10
119.5212951120264
 20
71.62636381947613
 30
0.0
 10
118.1759529187286
 20
71.71539835772094
 30
0.0
 10
117.9173935717543
 20
71.80769874133938
 30
0.0
  0
SPLINE
  5
DA
330
1F
100
AcDbEntity
  8
0
  6
Continuous
 62
     7
370
    25
100
AcDbSpline
210
0.0
220
0.0
230
1.0
 70
     8
 71
     3
 72
    10
 73
     6
 74
     0
 42
0.00000001
 43
0.00000001
 40
0.0
 40
0.0
 40
0.0
 40
0.0
 40
0.4999999999999999
 40
0.4999999999999999
 40
1.0
 40
1.0
 40
1.0
 40
1.0
 10
129.8717299589246
 20
59.8533623523474
 30
0.0
 10
129.8239219084305
 20
60.10934402575571
 30
0.0
 10
129.7777694513942
 20
61.4299498129603
 30
0.0
 10
129.7062834930524
 20
65.69944255269253
 30
0.0
 10
129.6834255513746
 20
68.50047691845667
 30
0.0
 10
129.6777881862294
 20
71.43651811691001
 30
0.0
  0
SPLINE
  5
DB
330
1F
100
AcDbEntity
  8
0
  6
Continuous
 62
     7
370
    25
100
AcDbSpline
210
0.0
220
0.0
230
1.0
 70
     8
 71
     3
 72
    10
 73
     6
 74
     0
 42
0.00000001
 43
0.00000001
 40
0.0
 40
0.0
 40
0.0
 40
0.0
 40
0.5000000000000002
 40
0.5000000000000002
 40
1.0
 40
1.0
 40
1.0
 40
1.0
 10
414.5681630331827
 20
71.43651811690694
 30
0.0
 10
414.5625256685649
 20
68.50047691845288
 30
0.0
 10
414.5396677273964
 20
65.699442552688
 30
0.0
 10
414.4681817698431
 20
61.42994981295463
 30
0.0
 10
414.422029313059
 20
60.10934402574969
 30
0.0
 10
414.374221262627
 20
59.85336235234129
 30
0.0
  0
SPLINE
  5
DC
330
1F
100
AcDbEntity
  8
0
  6
Continuous
 62
     7
370
    25
100
AcDbSpline
210
0.0
220
0.0
230
1.0
 70
     8
 71
     3
 72
    10
 73
     6
 74
     0
 42
0.00000001
 43
0.00000001
 40
0.0
 40
0.0
 40
0.0
 40
0.0
 40
0.5000000000000001
 40
0.5000000000000001
 40
1.0
 40
1.0
 40
1.0
 40
1.0
 10
426.3285576477539
 20
71.80769874337714
 30
0.0
 10
426.0699983007798
 20
71.71539835970373
 30
0.0
 10
424.7246561074826
 20
71.62636382120947
 30
0.0
 10
420.3807248674619
 20
71.48926105496842
 30
0.0
 10
417.5358362456407
 20
71.44604390617806
 30
0.0
 10
414.5681631491394
 20
71.436518232279
 30
0.0
  0
SPLINE
  5
DD
330
1F
100
AcDbEntity
  8
0
  6
Continuous
 62
     7
370
    25
100
AcDbSpline
210
0.0
220
0.0
230
1.0
 70
     8
 71
     3
 72
    10
 73
     6
 74
     0
 42
0.00000001
 43
0.00000001
 40
0.0
 40
0.0
 40
0.0
 40
0.0
 40
0.5000000000000002
 40
0.5000000000000002
 40
1.0
 40
1.0
 40
1.0
 40
1.0
 10
414.29496646439
 20
416.0464903059957
 30
0.0
 10
417.2305663022067
 20
416.0409824384224
 30
0.0
 10
420.0309947899255
 20
416.0186816346639
 30
0.0
 10
424.2994621545817
 20
415.9489516104266
 30
0.0
 10
425.6197280939982
 20
415.9039364204731
 30
0.0
 10
425.875674537502
 20
415.8573069327525
 30
0.0
  0
SPLINE
  5
DE
330
1F
100
AcDbEntity
  8
0
  6
Continuous
 62
     7
370
    25
100
AcDbSpline
210
0.0
220
0.0
230
1.0
 70
     8
 71
     3
 72
    20
 73
    16
 74
     0
 42
0.00000001
 43
0.00000001
 40
0.0
 40
0.0
 40
0.0
 40
0.0
 40
0.25
 40
0.25
 40
0.375
 40
0.375
 40
0.5
 40
0.5
 40
0.625
 40
0.625
 40
0.75
 40
0.75
 40
0.875
 40
0.875
 40
1.0
 40
1.0
 40
1.0
 40
1.0
 10
414.568163033756
 20
71.43651823224378
 30
0.0
 10
414.5063926097561
 20
100.1089882222439
 30
0.0
 10
414.450440496256
 20
128.7848524827439
 30
0.0
 10
414.382733797756
 20
171.8128547652441
 30
0.0
 10
414.3629267477561
 20
186.1579767582441
 30
0.0
 10
414.330273826756
 20
214.8562222442442
 30
0.0
 10
414.317484656756
 20
229.2093809632443
 30
0.0
 10
414.299342802756
 20
257.9278133422443
 30
0.0
 10
414.294039686756
 20
272.2932638092444
 30
0.0
 10
414.2884025574227
 20
301.0348323599106
 30
0.0
 10
414.287891036756
 20
315.4114471222437
 30
0.0
 10
414.2874914407561
 20
344.169426750244
 30
0.0
 10
414.287443420756
 20
358.5503949682439
 30
0.0
 10
414.288740728756
 20
387.3051483082437
 30
0.0
 10
414.290339225756
 20
401.6787305722438
 30
0.0
 10
414.2949663497561
 20
416.0464903062438
 30
0.0
  0
SPLINE
  5
DF
330
1F
100
AcDbEntity
  8
0
  6
Continuous
 62
     7
370
    25
100
AcDbSpline
210
0.0
220
0.0
230
1.0
 70
     8
 71
     3
 72
    14
 73
    10
 74
     0
 42
0.00000001
 43
0.00000001
 40
0.0
 40
0.0
 40
0.0
 40
0.0
 40
0.25
 40
0.25
 40
0.5
 40
0.5
 40
0.75
 40
0.75
 40
1.0
 40
1.0
 40
1.0
 40
1.0
 10
129.677788185756
 20
71.43651823224378
 30
0.0
 10
153.4116307827561
 20
71.45689572024378
 30
0.0
 10
177.1498936937562
 20
71.47178933524378
 30
0.0
 10
224.6330402097561
 20
71.49126108057705
 30
0.0
 10
248.3779503597556
 20
71.49592820624376
 30
0.0
 10
295.8680008597557
 20
71.49592820624379
 30
0.0
 10
319.612911009756
 20
71.49126108057716
 30
0.0
 10
367.096057525756
 20
71.4717893352437
 30
0.0
 10
390.834320436756
 20
71.45689572024378
 30
0.0
 10
414.568163033756
 20
71.43651823224378
 30
0.0
  0
SPLINE
  5
E0
330
1F
100
AcDbEntity
  8
0
  6
Continuous
 62
     7
370
    25
100
AcDbSpline
210
0.0
220
0.0
230
1.0
 70
     8
 71
     3
 72
    10
 73
     6
 74
     0
 42
0.00000001
 43
0.00000001
 40
0.0
 40
0.0
 40
0.0
 40
0.0
 40
0.5000000000000001
 40
0.5000000000000001
 40
1.0
 40
1.0
 40
1.0
 40
1.0
 10
118.3702766811353
 20
415.857306927495
 30
0.0
 10
118.6262231249382
 20
415.9039364149533
 30
0.0
 10
119.9464890646328
 20
415.9489516053031
 30
0.0
 10
124.2149564296982
 20
416.0186816314999
 30
0.0
 10
127.015384917534
 20
416.0409824367536
 30
0.0
 10
129.9509847553576
 20
416.0464903060542
 30
0.0
  0
SPLINE
  5
E1
330
1F
100
AcDbEntity
  8
0
  6
Continuous
 62
     7
370
    25
100
AcDbSpline
210
0.0
220
0.0
230
1.0
 70
     8
 71
     3
 72
    20
 73
    16
 74
     0
 42
0.00000001
 43
0.00000001
 40
0.0
 40
0.0
 40
0.0
 40
0.0
 40
0.125
 40
0.125
 40
0.2500000000000001
 40
0.2500000000000001
 40
0.3750000000000001
 40
0.3750000000000001
 40
0.5
 40
0.5
 40
0.625
 40
0.625
 40
0.75
 40
0.75
 40
1.0
 40
1.0
 40
1.0
 40
1.0
 10
129.950984869756
 20
416.0464903062439
 30
0.0
 10
129.955612879756
 20
401.6759811702437
 30
0.0
 10
129.9572112637559
 20
387.298385659244
 30
0.0
 10
129.958507987756
 20
358.5358189432438
 30
0.0
 10
129.958459907756
 20
344.152178941244
 30
0.0
 10
129.958059535756
 20
315.391447485244
 30
0.0
 10
129.957546807756
 20
301.0147433885775
 30
0.0
 10
129.951905875756
 20
272.2750671432439
 30
0.0
 10
129.946600728756
 20
257.9119410312435
 30
0.0
 10
129.928456698756
 20
229.1974718932433
 30
0.0
 10
129.9156671337559
 20
214.8459535972434
 30
0.0
 10
129.8830146047559
 20
186.1505573162435
 30
0.0
 10
129.863208305756
 20
171.8066433922436
 30
0.0
 10
129.795504689756
 20
128.7818549917437
 30
0.0
 10
129.739555621756
 20
100.1076008322437
 30
0.0
 10
129.677788185756
 20
71.43651823224378
 30
0.0
  0
SPLINE
  5
E2
330
1F
100
AcDbEntity
  8
0
  6
Continuous
 62
     7
370
    25
100
AcDbSpline
210
0.0
220
0.0
230
1.0
 70
     8
 71
     3
 72
    10
 73
     6
 74
     0
 42
0.00000001
 43
0.00000001
 40
0.0
 40
0.0
 40
0.0
 40
0.0
 40
0.5000000000000001
 40
0.5000000000000001
 40
0.9999999999999999
 40
0.9999999999999999
 40
0.9999999999999999
 40
0.9999999999999999
 10
414.2949664643901
 20
416.0464903062108
 30
0.0
 10
417.2301720674508
 20
416.0464903062942
 30
0.0
 10
420.0302574792869
 20
416.0295112683669
 30
0.0
 10
424.2985389400195
 20
415.968032698084
 30
0.0
 10
425.6190098842188
 20
415.9256609373655
 30
0.0
 10
425.875483565498
 20
415.8796893018575
 30
0.0
  0
SPLINE
  5
E3
330
1F
100
AcDbEntity
  8
0
  6
Continuous
 62
     7
370
    25
100
AcDbSpline
210
0.0
220
0.0
230
1.0
 70
     8
 71
     3
 72
    10
 73
     6
 74
     0
 42
0.00000001
 43
0.00000001
 40
0.0
 40
0.0
 40
0.0
 40
0.0
 40
0.4999999999999999
 40
0.4999999999999999
 40
1.0
 40
1.0
 40
1.0
 40
1.0
 10
413.9213381516066
 20
427.8116433182198
 30
0.0
 10
414.0142690957491
 20
427.5530140339318
 30
0.0
 10
414.1039099952442
 20
426.2070042272363
 30
0.0
 10
414.2419246772935
 20
421.8610692950282
 30
0.0
 10
414.2854123105525
 20
419.0150037922099
 30
0.0
 10
414.2949663493845
 20
416.0464904209304
 30
0.0
  0
SPLINE
  5
E4
330
1F
100
AcDbEntity
  8
0
  6
Continuous
 62
     7
370
    25
100
AcDbSpline
210
0.0
220
0.0
230
1.0
 70
     8
 71
     3
 72
    10
 73
     6
 74
     0
 42
0.00000001
 43
0.00000001
 40
0.0
 40
0.0
 40
0.0
 40
0.0
 40
0.5
 40
0.5
 40
1.0
 40
1.0
 40
1.0
 40
1.0
 10
129.9509848701381
 20
416.0464904206794
 30
0.0
 10
129.9605389096451
 20
419.0150037919618
 30
0.0
 10
130.0040265437316
 20
421.8610692948948
 30
0.0
 10
130.1420412274209
 20
426.2070042275114
 30
0.0
 10
130.2316821276704
 20
427.5530140344863
 30
0.0
 10
130.3246130723558
 20
427.8116433190746
 30
0.0
  0
SPLINE
  5
E5
330
1F
100
AcDbEntity
  8
0
  6
Continuous
 62
     7
370
    25
100
AcDbSpline
210
0.0
220
0.0
230
1.0
 70
     8
 71
     3
 72
    22
 73
    18
 74
     0
 42
0.00000001
 43
0.00000001
 40
0.0
 40
0.0
 40
0.0
 40
0.0
 40
0.125
 40
0.125
 40
0.25
 40
0.25
 40
0.375
 40
0.375
 40
0.5
 40
0.5
 40
0.625
 40
0.625
 40
0.75
 40
0.75
 40
0.875
 40
0.875
 40
1.0
 40
1.0
 40
1.0
 40
1.0
 10
414.2949663497561
 20
416.0464903062438
 30
0.0
 10
402.4733253997562
 20
416.0267202622438
 30
0.0
 10
390.649746601756
 20
416.0098811522438
 30
0.0
 10
366.9938426017558
 20
415.9855447442438
 30
0.0
 10
355.161655815256
 20
415.9781967617438
 30
0.0
 10
331.4777834012565
 20
415.9762855597438
 30
0.0
 10
319.6255055522562
 20
415.9823977222439
 30
0.0
 10
295.8864792302559
 20
415.999530194244
 30
0.0
 10
283.9966330942565
 20
416.0090608902438
 30
0.0
 10
260.2181405482562
 20
416.0090465982438
 30
0.0
 10
248.333125519256
 20
415.9995093292437
 30
0.0
 10
224.6005650052562
 20
415.9823852292437
 30
0.0
 10
212.7511309162561
 20
415.9762819202438
 30
0.0
 10
189.072565046256
 20
415.9782027282438
 30
0.0
 10
177.2428408247561
 20
415.9855524457437
 30
0.0
 10
153.5916853687559
 20
416.0098876357438
 30
0.0
 10
141.770389297756
 20
416.0267240022438
 30
0.0
 10
129.950984869756
 20
416.0464903062438
 30
0.0
  0
SPLINE
  5
E6
330
1F
100
AcDbEntity
  8
0
  6
Continuous
 62
     7
370
    25
100
AcDbSpline
210
0.0
220
0.0
230
1.0
 70
     8
 71
     3
 72
    38
 73
    34
 74
     0
 42
0.00000001
 43
0.00000001
 40
0.0
 40
0.0
 40
0.0
 40
0.0
 40
0.0624999999999995
 40
0.0624999999999995
 40
0.124999999999999
 40
0.124999999999999
 40
0.1874999999999985
 40
0.1874999999999985
 40
0.249999999999998
 40
0.249999999999998
 40
0.3124999999999982
 40
0.3124999999999982
 40
0.3749999999999983
 40
0.3749999999999983
 40
0.4374999999999985
 40
0.4374999999999985
 40
0.4999999999999987
 40
0.4999999999999987
 40
0.5624999999999988
 40
0.5624999999999988
 40
0.624999999999999
 40
0.624999999999999
 40
0.6874999999999991
 40
0.6874999999999991
 40
0.7499999999999993
 40
0.7499999999999993
 40
0.8124999999999994
 40
0.8124999999999994
 40
0.8749999999999997
 40
0.8749999999999997
 40
0.9374999999999998
 40
0.9374999999999998
 40
1.0
 40
1.0
 40
1.0
 40
1.0
 10
231.677875469525
 20
393.0781344385269
 30
0.0
 10
230.1034275736521
 20
391.7790778292436
 30
0.0
 10
228.5556479777966
 20
390.3743885346928
 30
0.0
 10
225.5495588332432
 20
387.3503898852863
 30
0.0
 10
224.0913026900521
 20
385.731028503969
 30
0.0
 10
221.3035574326493
 20
382.2818555037124
 30
0.0
 10
219.9741432738652
 20
380.4520063209283
 30
0.0
 10
217.4845490729543
 20
376.5950476644673
 30
0.0
 10
216.3244609881431
 20
374.56792473186
 30
0.0
 10
214.2126299663956
 20
370.3394311233855
 30
0.0
 10
213.2609866977804
 20
368.1380790119078
 30
0.0
 10
211.6008850535869
 20
363.5939134844944
 30
0.0
 10
210.8925208617681
 20
361.2511542837183
 30
0.0
 10
209.746583613305
 20
356.4656518975665
 30
0.0
 10
209.3090845084262
 20
354.0229958868853
 30
0.0
 10
208.722670681298
 20
349.0857298935493
 30
0.0
 10
208.5737968108043
 20
346.5912305027005
 30
0.0
 10
208.5708451331936
 20
341.6018504021222
 30
0.0
 10
208.7167675370188
 20
339.1070888223592
 30
0.0
 10
209.2973997590389
 20
334.1687919771626
 30
0.0
 10
209.7320691076704
 20
331.7253674699322
 30
0.0
 10
210.8725776313796
 20
326.9378731243667
 30
0.0
 10
211.5783431295174
 20
324.5938907543573
 30
0.0
 10
213.233565246185
 20
320.0469019480576
 30
0.0
 10
214.1829278109554
 20
317.8439500831225
 30
0.0
 10
216.2905737855534
 20
313.6119745576045
 30
0.0
 10
217.4487575114982
 20
311.5829698107953
 30
0.0
 10
219.9349475986084
 20
307.7220653023585
 30
0.0
 10
221.2628618710339
 20
305.8901523692193
 30
0.0
 10
224.0480122886477
 20
302.4367657407171
 30
0.0
 10
225.5051732770714
 20
300.8152546765383
 30
0.0
 10
228.5094546375818
 20
297.7869552089554
 30
0.0
 10
230.0565213799782
 20
296.3801148766387
 30
0.0
 10
231.6304283937763
 20
295.0789409367458
 30
0.0
  0
SPLINE
  5
E7
330
1F
100
AcDbEntity
  8
0
  6
Continuous
 62
     7
370
    25
100
AcDbSpline
210
0.0
220
0.0
230
1.0
 70
     8
 71
     3
 72
    38
 73
    34
 74
     0
 42
0.00000001
 43
0.00000001
 40
0.0
 40
0.0
 40
0.0
 40
0.0
 40
0.0625
 40
0.0625
 40
0.1249999999999999
 40
0.1249999999999999
 40
0.1874999999999999
 40
0.1874999999999999
 40
0.2499999999999998
 40
0.2499999999999998
 40
0.3124999999999998
 40
0.3124999999999998
 40
0.3749999999999998
 40
0.3749999999999998
 40
0.4374999999999998
 40
0.4374999999999998
 40
0.4999999999999998
 40
0.4999999999999998
 40
0.5624999999999998
 40
0.5624999999999998
 40
0.6249999999999997
 40
0.6249999999999997
 40
0.6874999999999998
 40
0.6874999999999998
 40
0.7499999999999998
 40
0.7499999999999998
 40
0.8124999999999999
 40
0.8124999999999999
 40
0.875
 40
0.875
 40
0.9375
 40
0.9375
 40
1.0
 40
1.0
 40
1.0
 40
1.0
 10
312.616079814407
 20
295.0794014134632
 30
0.0
 10
314.1899572259291
 20
296.3805810112414
 30
0.0
 10
315.7369931334641
 20
297.787424267466
 30
0.0
 10
318.7412115408259
 20
300.8157232138907
 30
0.0
 10
320.1983404126175
 20
302.4372308281774
 30
0.0
 10
322.983426842821
 20
305.8906035677651
 30
0.0
 10
324.311309248238
 20
307.7225060574169
 30
0.0
 10
326.7974376438914
 20
311.5833825020232
 30
0.0
 10
327.9555915512104
 20
313.6123696254179
 30
0.0
 10
330.0631818506104
 20
317.8443030891658
 30
0.0
 10
331.0125185660588
 20
320.0472305150965
 30
0.0
 10
332.667694789288
 20
324.5941645996457
 30
0.0
 10
333.373440250804
 20
326.9381166893678
 30
0.0
 10
334.5139160470172
 20
331.7255461861005
 30
0.0
 10
334.9485727109997
 20
334.1689361303692
 30
0.0
 10
335.529187935574
 20
339.1071615798087
 30
0.0
 10
335.6751060301359
 20
341.6018863346873
 30
0.0
 10
335.672154465943
 20
346.591192790717
 30
0.0
 10
335.52328501811
 20
349.0856553706691
 30
0.0
 10
334.936888407022
 20
354.0228500227227
 30
0.0
 10
334.4994020919535
 20
356.4654715109112
 30
0.0
 10
333.3534977660513
 20
361.2509091514858
 30
0.0
 10
332.6451537007352
 20
363.5936381347295
 30
0.0
 10
330.9850981095225
 20
368.1377490821059
 30
0.0
 10
330.0334807598847
 20
370.3390768335013
 30
0.0
 10
327.921705530001
 20
374.5675285472472
 30
0.0
 10
326.7616473108353
 20
376.5946339445275
 30
0.0
 10
324.2721148728242
 20
380.4515647156784
 30
0.0
 10
322.9427326054915
 20
382.2814035453861
 30
0.0
 10
320.1550513638538
 20
385.7305628340215
 30
0.0
 10
318.6968273412297
 20
387.3499208523189
 30
0.0
 10
315.690801140569
 20
390.3739191463735
 30
0.0
 10
314.1430523664062
 20
391.7786114437666
 30
0.0
 10
312.5686340530994
 20
393.077673784501
 30
0.0
  0
SPLINE
  5
E8
330
1F
100
AcDbEntity
  8
0
  6
Continuous
 62
     7
370
    25
100
AcDbSpline
210
0.0
220
0.0
230
1.0
 70
     8
 71
     3
 72
    16
 73
    12
 74
     0
 42
0.00000001
 43
0.00000001
 40
0.0
 40
0.0
 40
0.0
 40
0.0
 40
0.1249999999999999
 40
0.1249999999999999
 40
0.2499999999999998
 40
0.2499999999999998
 40
0.4999999999999999
 40
0.4999999999999999
 40
0.7499999999999999
 40
0.7499999999999999
 40
1.0
 40
1.0
 40
1.0
 40
1.0
 10
231.6304283937763
 20
295.0789409367458
 30
0.0
 10
233.3987000556525
 20
293.6170826535602
 30
0.0
 10
235.2007437005685
 20
292.2885951397411
 30
0.0
 10
238.8276272068177
 20
289.8847803874563
 30
0.0
 10
240.6524480973264
 20
288.8093549153181
 30
0.0
 10
246.1059050858619
 20
285.9323958726779
 30
0.0
 10
249.7097693425744
 20
284.4806679989991
 30
0.0
 10
256.6552825154249
 20
282.3120958612262
 30
0.0
 10
259.9980474475287
 20
281.5937566498261
 30
0.0
 10
266.3299373597287
 20
280.6921212868395
 30
0.0
 10
269.3202109989328
 20
280.5082786318324
 30
0.0
 10
272.122975609756
 20
280.5082786318324
 30
0.0
  0
SPLINE
  5
E9
330
1F
100
AcDbEntity
  8
0
  6
Continuous
 62
     7
370
    25
100
AcDbSpline
210
0.0
220
0.0
230
1.0
 70
     8
 71
     3
 72
    16
 73
    12
 74
     0
 42
0.00000001
 43
0.00000001
 40
0.0
 40
0.0
 40
0.0
 40
0.0
 40
0.2499999999999999
 40
0.2499999999999999
 40
0.4999999999999998
 40
0.4999999999999998
 40
0.7499999999999997
 40
0.7499999999999997
 40
0.8749999999999998
 40
0.8749999999999998
 40
1.0
 40
1.0
 40
1.0
 40
1.0
 10
272.122975609756
 20
280.5082786318324
 30
0.0
 10
274.9257770058229
 20
280.5082786318324
 30
0.0
 10
277.9160924139648
 20
280.6921260727818
 30
0.0
 10
284.2480745290853
 20
281.5937873650483
 30
0.0
 10
287.5908899727888
 20
282.3121477658566
 30
0.0
 10
294.5365075524296
 20
284.480786866104
 30
0.0
 10
298.1404257672078
 20
285.9325606411401
 30
0.0
 10
303.5939574769554
 20
288.8096123654931
 30
0.0
 10
305.41880218106
 20
289.8850726824871
 30
0.0
 10
309.0457289814395
 20
292.2889653837815
 30
0.0
 10
310.8477921025653
 20
293.6174960091374
 30
0.0
 10
312.616079814407
 20
295.0794014134632
 30
0.0
  0
SPLINE
  5
EA
330
1F
100
AcDbEntity
  8
0
  6
Continuous
 62
     7
370
    25
100
AcDbSpline
210
0.0
220
0.0
230
1.0
 70
     8
 71
     3
 72
    16
 73
    12
 74
     0
 42
0.00000001
 43
0.00000001
 40
0.0
 40
0.0
 40
0.0
 40
0.0
 40
0.1249999999999998
 40
0.1249999999999998
 40
0.2499999999999996
 40
0.2499999999999996
 40
0.4999999999999997
 40
0.4999999999999997
 40
0.7499999999999998
 40
0.7499999999999998
 40
1.0
 40
1.0
 40
1.0
 40
1.0
 10
312.5686340530994
 20
393.077673784501
 30
0.0
 10
310.8017158715876
 20
394.53556896354
 30
0.0
 10
309.0013134290112
 20
395.8604307788099
 30
0.0
 10
305.378076782129
 20
398.2576901173384
 30
0.0
 10
303.5552611866224
 20
399.3301852541932
 30
0.0
 10
298.1080952230142
 20
402.1993501040575
 30
0.0
 10
294.5087725178056
 20
403.6472178598773
 30
0.0
 10
287.5720465210836
 20
405.8101585181955
 30
0.0
 10
284.2335324990245
 20
406.5267156032014
 30
0.0
 10
277.9094023463364
 20
407.426170099631
 30
0.0
 10
274.9226440745107
 20
407.6096101486552
 30
0.0
 10
272.122975609756
 20
407.6096101486552
 30
0.0
  0
SPLINE
  5
EB
330
1F
100
AcDbEntity
  8
0
  6
Continuous
 62
     7
370
    25
100
AcDbSpline
210
0.0
220
0.0
230
1.0
 70
     8
 71
     3
 72
    16
 73
    12
 74
     0
 42
0.00000001
 43
0.00000001
 40
0.0
 40
0.0
 40
0.0
 40
0.0
 40
0.2500000000000002
 40
0.2500000000000002
 40
0.5000000000000003
 40
0.5000000000000003
 40
0.7500000000000004
 40
0.7500000000000004
 40
0.8750000000000002
 40
0.8750000000000002
 40
1.0
 40
1.0
 40
1.0
 40
1.0
 10
272.122975609756
 20
407.6096101486552
 30
0.0
 10
269.3233440043875
 20
407.6096101486552
 30
0.0
 10
266.3366275798053
 20
407.4261748900302
 30
0.0
 10
260.0125897970629
 20
406.5267463381664
 30
0.0
 10
256.674126375123
 20
405.8102104532087
 30
0.0
 10
249.7375049825017
 20
403.6473367821414
 30
0.0
 10
246.1382363441178
 20
402.1995149412833
 30
0.0
 10
240.6911452970072
 20
399.3304428014711
 30
0.0
 10
238.8683535856612
 20
398.2579825203746
 30
0.0
 10
235.2451603885125
 20
395.8608011591424
 30
0.0
 10
233.4447775072226
 20
394.5359824727768
 30
0.0
 10
231.677875469525
 20
393.0781344385269
 30
0.0
  0
SPLINE
  5
EC
330
1F
100
AcDbEntity
  8
0
  6
Continuous
 62
     7
370
    25
100
AcDbSpline
210
0.0
220
0.0
230
1.0
 70
     8
 71
     3
 72
    54
 73
    50
 74
     0
 42
0.00000001
 43
0.00000001
 40
0.0
 40
0.0
 40
0.0
 40
0.0
 40
0.0625000000000002
 40
0.0625000000000002
 40
0.1250000000000003
 40
0.1250000000000003
 40
0.1875000000000004
 40
0.1875000000000004
 40
0.2500000000000004
 40
0.2500000000000004
 40
0.2812500000000004
 40
0.2812500000000004
 40
0.3125000000000004
 40
0.3125000000000004
 40
0.3437500000000004
 40
0.3437500000000004
 40
0.3750000000000004
 40
0.3750000000000004
 40
0.4062500000000004
 40
0.4062500000000004
 40
0.4375000000000003
 40
0.4375000000000003
 40
0.4687500000000003
 40
0.4687500000000003
 40
0.5000000000000003
 40
0.5000000000000003
 40
0.5312500000000002
 40
0.5312500000000002
 40
0.5625000000000002
 40
0.5625000000000002
 40
0.5937500000000002
 40
0.5937500000000002
 40
0.6250000000000002
 40
0.6250000000000002
 40
0.6562500000000002
 40
0.6562500000000002
 40
0.6875000000000002
 40
0.6875000000000002
 40
0.7187500000000002
 40
0.7187500000000002
 40
0.7500000000000002
 40
0.7500000000000002
 40
0.8125000000000001
 40
0.8125000000000001
 40
0.8750000000000001
 40
0.8750000000000001
 40
0.9375
 40
0.9375
 40
1.0
 40
1.0
 40
1.0
 40
1.0
 10
272.122975609756
 20
403.5090498736201
 30
0.0
 10
274.6000633382149
 20
403.5090498736201
 30
0.0
 10
277.2335088636145
 20
403.3554079689328
 30
0.0
 10
282.7956562009449
 20
402.6104775219644
 30
0.0
 10
285.7251597442691
 20
402.0188338961701
 30
0.0
 10
291.8128505457295
 20
400.2432574123999
 30
0.0
 10
294.9718504730454
 20
399.0583602445781
 30
0.0
 10
301.3764403832634
 20
395.9361226633277
 30
0.0
 10
304.6223666071357
 20
393.9970329962799
 30
0.0
 10
309.3783750457767
 20
390.4300266672773
 30
0.0
 10
310.9441128413519
 20
389.1317424502445
 30
0.0
 10
313.9980471321499
 20
386.3095799582844
 30
0.0
 10
315.4861882223412
 20
384.7856320273201
 30
0.0
 10
318.3421137249967
 20
381.5132173888405
 30
0.0
 10
319.7098132086986
 20
379.7646953615288
 30
0.0
 10
322.2797278085054
 20
376.054381158035
 30
0.0
 10
323.4818325956566
 20
374.0925616932644
 30
0.0
 10
325.6760694762291
 20
369.9783675421658
 30
0.0
 10
326.6680770177437
 20
367.8260059031518
 30
0.0
 10
328.40184442293
 20
363.3651668501972
 30
0.0
 10
329.143483093541
 20
361.0567496976802
 30
0.0
 10
330.3442110622708
 20
356.3288833207774
 30
0.0
 10
330.8032033218734
 20
353.909539469807
 30
0.0
 10
331.4176653931095
 20
349.0130448396148
 30
0.0
 10
331.5730810927678
 20
346.5360321187179
 30
0.0
 10
331.5730810927678
 20
341.5818566617698
 30
0.0
 10
331.4176653931094
 20
339.1048439408728
 30
0.0
 10
330.8032033218734
 20
334.2083493106806
 30
0.0
 10
330.3442110622708
 20
331.7890054597103
 30
0.0
 10
329.143483093541
 20
327.0611390828075
 30
0.0
 10
328.4018444229299
 20
324.7527219302905
 30
0.0
 10
326.6680770177437
 20
320.2918828773359
 30
0.0
 10
325.6760694762291
 20
318.1395212383219
 30
0.0
 10
323.4818325956566
 20
314.0253270872233
 30
0.0
 10
322.2797278085054
 20
312.0635076224526
 30
0.0
 10
319.7098132086986
 20
308.3531934189588
 30
0.0
 10
318.3421137249967
 20
306.6046713916471
 30
0.0
 10
315.4861882223412
 20
303.3322567531676
 30
0.0
 10
313.9980471321498
 20
301.8083088222032
 30
0.0
 10
310.9441128413519
 20
298.9861463302431
 30
0.0
 10
309.3783750457767
 20
297.6878621132103
 30
0.0
 10
304.6223666071357
 20
294.1208557842077
 30
0.0
 10
301.3764403832634
 20
292.18176611716
 30
0.0
 10
294.9718504730454
 20
289.0595285359095
 30
0.0
 10
291.8128505457295
 20
287.8746313680876
 30
0.0
 10
285.7251597442691
 20
286.0990548843175
 30
0.0
 10
282.7956562009449
 20
285.5074112585232
 30
0.0
 10
277.2335088636145
 20
284.7624808115547
 30
0.0
 10
274.6000633382149
 20
284.6088389068675
 30
0.0
 10
272.122975609756
 20
284.6088389068675
 30
0.0
  0
SPLINE
  5
ED
330
1F
100
AcDbEntity
  8
0
  6
Continuous
 62
     7
370
    25
100
AcDbSpline
210
0.0
220
0.0
230
1.0
 70
     8
 71
     3
 72
    54
 73
    50
 74
     0
 42
0.00000001
 43
0.00000001
 40
0.0
 40
0.0
 40
0.0
 40
0.0
 40
0.0624999999999999
 40
0.0624999999999999
 40
0.1249999999999999
 40
0.1249999999999999
 40
0.1874999999999998
 40
0.1874999999999998
 40
0.2499999999999998
 40
0.2499999999999998
 40
0.2812499999999998
 40
0.2812499999999998
 40
0.3124999999999999
 40
0.3124999999999999
 40
0.3437499999999999
 40
0.3437499999999999
 40
0.3749999999999998
 40
0.3749999999999998
 40
0.4062499999999998
 40
0.4062499999999998
 40
0.4374999999999998
 40
0.4374999999999998
 40
0.4687499999999997
 40
0.4687499999999997
 40
0.4999999999999998
 40
0.4999999999999998
 40
0.5312499999999997
 40
0.5312499999999997
 40
0.5624999999999997
 40
0.5624999999999997
 40
0.5937499999999996
 40
0.5937499999999996
 40
0.6249999999999996
 40
0.6249999999999996
 40
0.6562499999999996
 40
0.6562499999999996
 40
0.6874999999999996
 40
0.6874999999999996
 40
0.7187499999999996
 40
0.7187499999999996
 40
0.7499999999999994
 40
0.7499999999999994
 40
0.8124999999999996
 40
0.8124999999999996
 40
0.8749999999999997
 40
0.8749999999999997
 40
0.9374999999999999
 40
0.9374999999999999
 40
1.0
 40
1.0
 40
1.0
 40
1.0
 10
272.122975609756
 20
284.6088389068675
 30
0.0
 10
269.6458878812972
 20
284.6088389068675
 30
0.0
 10
267.0124423558975
 20
284.7624808115547
 30
0.0
 10
261.4502950185671
 20
285.5074112585232
 30
0.0
 10
258.5207914752429
 20
286.0990548843175
 30
0.0
 10
252.4331006737825
 20
287.8746313680876
 30
0.0
 10
249.2741007464666
 20
289.0595285359095
 30
0.0
 10
242.8695108362486
 20
292.18176611716
 30
0.0
 10
239.6235846123762
 20
294.1208557842077
 30
0.0
 10
234.8675761737353
 20
297.6878621132103
 30
0.0
 10
233.3018383781601
 20
298.9861463302431
 30
0.0
 10
230.2479040873621
 20
301.8083088222032
 30
0.0
 10
228.7597629971708
 20
303.3322567531676
 30
0.0
 10
225.9038374945153
 20
306.6046713916471
 30
0.0
 10
224.5361380108135
 20
308.3531934189588
 30
0.0
 10
221.9662234110066
 20
312.0635076224526
 30
0.0
 10
220.7641186238554
 20
314.0253270872233
 30
0.0
 10
218.5698817432829
 20
318.1395212383219
 30
0.0
 10
217.5778742017684
 20
320.2918828773359
 30
0.0
 10
215.8441067965821
 20
324.7527219302905
 30
0.0
 10
215.1024681259711
 20
327.0611390828075
 30
0.0
 10
213.9017401572412
 20
331.7890054597103
 30
0.0
 10
213.4427478976386
 20
334.2083493106807
 30
0.0
 10
212.8282858264026
 20
339.1048439408728
 30
0.0
 10
212.6728701267443
 20
341.5818566617698
 30
0.0
 10
212.6728701267442
 20
346.5360321187179
 30
0.0
 10
212.8282858264026
 20
349.0130448396148
 30
0.0
 10
213.4427478976386
 20
353.909539469807
 30
0.0
 10
213.9017401572412
 20
356.3288833207774
 30
0.0
 10
215.1024681259711
 20
361.0567496976802
 30
0.0
 10
215.8441067965821
 20
363.3651668501972
 30
0.0
 10
217.5778742017684
 20
367.8260059031518
 30
0.0
 10
218.5698817432829
 20
369.9783675421658
 30
0.0
 10
220.7641186238554
 20
374.0925616932644
 30
0.0
 10
221.9662234110067
 20
376.054381158035
 30
0.0
 10
224.5361380108135
 20
379.7646953615289
 30
0.0
 10
225.9038374945153
 20
381.5132173888406
 30
0.0
 10
228.7597629971708
 20
384.78563202732
 30
0.0
 10
230.2479040873621
 20
386.3095799582844
 30
0.0
 10
233.3018383781601
 20
389.1317424502445
 30
0.0
 10
234.8675761737353
 20
390.4300266672773
 30
0.0
 10
239.6235846123762
 20
393.9970329962799
 30
0.0
 10
242.8695108362486
 20
395.9361226633276
 30
0.0
 10
249.2741007464666
 20
399.0583602445781
 30
0.0
 10
252.4331006737825
 20
400.2432574123999
 30
0.0
 10
258.5207914752429
 20
402.0188338961701
 30
0.0
 10
261.4502950185671
 20
402.6104775219643
 30
0.0
 10
267.0124423558975
 20
403.3554079689328
 30
0.0
 10
269.6458878812972
 20
403.5090498736201
 30
0.0
 10
272.122975609756
 20
403.5090498736201
 30
0.0
  0
SPLINE
  5
EE
330
1F
100
AcDbEntity
  8
0
  6
Continuous
 62
     7
370
    25
100
AcDbSpline
210
0.0
220
0.0
230
1.0
 70
     8
 71
     3
 72
    14
 73
    10
 74
     0
 42
0.00000001
 43
0.00000001
 40
0.0
 40
0.0
 40
0.0
 40
0.0
 40
0.25
 40
0.25
 40
0.5000000000000001
 40
0.5000000000000001
 40
0.75
 40
0.75
 40
1.0
 40
1.0
 40
1.0
 40
1.0
 10
272.1229755855538
 20
403.0589443902438
 30
0.0
 10
256.4756455325818
 20
403.0589443838252
 30
0.0
 10
241.4680086938009
 20
396.8425776601158
 30
0.0
 10
219.3393423237743
 20
374.7139112784602
 30
0.0
 10
213.1229756079517
 20
359.7062744364124
 30
0.0
 10
213.1229756115603
 20
328.4116143304685
 30
0.0
 10
219.339342330844
 20
313.4039774898543
 30
0.0
 10
241.4680087059739
 20
291.2753111133021
 30
0.0
 10
256.4756455461885
 20
285.0589443930538
 30
0.0
 10
272.1229755991605
 20
285.0589443902438
 30
0.0
  0
SPLINE
  5
EF
330
1F
100
AcDbEntity
  8
0
  6
Continuous
 62
     7
370
    25
100
AcDbSpline
210
0.0
220
0.0
230
1.0
 70
     8
 71
     3
 72
    18
 73
    14
 74
     0
 42
0.00000001
 43
0.00000001
 40
0.0
 40
0.0
 40
0.0
 40
0.0
 40
0.1666666666666666
 40
0.1666666666666666
 40
0.3333333333333333
 40
0.3333333333333333
 40
0.4999999999999999
 40
0.4999999999999999
 40
0.6666666666666665
 40
0.6666666666666665
 40
0.8333333333333333
 40
0.8333333333333333
 40
0.9999999999999999
 40
0.9999999999999999
 40
0.9999999999999999
 40
0.9999999999999999
 10
272.122975609756
 20
285.0589443902438
 30
0.0
 10
282.4793192512702
 20
285.0589443902438
 30
0.0
 10
292.6541189297306
 20
287.7852737476085
 30
0.0
 10
310.591832296768
 20
298.141617390349
 30
0.0
 10
318.0403026175409
 20
305.5900877126496
 30
0.0
 10
328.3966462566023
 20
323.5278010818111
 30
0.0
 10
331.1229756118801
 20
333.7026007608307
 30
0.0
 10
331.1229756076319
 20
354.4152880438591
 30
0.0
 10
328.3966462481803
 20
364.5900877217603
 30
0.0
 10
318.0403026017607
 20
382.5278010866735
 30
0.0
 10
310.5918322779324
 20
389.9762714059187
 30
0.0
 10
292.6541189066467
 20
400.3326150413012
 30
0.0
 10
282.479319227068
 20
403.058944394492
 30
0.0
 10
272.1229755855538
 20
403.0589443902438
 30
0.0
  0
SPLINE
  5
F0
330
1F
100
AcDbEntity
  8
0
  6
Continuous
 62
     7
370
    25
100
AcDbSpline
210
0.0
220
0.0
230
1.0
 70
     8
 71
     3
 72
    14
 73
    10
 74
     0
 42
0.00000001
 43
0.00000001
 40
0.0
 40
0.0
 40
0.0
 40
0.0
 40
0.25
 40
0.25
 40
0.5000000000000001
 40
0.5000000000000001
 40
0.75
 40
0.75
 40
1.0
 40
1.0
 40
1.0
 40
1.0
 10
272.1229755908865
 20
390.0589443902438
 30
0.0
 10
259.9233623292474
 20
390.0589443852394
 30
0.0
 10
248.2224929295198
 20
385.2122855837033
 30
0.0
 10
230.9696344037364
 20
367.9594270488532
 30
0.0
 10
226.1229756083493
 20
356.2585576465787
 30
0.0
 10
226.1229756111628
 20
331.8593311233004
 30
0.0
 10
230.9696344092483
 20
320.1584617221436
 30
0.0
 10
248.2224929390107
 20
302.9056031912723
 30
0.0
 10
259.9233623398559
 20
298.0589443924347
 30
0.0
 10
272.1229756014951
 20
298.0589443902438
 30
0.0
  0
SPLINE
  5
F1
330
1F
100
AcDbEntity
  8
0
  6
Continuous
 62
     7
370
    25
100
AcDbSpline
210
0.0
220
0.0
230
1.0
 70
     8
 71
     3
 72
    12
 73
     8
 74
     0
 42
0.00000001
 43
0.00000001
 40
0.0
 40
0.0
 40
0.0
 40
0.0
 40
0.3333333333333333
 40
0.3333333333333333
 40
0.6666666666666665
 40
0.6666666666666665
 40
0.9999999999999999
 40
0.9999999999999999
 40
0.9999999999999999
 40
0.9999999999999999
 10
272.122975609756
 20
298.0589443902438
 30
0.0
 10
288.5547934158766
 20
298.0589443902438
 30
0.0
 10
303.7442352858706
 20
306.8285727441096
 30
0.0
 10
320.1760530880996
 20
335.2893160472723
 30
0.0
 10
320.1760530845023
 20
352.828572752927
 30
0.0
 10
303.7442352705984
 20
381.2893160493492
 30
0.0
 10
288.5547933970072
 20
390.0589443969843
 30
0.0
 10
272.1229755908865
 20
390.0589443902438
 30
0.0
  0
LINE
  5
F2
330
1F
100
AcDbEntity
  8
0
  6
Continuous
 62
     8
370
    25
100
AcDbLine
 10
295.1229756098
 20
439.1595792327
 30
0.0
 11
295.1229756098
 21
441.2593071574
 31
0.0
  0
LINE
  5
F3
330
1F
100
AcDbEntity
  8
0
  6
Continuous
 62
     8
370
    25
100
AcDbLine
 10
249.1229756098
 20
441.2593071574
 30
0.0
 11
249.1229756098
 21
439.1595792327
 31
0.0
  0
ENDSEC
  0
SECTION
  2
OBJECTS
  0
DICTIONARY
  5
C
330
0
100
AcDbDictionary
281
     1
  3
ACAD_DETAILVIEWSTYLE
350
FB
  3
ACAD_GROUP
350
D
  3
ACAD_LAYOUT
350
1A
  3
ACAD_MATERIAL
350
43
  3
ACAD_MLEADERSTYLE
350
6B
  3
ACAD_MLINESTYLE
350
17
  3
ACAD_PLOTSETTINGS
350
19
  3
ACAD_PLOTSTYLENAME
350
E
  3
ACAD_SCALELIST
350
47
  3
ACAD_SECTIONVIEWSTYLE
350
FC
  3
ACAD_TABLESTYLE
350
69
  3
ACAD_VISUALSTYLE
350
2A
  3
ACDB_RECOMPOSE_DATA
350
F8
  3
AcDbVariableDictionary
350
F4
  0
SUN
  5
6D
330
29
100
AcDbSun
 90
        1
290
     0
 63
     7
421
 16777215
 40
1.0
291
     1
 91
  2455826
 92
 54000000
292
     0
 70
     2
 71
   256
280
     1
  0
DICTIONARY
  5
FB
102
{ACAD_REACTORS
330
C
102
}
330
C
100
AcDbDictionary
281
     1
  0
DICTIONARY
  5
D
102
{ACAD_REACTORS
330
C
102
}
330
C
100
AcDbDictionary
281
     1
  0
DICTIONARY
  5
1A
102
{ACAD_REACTORS
330
C
102
}
330
C
100
AcDbDictionary
281
     1
  3
Layout1
350
1E
  3
Layout2
350
26
  3
Model
350
22
  0
DICTIONARY
  5
43
102
{ACAD_REACTORS
330
C
102
}
330
C
100
AcDbDictionary
281
     1
  3
ByBlock
350
45
  3
ByLayer
350
44
  3
Global
350
46
  0
DICTIONARY
  5
6B
102
{ACAD_REACTORS
330
C
102
}
330
C
100
AcDbDictionary
281
     1
  3
Standard
350
6C
  0
DICTIONARY
  5
17
102
{ACAD_REACTORS
330
C
102
}
330
C
100
AcDbDictionary
281
     1
  3
Standard
350
18
  0
DICTIONARY
  5
19
102
{ACAD_REACTORS
330
C
102
}
330
C
100
AcDbDictionary
281
     1
  0
ACDBDICTIONARYWDFLT
  5
E
102
{ACAD_REACTORS
330
C
102
}
330
C
100
AcDbDictionary
281
     1
  3
Normal
350
F
100
AcDbDictionaryWithDefault
340
F
  0
DICTIONARY
  5
47
102
{ACAD_REACTORS
330
C
102
}
330
C
100
AcDbDictionary
281
     1
  3
A0
350
48
  3
A1
350
49
  3
A2
350
4A
  3
A3
350
4B
  3
A4
350
4C
  3
A5
350
4D
  3
A6
350
4E
  3
A7
350
4F
  3
A8
350
50
  3
A9
350
51
  3
B0
350
52
  3
B1
350
53
  3
B2
350
54
  3
B3
350
55
  3
B4
350
56
  3
B5
350
57
  3
B6
350
58
  3
B7
350
59
  3
B8
350
5A
  3
B9
350
5B
  3
C0
350
5C
  3
C1
350
5D
  3
C2
350
5E
  3
C3
350
5F
  3
C4
350
60
  3
C5
350
61
  3
C6
350
62
  3
C7
350
63
  3
C8
350
64
  3
C9
350
65
  3
D0
350
66
  3
D1
350
67
  3
D2
350
68
  0
DICTIONARY
  5
FC
102
{ACAD_REACTORS
330
C
102
}
330
C
100
AcDbDictionary
281
     1
  0
DICTIONARY
  5
69
102
{ACAD_REACTORS
330
C
102
}
330
C
100
AcDbDictionary
281
     1
  3
Standard
350
6A
  0
DICTIONARY
  5
2A
102
{ACAD_REACTORS
330
C
102
}
330
C
100
AcDbDictionary
281
     1
  3
2dWireframe
350
2F
  3
Basic
350
32
  3
Brighten
350
36
  3
ColorChange
350
3A
  3
Conceptual
350
34
  3
Dim
350
35
  3
EdgeColorOff
350
3D
  3
Facepattern
350
39
  3
Flat
350
2B
  3
FlatWithEdges
350
2C
  3
Gouraud
350
2D
  3
GouraudWithEdges
350
2E
  3
Hidden
350
31
  3
JitterOff
350
3B
  3
Linepattern
350
38
  3
OverhangOff
350
3C
  3
Realistic
350
33
  3
Shaded
350
42
  3
Shaded with edges
350
41
  3
Shades of Gray
350
3E
  3
Sketchy
350
3F
  3
Thicken
350
37
  3
Wireframe
350
30
  3
X-Ray
350
40
  0
XRECORD
  5
F8
102
{ACAD_REACTORS
330
C
102
}
330
C
100
AcDbXrecord
280
     1
 90
        1
330
6A
  0
DICTIONARY
  5
F4
102
{ACAD_REACTORS
330
C
102
}
330
C
100
AcDbDictionary
281
     1
  3
CANNOSCALE
350
F5
  3
CENTEREXE
350
FD
  3
CENTERLTYPEFILE
350
FE
  3
CMLEADERSTYLE
350
FA
  3
CTABLESTYLE
350
F9
  0
LAYOUT
  5
1E
102
{ACAD_REACTORS
330
1A
102
}
330
1A
100
AcDbPlotSettings
  1

  2
none_device
  4

  6

 40
0.0
 41
0.0
 42
0.0
 43
0.0
 44
0.0
 45
0.0
 46
0.0
 47
0.0
 48
0.0
 49
0.0
140
0.0
141
0.0
142
1.0
143
1.0
 70
   688
 72
     1
 73
     0
 74
     5
  7

 75
    16
 76
     0
 77
     2
 78
   300
147
1.0
148
0.0
149
0.0
100
AcDbLayout
  1
Layout1
 70
     1
 71
     1
 10
0.0
 20
0.0
 11
420.0
 21
297.0
 12
0.0
 22
0.0
 32
0.0
 14
1.0000000000E+20
 24
1.0000000000E+20
 34
1.0000000000E+20
 15
-1.0000000000E+20
 25
-1.0000000000E+20
 35
-1.0000000000E+20
146
0.0
 13
0.0
 23
0.0
 33
0.0
 16
1.0
 26
0.0
 36
0.0
 17
0.0
 27
1.0
 37
0.0
 76
     0
330
1B
  0
LAYOUT
  5
26
102
{ACAD_REACTORS
330
1A
102
}
330
1A
100
AcDbPlotSettings
  1

  2
none_device
  4

  6

 40
0.0
 41
0.0
 42
0.0
 43
0.0
 44
0.0
 45
0.0
 46
0.0
 47
0.0
 48
0.0
 49
0.0
140
0.0
141
0.0
142
1.0
143
1.0
 70
   688
 72
     1
 73
     0
 74
     5
  7

 75
    16
 76
     0
 77
     2
 78
   300
147
1.0
148
0.0
149
0.0
100
AcDbLayout
  1
Layout2
 70
     1
 71
     2
 10
0.0
 20
0.0
 11
0.0
 21
0.0
 12
0.0
 22
0.0
 32
0.0
 14
0.0
 24
0.0
 34
0.0
 15
0.0
 25
0.0
 35
0.0
146
0.0
 13
0.0
 23
0.0
 33
0.0
 16
1.0
 26
0.0
 36
0.0
 17
0.0
 27
1.0
 37
0.0
 76
     0
330
23
  0
LAYOUT
  5
22
102
{ACAD_REACTORS
330
1A
102
}
330
1A
100
AcDbPlotSettings
  1

  2
none_device
  4
Letter_(8.50_x_11.00_Inches)
  6

 40
6.35
 41
6.35
 42
6.35000508
 43
6.35000508
 44
215.9
 45
279.4
 46
0.0
 47
0.0
 48
0.0
 49
0.0
140
0.0
141
0.0
142
1.0
143
1.0
 70
  1712
 72
     1
 73
     0
 74
     0
  7

 75
     0
 76
     0
 77
     2
 78
   300
147
1.0
148
0.0
149
0.0
100
AcDbLayout
  1
Model
 70
     1
 71
     0
 10
0.0
 20
0.0
 11
550.0
 21
500.0
 12
0.0
 22
0.0
 32
0.0
 14
0.0
 24
0.0
 34
0.0
 15
550.0
 25
500.0
 35
0.0
146
0.0
 13
0.0
 23
0.0
 33
0.0
 16
1.0
 26
0.0
 36
0.0
 17
0.0
 27
1.0
 37
0.0
 76
     0
330
1F
331
29
  0
MATERIAL
  5
45
102
{ACAD_REACTORS
330
43
102
}
330
43
100
AcDbMaterial
  1
ByBlock
 72
     1
 94
      127
  0
MATERIAL
  5
44
102
{ACAD_REACTORS
330
43
102
}
330
43
100
AcDbMaterial
  1
ByLayer
 72
     1
 94
      127
  0
MATERIAL
  5
46
102
{ACAD_REACTORS
330
43
102
}
330
43
100
AcDbMaterial
  1
Global
 72
     1
 94
      127
  0
MLEADERSTYLE
  5
6C
102
{ACAD_REACTORS
330
6B
102
}
330
6B
100
AcDbMLeaderStyle
179
     2
170
     2
171
     1
172
     0
 90
        2
 40
0.0
 41
0.0
173
     1
 91
-1056964608
340
14
 92
       -2
290
     1
 42
2.0
291
     1
 43
8.0
  3
Standard
341
0
 44
4.0
300

342
11
174
     1
178
     6
175
     1
176
     0
 93
-1056964608
 45
4.0
292
     0
297
     0
 46
4.0
343
0
 94
-1056964608
 47
1.0
 49
1.0
140
1.0
293
     1
141
0.0
294
     1
177
     0
142
1.0
295
     0
296
     0
143
3.75
271
     0
272
     9
273
     9
298
     0
  0
MLINESTYLE
  5
18
102
{ACAD_REACTORS
330
17
102
}
330
17
100
AcDbMlineStyle
  2
Standard
 70
     0
  3

 62
   256
 51
90.0
 52
90.0
 71
     2
 49
0.5
 62
   256
  6
BYLAYER
 49
-0.5
 62
   256
  6
BYLAYER
  0
ACDBPLACEHOLDER
  5
F
102
{ACAD_REACTORS
330
E
102
}
330
E
  0
SCALE
  5
48
102
{ACAD_REACTORS
330
47
102
}
330
47
100
AcDbScale
 70
     0
300
1:1
140
1.0
141
1.0
290
     1
  0
SCALE
  5
49
102
{ACAD_REACTORS
330
47
102
}
330
47
100
AcDbScale
 70
     0
300
1:2
140
1.0
141
2.0
290
     0
  0
SCALE
  5
4A
102
{ACAD_REACTORS
330
47
102
}
330
47
100
AcDbScale
 70
     0
300
1:4
140
1.0
141
4.0
290
     0
  0
SCALE
  5
4B
102
{ACAD_REACTORS
330
47
102
}
330
47
100
AcDbScale
 70
     0
300
1:5
140
1.0
141
5.0
290
     0
  0
SCALE
  5
4C
102
{ACAD_REACTORS
330
47
102
}
330
47
100
AcDbScale
 70
     0
300
1:8
140
1.0
141
8.0
290
     0
  0
SCALE
  5
4D
102
{ACAD_REACTORS
330
47
102
}
330
47
100
AcDbScale
 70
     0
300
1:10
140
1.0
141
10.0
290
     0
  0
SCALE
  5
4E
102
{ACAD_REACTORS
330
47
102
}
330
47
100
AcDbScale
 70
     0
300
1:16
140
1.0
141
16.0
290
     0
  0
SCALE
  5
4F
102
{ACAD_REACTORS
330
47
102
}
330
47
100
AcDbScale
 70
     0
300
1:20
140
1.0
141
20.0
290
     0
  0
SCALE
  5
50
102
{ACAD_REACTORS
330
47
102
}
330
47
100
AcDbScale
 70
     0
300
1:30
140
1.0
141
30.0
290
     0
  0
SCALE
  5
51
102
{ACAD_REACTORS
330
47
102
}
330
47
100
AcDbScale
 70
     0
300
1:40
140
1.0
141
40.0
290
     0
  0
SCALE
  5
52
102
{ACAD_REACTORS
330
47
102
}
330
47
100
AcDbScale
 70
     0
300
1:50
140
1.0
141
50.0
290
     0
  0
SCALE
  5
53
102
{ACAD_REACTORS
330
47
102
}
330
47
100
AcDbScale
 70
     0
300
1:100
140
1.0
141
100.0
290
     0
  0
SCALE
  5
54
102
{ACAD_REACTORS
330
47
102
}
330
47
100
AcDbScale
 70
     0
300
2:1
140
2.0
141
1.0
290
     0
  0
SCALE
  5
55
102
{ACAD_REACTORS
330
47
102
}
330
47
100
AcDbScale
 70
     0
300
4:1
140
4.0
141
1.0
290
     0
  0
SCALE
  5
56
102
{ACAD_REACTORS
330
47
102
}
330
47
100
AcDbScale
 70
     0
300
8:1
140
8.0
141
1.0
290
     0
  0
SCALE
  5
57
102
{ACAD_REACTORS
330
47
102
}
330
47
100
AcDbScale
 70
     0
300
10:1
140
10.0
141
1.0
290
     0
  0
SCALE
  5
58
102
{ACAD_REACTORS
330
47
102
}
330
47
100
AcDbScale
 70
     0
300
100:1
140
100.0
141
1.0
290
     0
  0
SCALE
  5
59
102
{ACAD_REACTORS
330
47
102
}
330
47
100
AcDbScale
 70
     0
300
1/128" = 1'-0"
140
0.0078125
141
12.0
290
     0
  0
SCALE
  5
5A
102
{ACAD_REACTORS
330
47
102
}
330
47
100
AcDbScale
 70
     0
300
1/64" = 1'-0"
140
0.015625
141
12.0
290
     0
  0
SCALE
  5
5B
102
{ACAD_REACTORS
330
47
102
}
330
47
100
AcDbScale
 70
     0
300
1/32" = 1'-0"
140
0.03125
141
12.0
290
     0
  0
SCALE
  5
5C
102
{ACAD_REACTORS
330
47
102
}
330
47
100
AcDbScale
 70
     0
300
1/16" = 1'-0"
140
0.0625
141
12.0
290
     0
  0
SCALE
  5
5D
102
{ACAD_REACTORS
330
47
102
}
330
47
100
AcDbScale
 70
     0
300
3/32" = 1'-0"
140
0.09375
141
12.0
290
     0
  0
SCALE
  5
5E
102
{ACAD_REACTORS
330
47
102
}
330
47
100
AcDbScale
 70
     0
300
1/8" = 1'-0"
140
0.125
141
12.0
290
     0
  0
SCALE
  5
5F
102
{ACAD_REACTORS
330
47
102
}
330
47
100
AcDbScale
 70
     0
300
3/16" = 1'-0"
140
0.1875
141
12.0
290
     0
  0
SCALE
  5
60
102
{ACAD_REACTORS
330
47
102
}
330
47
100
AcDbScale
 70
     0
300
1/4" = 1'-0"
140
0.25
141
12.0
290
     0
  0
SCALE
  5
61
102
{ACAD_REACTORS
330
47
102
}
330
47
100
AcDbScale
 70
     0
300
3/8" = 1'-0"
140
0.375
141
12.0
290
     0
  0
SCALE
  5
62
102
{ACAD_REACTORS
330
47
102
}
330
47
100
AcDbScale
 70
     0
300
1/2" = 1'-0"
140
0.5
141
12.0
290
     0
  0
SCALE
  5
63
102
{ACAD_REACTORS
330
47
102
}
330
47
100
AcDbScale
 70
     0
300
3/4" = 1'-0"
140
0.75
141
12.0
290
     0
  0
SCALE
  5
64
102
{ACAD_REACTORS
330
47
102
}
330
47
100
AcDbScale
 70
     0
300
1" = 1'-0"
140
1.0
141
12.0
290
     0
  0
SCALE
  5
65
102
{ACAD_REACTORS
330
47
102
}
330
47
100
AcDbScale
 70
     0
300
1-1/2" = 1'-0"
140
1.5
141
12.0
290
     0
  0
SCALE
  5
66
102
{ACAD_REACTORS
330
47
102
}
330
47
100
AcDbScale
 70
     0
300
3" = 1'-0"
140
3.0
141
12.0
290
     0
  0
SCALE
  5
67
102
{ACAD_REACTORS
330
47
102
}
330
47
100
AcDbScale
 70
     0
300
6" = 1'-0"
140
6.0
141
12.0
290
     0
  0
SCALE
  5
68
102
{ACAD_REACTORS
330
47
102
}
330
47
100
AcDbScale
 70
     0
300
1'-0" = 1'-0"
140
12.0
141
12.0
290
     0
  0
TABLESTYLE
  5
6A
102
{ACAD_REACTORS
330
69
102
}
102
{ACAD_XDICTIONARY
360
F6
102
}
330
69
100
AcDbTableStyle
  3
Standard
 70
     0
 71
     0
 40
0.06
 41
0.06
280
     0
281
     0
  7
Standard
140
4.5
170
     2
 62
     0
 63
   257
283
     0
 90
        4
 91
        0
  1

274
    -2
284
     1
 64
     0
275
    -2
285
     1
 65
     0
276
    -2
286
     1
 66
     0
277
    -2
287
     1
 67
     0
278
    -2
288
     1
 68
     0
279
    -2
289
     1
 69
     0
  7
Standard
140
6.0
170
     5
 62
     0
 63
   257
283
     0
 90
        4
 91
        0
  1

274
    -2
284
     1
 64
     0
275
    -2
285
     1
 65
     0
276
    -2
286
     1
 66
     0
277
    -2
287
     1
 67
     0
278
    -2
288
     1
 68
     0
279
    -2
289
     1
 69
     0
  7
Standard
140
4.5
170
     5
 62
     0
 63
   257
283
     0
 90
        4
 91
        0
  1

274
    -2
284
     1
 64
     0
275
    -2
285
     1
 65
     0
276
    -2
286
     1
 66
     0
277
    -2
287
     1
 67
     0
278
    -2
288
     1
 68
     0
279
    -2
289
     1
 69
     0
  0
VISUALSTYLE
  5
2F
102
{ACAD_REACTORS
330
2A
102
}
330
2A
100
AcDbVisualStyle
  2
2dWireframe
 70
     4
177
     3
291
     0
 70
    58
 90
        0
176
     1
 90
        2
176
     1
 90
        0
176
     1
 90
        0
176
     1
 40
0.6
176
     1
 40
30.0
176
     1
 62
     7
420
 16777215
176
     1
 90
        1
176
     1
 90
        4
176
     1
 62
     7
176
     1
 62
   257
176
     1
 90
        1
176
     1
 90
        1
176
     1
 40
1.0
176
     1
 90
        0
176
     1
 62
   257
176
     1
 40
1.0
176
     1
 90
        1
176
     1
 90
        6
176
     1
 90
        2
176
     1
 62
     7
176
     1
 90
        5
176
     1
 90
        0
176
     1
 90
        0
176
     1
290
     0
176
     1
 90
        1
176
     1
 40
0.0
176
     1
 90
        0
176
     1
290
     1
176
     1
290
     1
176
     1
290
     0
176
     1
290
     0
176
     1
290
     0
176
     1
290
     0
176
     1
290
     0
176
     1
290
     0
176
     1
290
     0
176
     1
 90
       50
176
     1
 40
0.0
176
     1
 40
1.0
176
     1
 90
        0
176
     1
 62
    18
420
        0
176
     1
 90
       50
176
     1
 90
        3
176
     1
 62
     5
420
      255
176
     1
290
     0
176
     1
 90
       50
176
     1
 90
       50
176
     1
 90
       50
176
     1
290
     0
176
     1
 90
       50
176
     1
 62
   256
176
     0
 40
1.0
176
     0
 90
        2
176
     1
  1
strokes_ogs.tif
176
     1
290
     0
176
     1
 40
1.0
176
     1
 40
1.0
176
     1
  0
VISUALSTYLE
  5
32
102
{ACAD_REACTORS
330
2A
102
}
330
2A
100
AcDbVisualStyle
  2
Basic
 70
     7
177
     3
291
     1
 70
    58
 90
        1
176
     1
 90
        0
176
     1
 90
        1
176
     1
 90
        0
176
     1
 40
0.6
176
     1
 40
30.0
176
     1
 62
     7
420
 16777215
176
     1
 90
        0
176
     1
 90
        4
176
     1
 62
     7
176
     1
 62
   257
176
     1
 90
        1
176
     1
 90
        1
176
     1
 40
1.0
176
     1
 90
        8
176
     1
 62
     7
176
     1
 40
1.0
176
     1
 90
        1
176
     1
 90
        6
176
     1
 90
        2
176
     1
 62
     7
176
     1
 90
        5
176
     1
 90
        0
176
     1
 90
        0
176
     1
290
     0
176
     1
 90
        1
176
     1
 40
0.0
176
     1
 90
        0
176
     1
290
     0
176
     1
290
     1
176
     1
290
     1
176
     1
290
     0
176
     1
290
     0
176
     1
290
     0
176
     1
290
     0
176
     1
290
     0
176
     1
290
     0
176
     1
 90
       50
176
     1
 40
0.0
176
     1
 40
1.0
176
     1
 90
        0
176
     1
 62
    18
420
        0
176
     1
 90
       50
176
     1
 90
        3
176
     1
 62
     5
420
      255
176
     1
290
     0
176
     1
 90
       50
176
     1
 90
       50
176
     1
 90
       50
176
     1
290
     0
176
     1
 90
       50
176
     1
 62
   256
176
     0
 40
1.0
176
     0
 90
        2
176
     1
  1
strokes_ogs.tif
176
     1
290
     0
176
     1
 40
1.0
176
     1
 40
1.0
176
     1
  0
VISUALSTYLE
  5
36
102
{ACAD_REACTORS
330
2A
102
}
330
2A
100
AcDbVisualStyle
  2
Brighten
 70
    12
177
     3
291
     1
 70
    58
 90
        2
176
     1
 90
        2
176
     1
 90
        0
176
     1
 90
        0
176
     1
 40
0.6
176
     1
 40
30.0
176
     1
 62
     7
420
 16777215
176
     1
 90
        1
176
     1
 90
        4
176
     1
 62
     7
176
     1
 62
   257
176
     1
 90
        1
176
     1
 90
        1
176
     1
 40
1.0
176
     1
 90
        8
176
     1
 62
     7
176
     1
 40
1.0
176
     1
 90
        1
176
     1
 90
        6
176
     1
 90
        2
176
     1
 62
     7
176
     1
 90
        5
176
     1
 90
        0
176
     1
 90
        0
176
     1
290
     0
176
     1
 90
        1
176
     1
 40
50.0
176
     1
 90
        0
176
     1
290
     0
176
     1
290
     1
176
     1
290
     1
176
     1
290
     0
176
     1
290
     0
176
     1
290
     0
176
     1
290
     0
176
     1
290
     0
176
     1
290
     0
176
     1
 90
       50
176
     1
 40
0.0
176
     1
 40
1.0
176
     1
 90
        0
176
     1
 62
    18
420
        0
176
     1
 90
       50
176
     1
 90
        3
176
     1
 62
     5
420
      255
176
     1
290
     0
176
     1
 90
       50
176
     1
 90
       50
176
     1
 90
       50
176
     1
290
     0
176
     1
 90
       50
176
     1
 62
   256
176
     0
 40
1.0
176
     0
 90
        2
176
     1
  1
strokes_ogs.tif
176
     1
290
     0
176
     1
 40
1.0
176
     1
 40
1.0
176
     1
  0
VISUALSTYLE
  5
3A
102
{ACAD_REACTORS
330
2A
102
}
330
2A
100
AcDbVisualStyle
  2
ColorChange
 70
    16
177
     3
291
     1
 70
    58
 90
        2
176
     1
 90
        2
176
     1
 90
        3
176
     1
 90
        0
176
     1
 40
0.6
176
     1
 40
30.0
176
     1
 62
     8
420
  8421504
176
     1
 90
        1
176
     1
 90
        4
176
     1
 62
     7
176
     1
 62
   257
176
     1
 90
        1
176
     1
 90
        1
176
     1
 40
1.0
176
     1
 90
        8
176
     1
 62
     8
420
  8421504
176
     1
 40
1.0
176
     1
 90
        1
176
     1
 90
        6
176
     1
 90
        2
176
     1
 62
     7
176
     1
 90
        5
176
     1
 90
        0
176
     1
 90
        0
176
     1
290
     0
176
     1
 90
        1
176
     1
 40
0.0
176
     1
 90
        0
176
     1
290
     0
176
     1
290
     1
176
     1
290
     1
176
     1
290
     0
176
     1
290
     0
176
     1
290
     0
176
     1
290
     0
176
     1
290
     0
176
     1
290
     0
176
     1
 90
       50
176
     1
 40
0.0
176
     1
 40
1.0
176
     1
 90
        0
176
     1
 62
    18
420
        0
176
     1
 90
       50
176
     1
 90
        3
176
     1
 62
     5
420
      255
176
     1
290
     0
176
     1
 90
       50
176
     1
 90
       50
176
     1
 90
       50
176
     1
290
     0
176
     1
 90
       50
176
     1
 62
   256
176
     0
 40
1.0
176
     0
 90
        2
176
     1
  1
strokes_ogs.tif
176
     1
290
     0
176
     1
 40
1.0
176
     1
 40
1.0
176
     1
  0
VISUALSTYLE
  5
34
102
{ACAD_REACTORS
330
2A
102
}
330
2A
100
AcDbVisualStyle
  2
Conceptual
 70
     9
177
     3
291
     0
 70
    58
 90
        3
176
     1
 90
        2
176
     1
 90
        0
176
     1
 90
        0
176
     1
 40
0.6
176
     1
 40
30.0
176
     1
 62
     7
420
 16777215
176
     1
 90
        2
176
     1
 90
        2
176
     1
 62
     7
176
     1
 62
   257
176
     1
 90
        1
176
     1
 90
        1
176
     1
 40
179.0
176
     1
 90
        8
176
     1
 62
     7
176
     1
 40
1.0
176
     1
 90
        1
176
     1
 90
        6
176
     1
 90
        2
176
     1
 62
     7
176
     1
 90
        3
176
     1
 90
        0
176
     1
 90
        0
176
     1
290
     0
176
     1
 90
        1
176
     1
 40
0.0
176
     1
 90
        0
176
     1
290
     0
176
     1
290
     1
176
     1
290
     1
176
     1
290
     0
176
     1
290
     0
176
     1
290
     0
176
     1
290
     0
176
     1
290
     0
176
     1
290
     0
176
     1
 90
       50
176
     1
 40
0.0
176
     1
 40
1.0
176
     1
 90
        0
176
     1
 62
    18
420
        0
176
     1
 90
       50
176
     1
 90
        3
176
     1
 62
     5
420
      255
176
     1
290
     0
176
     1
 90
       50
176
     1
 90
       50
176
     1
 90
       50
176
     1
290
     0
176
     1
 90
       50
176
     1
 62
   256
176
     0
 40
1.0
176
     0
 90
        2
176
     1
  1
strokes_ogs.tif
176
     1
290
     0
176
     1
 40
1.0
176
     1
 40
1.0
176
     1
  0
VISUALSTYLE
  5
35
102
{ACAD_REACTORS
330
2A
102
}
330
2A
100
AcDbVisualStyle
  2
Dim
 70
    11
177
     3
291
     1
 70
    58
 90
        2
176
     1
 90
        2
176
     1
 90
        0
176
     1
 90
        0
176
     1
 40
0.6
176
     1
 40
30.0
176
     1
 62
     7
420
 16777215
176
     1
 90
        1
176
     1
 90
        4
176
     1
 62
     7
176
     1
 62
   257
176
     1
 90
        1
176
     1
 90
        1
176
     1
 40
1.0
176
     1
 90
        8
176
     1
 62
     7
176
     1
 40
1.0
176
     1
 90
        1
176
     1
 90
        6
176
     1
 90
        2
176
     1
 62
     7
176
     1
 90
        5
176
     1
 90
        0
176
     1
 90
        0
176
     1
290
     0
176
     1
 90
        1
176
     1
 40
-50.0
176
     1
 90
        0
176
     1
290
     0
176
     1
290
     1
176
     1
290
     1
176
     1
290
     0
176
     1
290
     0
176
     1
290
     0
176
     1
290
     0
176
     1
290
     0
176
     1
290
     0
176
     1
 90
       50
176
     1
 40
0.0
176
     1
 40
1.0
176
     1
 90
        0
176
     1
 62
    18
420
        0
176
     1
 90
       50
176
     1
 90
        3
176
     1
 62
     5
420
      255
176
     1
290
     0
176
     1
 90
       50
176
     1
 90
       50
176
     1
 90
       50
176
     1
290
     0
176
     1
 90
       50
176
     1
 62
   256
176
     0
 40
1.0
176
     0
 90
        2
176
     1
  1
strokes_ogs.tif
176
     1
290
     0
176
     1
 40
1.0
176
     1
 40
1.0
176
     1
  0
VISUALSTYLE
  5
3D
102
{ACAD_REACTORS
330
2A
102
}
330
2A
100
AcDbVisualStyle
  2
EdgeColorOff
 70
    22
177
     3
291
     1
 70
    58
 90
        2
176
     0
 90
        2
176
     0
 90
        0
176
     0
 90
        0
176
     0
 40
0.6
176
     0
 40
30.0
176
     0
 62
     7
420
 16777215
176
     0
 90
        1
176
     0
 90
        4
176
     0
 62
     7
176
     0
 62
   257
176
     0
 90
        1
176
     0
 90
        1
176
     0
 40
1.0
176
     0
 90
        8
176
     2
 62
     7
176
     0
 40
1.0
176
     0
 90
        1
176
     0
 90
        6
176
     0
 90
        2
176
     0
 62
     7
176
     0
 90
        5
176
     0
 90
        0
176
     0
 90
        0
176
     0
290
     0
176
     0
 90
        1
176
     0
 40
0.0
176
     0
 90
        0
176
     0
290
     0
176
     0
290
     1
176
     0
290
     1
176
     0
290
     0
176
     0
290
     0
176
     0
290
     0
176
     0
290
     0
176
     0
290
     0
176
     0
290
     0
176
     0
 90
       50
176
     0
 40
0.0
176
     0
 40
1.0
176
     0
 90
        0
176
     0
 62
    18
420
        0
176
     0
 90
       50
176
     0
 90
        3
176
     0
 62
     5
420
      255
176
     0
290
     0
176
     0
 90
       50
176
     0
 90
       50
176
     0
 90
       50
176
     0
290
     0
176
     0
 90
       50
176
     0
 62
   256
176
     0
 40
1.0
176
     0
 90
        2
176
     0
  1
strokes_ogs.tif
176
     0
290
     0
176
     0
 40
1.0
176
     0
 40
1.0
176
     0
  0
VISUALSTYLE
  5
39
102
{ACAD_REACTORS
330
2A
102
}
330
2A
100
AcDbVisualStyle
  2
Facepattern
 70
    15
177
     3
291
     1
 70
    58
 90
        2
176
     1
 90
        2
176
     1
 90
        0
176
     1
 90
        0
176
     1
 40
0.6
176
     1
 40
30.0
176
     1
 62
     7
420
 16777215
176
     1
 90
        1
176
     1
 90
        4
176
     1
 62
     7
176
     1
 62
   257
176
     1
 90
        1
176
     1
 90
        1
176
     1
 40
1.0
176
     1
 90
        8
176
     1
 62
     7
176
     1
 40
1.0
176
     1
 90
        1
176
     1
 90
        6
176
     1
 90
        2
176
     1
 62
     7
176
     1
 90
        5
176
     1
 90
        0
176
     1
 90
        0
176
     1
290
     0
176
     1
 90
        1
176
     1
 40
0.0
176
     1
 90
        0
176
     1
290
     0
176
     1
290
     1
176
     1
290
     1
176
     1
290
     0
176
     1
290
     0
176
     1
290
     0
176
     1
290
     0
176
     1
290
     0
176
     1
290
     0
176
     1
 90
       50
176
     1
 40
0.0
176
     1
 40
1.0
176
     1
 90
        0
176
     1
 62
    18
420
        0
176
     1
 90
       50
176
     1
 90
        3
176
     1
 62
     5
420
      255
176
     1
290
     0
176
     1
 90
       50
176
     1
 90
       50
176
     1
 90
       50
176
     1
290
     0
176
     1
 90
       50
176
     1
 62
   256
176
     0
 40
1.0
176
     0
 90
        2
176
     1
  1
strokes_ogs.tif
176
     1
290
     0
176
     1
 40
1.0
176
     1
 40
1.0
176
     1
  0
VISUALSTYLE
  5
2B
102
{ACAD_REACTORS
330
2A
102
}
330
2A
100
AcDbVisualStyle
  2
Flat
 70
     0
177
     3
291
     1
 70
    58
 90
        2
176
     1
 90
        1
176
     1
 90
        1
176
     1
 90
        2
176
     1
 40
0.6
176
     1
 40
30.0
176
     1
 62
     7
420
 16777215
176
     1
 90
        0
176
     1
 90
        0
176
     1
 62
     7
176
     1
 62
   257
176
     1
 90
        1
176
     1
 90
        1
176
     1
 40
1.0
176
     1
 90
        8
176
     1
 62
     7
176
     1
 40
1.0
176
     1
 90
        1
176
     1
 90
        6
176
     1
 90
        2
176
     1
 62
     7
176
     1
 90
        5
176
     1
 90
        0
176
     1
 90
        0
176
     1
290
     0
176
     1
 90
       13
176
     1
 40
0.0
176
     1
 90
        0
176
     1
290
     0
176
     1
290
     1
176
     1
290
     1
176
     1
290
     0
176
     1
290
     0
176
     1
290
     0
176
     1
290
     0
176
     1
290
     0
176
     1
290
     0
176
     1
 90
       50
176
     1
 40
0.0
176
     1
 40
1.0
176
     1
 90
        0
176
     1
 62
    18
420
        0
176
     1
 90
       50
176
     1
 90
        3
176
     1
 62
     5
420
      255
176
     1
290
     0
176
     1
 90
       50
176
     1
 90
       50
176
     1
 90
       50
176
     1
290
     0
176
     1
 90
       50
176
     1
 62
   256
176
     0
 40
1.0
176
     0
 90
        2
176
     1
  1
strokes_ogs.tif
176
     1
290
     0
176
     1
 40
1.0
176
     1
 40
1.0
176
     1
  0
VISUALSTYLE
  5
2C
102
{ACAD_REACTORS
330
2A
102
}
330
2A
100
AcDbVisualStyle
  2
FlatWithEdges
 70
     1
177
     3
291
     1
 70
    58
 90
        2
176
     1
 90
        1
176
     1
 90
        1
176
     1
 90
        2
176
     1
 40
0.6
176
     1
 40
30.0
176
     1
 62
     7
420
 16777215
176
     1
 90
        1
176
     1
 90
        0
176
     1
 62
     7
176
     1
 62
   257
176
     1
 90
        1
176
     1
 90
        1
176
     1
 40
1.0
176
     1
 90
        0
176
     1
 62
   257
176
     1
 40
1.0
176
     1
 90
        1
176
     1
 90
        6
176
     1
 90
        2
176
     1
 62
     7
176
     1
 90
        5
176
     1
 90
        0
176
     1
 90
        0
176
     1
290
     0
176
     1
 90
       13
176
     1
 40
0.0
176
     1
 90
        0
176
     1
290
     0
176
     1
290
     1
176
     1
290
     1
176
     1
290
     0
176
     1
290
     0
176
     1
290
     0
176
     1
290
     0
176
     1
290
     0
176
     1
290
     0
176
     1
 90
       50
176
     1
 40
0.0
176
     1
 40
1.0
176
     1
 90
        0
176
     1
 62
    18
420
        0
176
     1
 90
       50
176
     1
 90
        3
176
     1
 62
     5
420
      255
176
     1
290
     0
176
     1
 90
       50
176
     1
 90
       50
176
     1
 90
       50
176
     1
290
     0
176
     1
 90
       50
176
     1
 62
   256
176
     0
 40
1.0
176
     0
 90
        2
176
     1
  1
strokes_ogs.tif
176
     1
290
     0
176
     1
 40
1.0
176
     1
 40
1.0
176
     1
  0
VISUALSTYLE
  5
2D
102
{ACAD_REACTORS
330
2A
102
}
330
2A
100
AcDbVisualStyle
  2
Gouraud
 70
     2
177
     3
291
     1
 70
    58
 90
        2
176
     1
 90
        2
176
     1
 90
        1
176
     1
 90
        2
176
     1
 40
0.6
176
     1
 40
30.0
176
     1
 62
     7
420
 16777215
176
     1
 90
        0
176
     1
 90
        0
176
     1
 62
     7
176
     1
 62
   257
176
     1
 90
        1
176
     1
 90
        1
176
     1
 40
1.0
176
     1
 90
        0
176
     1
 62
     7
176
     1
 40
1.0
176
     1
 90
        1
176
     1
 90
        6
176
     1
 90
        2
176
     1
 62
     7
176
     1
 90
        5
176
     1
 90
        0
176
     1
 90
        0
176
     1
290
     0
176
     1
 90
       13
176
     1
 40
0.0
176
     1
 90
        0
176
     1
290
     0
176
     1
290
     1
176
     1
290
     1
176
     1
290
     0
176
     1
290
     0
176
     1
290
     0
176
     1
290
     0
176
     1
290
     0
176
     1
290
     0
176
     1
 90
       50
176
     1
 40
0.0
176
     1
 40
1.0
176
     1
 90
        0
176
     1
 62
    18
420
        0
176
     1
 90
       50
176
     1
 90
        3
176
     1
 62
     5
420
      255
176
     1
290
     0
176
     1
 90
       50
176
     1
 90
       50
176
     1
 90
       50
176
     1
290
     0
176
     1
 90
       50
176
     1
 62
   256
176
     0
 40
1.0
176
     0
 90
        2
176
     1
  1
strokes_ogs.tif
176
     1
290
     0
176
     1
 40
1.0
176
     1
 40
1.0
176
     1
  0
VISUALSTYLE
  5
2E
102
{ACAD_REACTORS
330
2A
102
}
330
2A
100
AcDbVisualStyle
  2
GouraudWithEdges
 70
     3
177
     3
291
     1
 70
    58
 90
        2
176
     1
 90
        2
176
     1
 90
        1
176
     1
 90
        2
176
     1
 40
0.6
176
     1
 40
30.0
176
     1
 62
     7
420
 16777215
176
     1
 90
        1
176
     1
 90
        0
176
     1
 62
     7
176
     1
 62
   257
176
     1
 90
        1
176
     1
 90
        1
176
     1
 40
1.0
176
     1
 90
        0
176
     1
 62
   257
176
     1
 40
1.0
176
     1
 90
        1
176
     1
 90
        6
176
     1
 90
        2
176
     1
 62
     7
176
     1
 90
        5
176
     1
 90
        0
176
     1
 90
        0
176
     1
290
     0
176
     1
 90
       13
176
     1
 40
0.0
176
     1
 90
        0
176
     1
290
     0
176
     1
290
     1
176
     1
290
     1
176
     1
290
     0
176
     1
290
     0
176
     1
290
     0
176
     1
290
     0
176
     1
290
     0
176
     1
290
     0
176
     1
 90
       50
176
     1
 40
0.0
176
     1
 40
1.0
176
     1
 90
        0
176
     1
 62
    18
420
        0
176
     1
 90
       50
176
     1
 90
        3
176
     1
 62
     5
420
      255
176
     1
290
     0
176
     1
 90
       50
176
     1
 90
       50
176
     1
 90
       50
176
     1
290
     0
176
     1
 90
       50
176
     1
 62
   256
176
     0
 40
1.0
176
     0
 90
        2
176
     1
  1
strokes_ogs.tif
176
     1
290
     0
176
     1
 40
1.0
176
     1
 40
1.0
176
     1
  0
VISUALSTYLE
  5
31
102
{ACAD_REACTORS
330
2A
102
}
330
2A
100
AcDbVisualStyle
  2
Hidden
 70
     6
177
     3
291
     0
 70
    58
 90
        1
176
     1
 90
        2
176
     1
 90
        2
176
     1
 90
        0
176
     1
 40
0.6
176
     1
 40
30.0
176
     1
 62
     7
420
 16777215
176
     1
 90
        2
176
     1
 90
        2
176
     1
 62
     7
176
     1
 62
   257
176
     1
 90
        2
176
     1
 90
        1
176
     1
 40
40.0
176
     1
 90
        0
176
     1
 62
   257
176
     1
 40
1.0
176
     1
 90
        1
176
     1
 90
        6
176
     1
 90
        2
176
     1
 62
     7
176
     1
 90
        3
176
     1
 90
        0
176
     1
 90
        0
176
     1
290
     0
176
     1
 90
        1
176
     1
 40
0.0
176
     1
 90
        0
176
     1
290
     0
176
     1
290
     1
176
     1
290
     1
176
     1
290
     0
176
     1
290
     0
176
     1
290
     0
176
     1
290
     0
176
     1
290
     0
176
     1
290
     0
176
     1
 90
       50
176
     1
 40
0.0
176
     1
 40
1.0
176
     1
 90
        0
176
     1
 62
    18
420
        0
176
     1
 90
       50
176
     1
 90
        3
176
     1
 62
     5
420
      255
176
     1
290
     0
176
     1
 90
       50
176
     1
 90
       50
176
     1
 90
       50
176
     1
290
     0
176
     1
 90
       50
176
     1
 62
   256
176
     0
 40
1.0
176
     0
 90
        2
176
     1
  1
strokes_ogs.tif
176
     1
290
     0
176
     1
 40
1.0
176
     1
 40
1.0
176
     1
  0
VISUALSTYLE
  5
3B
102
{ACAD_REACTORS
330
2A
102
}
330
2A
100
AcDbVisualStyle
  2
JitterOff
 70
    20
177
     3
291
     1
 70
    58
 90
        2
176
     0
 90
        2
176
     0
 90
        0
176
     0
 90
        0
176
     0
 40
0.6
176
     0
 40
30.0
176
     0
 62
     7
420
 16777215
176
     0
 90
        1
176
     0
 90
        4
176
     0
 62
     7
176
     0
 62
   257
176
     0
 90
        1
176
     0
 90
        1
176
     0
 40
1.0
176
     0
 90
       10
176
     2
 62
     7
176
     0
 40
1.0
176
     0
 90
        1
176
     0
 90
        6
176
     0
 90
        2
176
     0
 62
     7
176
     0
 90
        5
176
     0
 90
        0
176
     0
 90
        0
176
     0
290
     0
176
     0
 90
        1
176
     0
 40
0.0
176
     0
 90
        0
176
     0
290
     0
176
     0
290
     1
176
     0
290
     1
176
     0
290
     0
176
     0
290
     0
176
     0
290
     0
176
     0
290
     0
176
     0
290
     0
176
     0
290
     0
176
     0
 90
       50
176
     0
 40
0.0
176
     0
 40
1.0
176
     0
 90
        0
176
     0
 62
    18
420
        0
176
     0
 90
       50
176
     0
 90
        3
176
     0
 62
     5
420
      255
176
     0
290
     0
176
     0
 90
       50
176
     0
 90
       50
176
     0
 90
       50
176
     0
290
     0
176
     0
 90
       50
176
     0
 62
   256
176
     0
 40
1.0
176
     0
 90
        2
176
     0
  1
strokes_ogs.tif
176
     0
290
     0
176
     0
 40
1.0
176
     0
 40
1.0
176
     0
  0
VISUALSTYLE
  5
38
102
{ACAD_REACTORS
330
2A
102
}
330
2A
100
AcDbVisualStyle
  2
Linepattern
 70
    14
177
     3
291
     1
 70
    58
 90
        2
176
     1
 90
        2
176
     1
 90
        0
176
     1
 90
        0
176
     1
 40
0.6
176
     1
 40
30.0
176
     1
 62
     7
420
 16777215
176
     1
 90
        1
176
     1
 90
        4
176
     1
 62
     7
176
     1
 62
   257
176
     1
 90
        7
176
     1
 90
        7
176
     1
 40
1.0
176
     1
 90
        8
176
     1
 62
     7
176
     1
 40
1.0
176
     1
 90
        1
176
     1
 90
        6
176
     1
 90
        2
176
     1
 62
     7
176
     1
 90
        5
176
     1
 90
        0
176
     1
 90
        0
176
     1
290
     0
176
     1
 90
        1
176
     1
 40
0.0
176
     1
 90
        0
176
     1
290
     0
176
     1
290
     1
176
     1
290
     1
176
     1
290
     0
176
     1
290
     0
176
     1
290
     0
176
     1
290
     0
176
     1
290
     0
176
     1
290
     0
176
     1
 90
       50
176
     1
 40
0.0
176
     1
 40
1.0
176
     1
 90
        0
176
     1
 62
    18
420
        0
176
     1
 90
       50
176
     1
 90
        3
176
     1
 62
     5
420
      255
176
     1
290
     0
176
     1
 90
       50
176
     1
 90
       50
176
     1
 90
       50
176
     1
290
     0
176
     1
 90
       50
176
     1
 62
   256
176
     0
 40
1.0
176
     0
 90
        2
176
     1
  1
strokes_ogs.tif
176
     1
290
     0
176
     1
 40
1.0
176
     1
 40
1.0
176
     1
  0
VISUALSTYLE
  5
3C
102
{ACAD_REACTORS
330
2A
102
}
330
2A
100
AcDbVisualStyle
  2
OverhangOff
 70
    21
177
     3
291
     1
 70
    58
 90
        2
176
     0
 90
        2
176
     0
 90
        0
176
     0
 90
        0
176
     0
 40
0.6
176
     0
 40
30.0
176
     0
 62
     7
420
 16777215
176
     0
 90
        1
176
     0
 90
        4
176
     0
 62
     7
176
     0
 62
   257
176
     0
 90
        1
176
     0
 90
        1
176
     0
 40
1.0
176
     0
 90
        9
176
     2
 62
     7
176
     0
 40
1.0
176
     0
 90
        1
176
     0
 90
        6
176
     0
 90
        2
176
     0
 62
     7
176
     0
 90
        5
176
     0
 90
        0
176
     0
 90
        0
176
     0
290
     0
176
     0
 90
        1
176
     0
 40
0.0
176
     0
 90
        0
176
     0
290
     0
176
     0
290
     1
176
     0
290
     1
176
     0
290
     0
176
     0
290
     0
176
     0
290
     0
176
     0
290
     0
176
     0
290
     0
176
     0
290
     0
176
     0
 90
       50
176
     0
 40
0.0
176
     0
 40
1.0
176
     0
 90
        0
176
     0
 62
    18
420
        0
176
     0
 90
       50
176
     0
 90
        3
176
     0
 62
     5
420
      255
176
     0
290
     0
176
     0
 90
       50
176
     0
 90
       50
176
     0
 90
       50
176
     0
290
     0
176
     0
 90
       50
176
     0
 62
   256
176
     0
 40
1.0
176
     0
 90
        2
176
     0
  1
strokes_ogs.tif
176
     0
290
     0
176
     0
 40
1.0
176
     0
 40
1.0
176
     0
  0
VISUALSTYLE
  5
33
102
{ACAD_REACTORS
330
2A
102
}
330
2A
100
AcDbVisualStyle
  2
Realistic
 70
     8
177
     3
291
     0
 70
    58
 90
        2
176
     1
 90
        3
176
     1
 90
        0
176
     1
 90
        2
176
     1
 40
0.6
176
     1
 40
30.0
176
     1
 62
     7
420
 16777215
176
     1
 90
        0
176
     1
 90
        0
176
     1
 62
     7
176
     1
 62
   257
176
     1
 90
        1
176
     1
 90
        1
176
     1
 40
1.0
176
     1
 90
        8
176
     1
 62
   257
176
     1
 40
1.0
176
     1
 90
        1
176
     1
 90
        6
176
     1
 90
        2
176
     1
 62
     7
176
     1
 90
        3
176
     1
 90
        0
176
     1
 90
        0
176
     1
290
     0
176
     1
 90
       13
176
     1
 40
0.0
176
     1
 90
        0
176
     1
290
     0
176
     1
290
     1
176
     1
290
     1
176
     1
290
     0
176
     1
290
     0
176
     1
290
     0
176
     1
290
     0
176
     1
290
     0
176
     1
290
     0
176
     1
 90
       50
176
     1
 40
0.0
176
     1
 40
1.0
176
     1
 90
        0
176
     1
 62
    18
420
        0
176
     1
 90
       50
176
     1
 90
        3
176
     1
 62
     5
420
      255
176
     1
290
     0
176
     1
 90
       50
176
     1
 90
       50
176
     1
 90
       50
176
     1
290
     0
176
     1
 90
       50
176
     1
 62
   256
176
     0
 40
1.0
176
     0
 90
        2
176
     1
  1
strokes_ogs.tif
176
     1
290
     0
176
     1
 40
1.0
176
     1
 40
1.0
176
     1
  0
VISUALSTYLE
  5
42
102
{ACAD_REACTORS
330
2A
102
}
330
2A
100
AcDbVisualStyle
  2
Shaded
 70
    27
177
     3
291
     0
 70
    58
 90
        2
176
     1
 90
        2
176
     1
 90
        1
176
     1
 90
        2
176
     1
 40
0.6
176
     1
 40
30.0
176
     1
 62
     7
420
 16777215
176
     1
 90
        0
176
     1
 90
        4
176
     1
 62
     7
176
     1
 62
   257
176
     1
 90
        1
176
     1
 90
        1
176
     1
 40
1.0
176
     1
 90
        8
176
     1
 62
   257
176
     1
 40
1.0
176
     1
 90
        1
176
     1
 90
        6
176
     1
 90
        2
176
     1
 62
     8
420
  7895160
176
     1
 90
        3
176
     1
 90
        0
176
     1
 90
        0
176
     1
290
     0
176
     1
 90
        5
176
     1
 40
0.0
176
     1
 90
        0
176
     1
290
     0
176
     1
290
     1
176
     1
290
     1
176
     1
290
     0
176
     1
290
     0
176
     1
290
     0
176
     1
290
     0
176
     1
290
     0
176
     1
290
     0
176
     1
 90
       50
176
     1
 40
0.0
176
     1
 40
1.0
176
     1
 90
        0
176
     1
 62
    18
420
        0
176
     1
 90
       50
176
     1
 90
        3
176
     1
 62
     5
420
      255
176
     1
290
     0
176
     1
 90
       50
176
     1
 90
       50
176
     1
 90
       50
176
     1
290
     0
176
     1
 90
       50
176
     1
 62
   256
176
     0
 40
1.0
176
     0
 90
        2
176
     1
  1
strokes_ogs.tif
176
     1
290
     0
176
     1
 40
1.0
176
     1
 40
1.0
176
     1
  0
VISUALSTYLE
  5
41
102
{ACAD_REACTORS
330
2A
102
}
330
2A
100
AcDbVisualStyle
  2
Shaded with edges
 70
    26
177
     3
291
     0
 70
    58
 90
        2
176
     1
 90
        2
176
     1
 90
        1
176
     1
 90
        2
176
     1
 40
0.6
176
     1
 40
30.0
176
     1
 62
     7
420
 16777215
176
     1
 90
        1
176
     1
 90
       10
176
     1
 62
     7
176
     1
 62
   257
176
     1
 90
        2
176
     1
 90
        1
176
     1
 40
1.0
176
     1
 90
        8
176
     1
 62
   257
176
     1
 40
1.0
176
     1
 90
        1
176
     1
 90
        6
176
     1
 90
        2
176
     1
 62
     7
176
     1
 90
        3
176
     1
 90
        0
176
     1
 90
        0
176
     1
290
     0
176
     1
 90
        5
176
     1
 40
0.0
176
     1
 90
        0
176
     1
290
     0
176
     1
290
     1
176
     1
290
     1
176
     1
290
     0
176
     1
290
     0
176
     1
290
     0
176
     1
290
     0
176
     1
290
     0
176
     1
290
     0
176
     1
 90
       50
176
     1
 40
0.0
176
     1
 40
1.0
176
     1
 90
        0
176
     1
 62
    18
420
        0
176
     1
 90
       50
176
     1
 90
        3
176
     1
 62
     5
420
      255
176
     1
290
     0
176
     1
 90
       50
176
     1
 90
       50
176
     1
 90
       50
176
     1
290
     0
176
     1
 90
       50
176
     1
 62
   256
176
     0
 40
1.0
176
     0
 90
        2
176
     1
  1
strokes_ogs.tif
176
     1
290
     0
176
     1
 40
1.0
176
     1
 40
1.0
176
     1
  0
VISUALSTYLE
  5
3E
102
{ACAD_REACTORS
330
2A
102
}
330
2A
100
AcDbVisualStyle
  2
Shades of Gray
 70
    23
177
     3
291
     0
 70
    58
 90
        2
176
     1
 90
        2
176
     1
 90
        3
176
     1
 90
        0
176
     1
 40
0.6
176
     1
 40
30.0
176
     1
 62
     7
420
 16777215
176
     1
 90
        2
176
     1
 90
        2
176
     1
 62
     7
176
     1
 62
     7
176
     1
 90
        1
176
     1
 90
        1
176
     1
 40
40.0
176
     1
 90
        8
176
     1
 62
     7
176
     1
 40
1.0
176
     1
 90
        1
176
     1
 90
        6
176
     1
 90
        2
176
     1
 62
     7
176
     1
 90
        3
176
     1
 90
        0
176
     1
 90
        0
176
     1
290
     0
176
     1
 90
        1
176
     1
 40
0.0
176
     1
 90
        0
176
     1
290
     0
176
     1
290
     1
176
     1
290
     1
176
     1
290
     0
176
     1
290
     0
176
     1
290
     0
176
     1
290
     0
176
     1
290
     0
176
     1
290
     0
176
     1
 90
       50
176
     1
 40
0.0
176
     1
 40
1.0
176
     1
 90
        0
176
     1
 62
    18
420
        0
176
     1
 90
       50
176
     1
 90
        3
176
     1
 62
     5
420
      255
176
     1
290
     0
176
     1
 90
       50
176
     1
 90
       50
176
     1
 90
       50
176
     1
290
     0
176
     1
 90
       50
176
     1
 62
   256
176
     0
 40
1.0
176
     0
 90
        2
176
     1
  1
strokes_ogs.tif
176
     1
290
     0
176
     1
 40
1.0
176
     1
 40
1.0
176
     1
  0
VISUALSTYLE
  5
3F
102
{ACAD_REACTORS
330
2A
102
}
330
2A
100
AcDbVisualStyle
  2
Sketchy
 70
    24
177
     3
291
     0
 70
    58
 90
        1
176
     1
 90
        2
176
     1
 90
        2
176
     1
 90
        0
176
     1
 40
0.6
176
     1
 40
30.0
176
     1
 62
     7
420
 16777215
176
     1
 90
        2
176
     1
 90
        2
176
     1
 62
     7
176
     1
 62
     7
176
     1
 90
        1
176
     1
 90
        1
176
     1
 40
40.0
176
     1
 90
       11
176
     1
 62
     7
176
     1
 40
1.0
176
     1
 90
        1
176
     1
 90
        6
176
     1
 90
        2
176
     1
 62
     7
176
     1
 90
        6
176
     1
 90
        0
176
     1
 90
        0
176
     1
290
     0
176
     1
 90
        1
176
     1
 40
0.0
176
     1
 90
        0
176
     1
290
     0
176
     1
290
     1
176
     1
290
     1
176
     1
290
     0
176
     1
290
     0
176
     1
290
     0
176
     1
290
     0
176
     1
290
     0
176
     1
290
     0
176
     1
 90
       50
176
     1
 40
0.0
176
     1
 40
1.0
176
     1
 90
        0
176
     1
 62
    18
420
        0
176
     1
 90
       50
176
     1
 90
        3
176
     1
 62
     5
420
      255
176
     1
290
     0
176
     1
 90
       50
176
     1
 90
       50
176
     1
 90
       50
176
     1
290
     0
176
     1
 90
       50
176
     1
 62
   256
176
     0
 40
1.0
176
     0
 90
        2
176
     1
  1
strokes_ogs.tif
176
     1
290
     0
176
     1
 40
1.0
176
     1
 40
1.0
176
     1
  0
VISUALSTYLE
  5
37
102
{ACAD_REACTORS
330
2A
102
}
330
2A
100
AcDbVisualStyle
  2
Thicken
 70
    13
177
     3
291
     1
 70
    58
 90
        2
176
     1
 90
        2
176
     1
 90
        0
176
     1
 90
        0
176
     1
 40
0.6
176
     1
 40
30.0
176
     1
 62
     7
420
 16777215
176
     1
 90
        1
176
     1
 90
        4
176
     1
 62
     7
176
     1
 62
   257
176
     1
 90
        1
176
     1
 90
        1
176
     1
 40
1.0
176
     1
 90
       12
176
     1
 62
     7
176
     1
 40
1.0
176
     1
 90
        1
176
     1
 90
        6
176
     1
 90
        2
176
     1
 62
     7
176
     1
 90
        5
176
     1
 90
        0
176
     1
 90
        0
176
     1
290
     0
176
     1
 90
        1
176
     1
 40
0.0
176
     1
 90
        0
176
     1
290
     0
176
     1
290
     1
176
     1
290
     1
176
     1
290
     0
176
     1
290
     0
176
     1
290
     0
176
     1
290
     0
176
     1
290
     0
176
     1
290
     0
176
     1
 90
       50
176
     1
 40
0.0
176
     1
 40
1.0
176
     1
 90
        0
176
     1
 62
    18
420
        0
176
     1
 90
       50
176
     1
 90
        3
176
     1
 62
     5
420
      255
176
     1
290
     0
176
     1
 90
       50
176
     1
 90
       50
176
     1
 90
       50
176
     1
290
     0
176
     1
 90
       50
176
     1
 62
   256
176
     0
 40
1.0
176
     0
 90
        2
176
     1
  1
strokes_ogs.tif
176
     1
290
     0
176
     1
 40
1.0
176
     1
 40
1.0
176
     1
  0
VISUALSTYLE
  5
30
102
{ACAD_REACTORS
330
2A
102
}
330
2A
100
AcDbVisualStyle
  2
Wireframe
 70
     5
177
     3
291
     0
 70
    58
 90
        0
176
     1
 90
        2
176
     1
 90
        0
176
     1
 90
        0
176
     1
 40
0.6
176
     1
 40
30.0
176
     1
 62
     7
420
 16777215
176
     1
 90
        1
176
     1
 90
        4
176
     1
 62
     7
176
     1
 62
   257
176
     1
 90
        1
176
     1
 90
        1
176
     1
 40
1.0
176
     1
 90
        0
176
     1
 62
   257
176
     1
 40
1.0
176
     1
 90
        1
176
     1
 90
        6
176
     1
 90
        2
176
     1
 62
     7
176
     1
 90
        3
176
     1
 90
        0
176
     1
 90
        0
176
     1
290
     0
176
     1
 90
        1
176
     1
 40
0.0
176
     1
 90
        0
176
     1
290
     0
176
     1
290
     1
176
     1
290
     1
176
     1
290
     0
176
     1
290
     0
176
     1
290
     0
176
     1
290
     0
176
     1
290
     0
176
     1
290
     0
176
     1
 90
       50
176
     1
 40
0.0
176
     1
 40
1.0
176
     1
 90
        0
176
     1
 62
    18
420
        0
176
     1
 90
       50
176
     1
 90
        3
176
     1
 62
     5
420
      255
176
     1
290
     0
176
     1
 90
       50
176
     1
 90
       50
176
     1
 90
       50
176
     1
290
     0
176
     1
 90
       50
176
     1
 62
   256
176
     0
 40
1.0
176
     0
 90
        2
176
     1
  1
strokes_ogs.tif
176
     1
290
     0
176
     1
 40
1.0
176
     1
 40
1.0
176
     1
  0
VISUALSTYLE
  5
40
102
{ACAD_REACTORS
330
2A
102
}
330
2A
100
AcDbVisualStyle
  2
X-Ray
 70
    25
177
     3
291
     0
 70
    58
 90
        2
176
     1
 90
        2
176
     1
 90
        1
176
     1
 90
        1
176
     1
 40
0.5
176
     1
 40
30.0
176
     1
 62
     7
420
 16777215
176
     1
 90
        1
176
     1
 90
        0
176
     1
 62
     7
176
     1
 62
   257
176
     1
 90
        1
176
     1
 90
        1
176
     1
 40
1.0
176
     1
 90
        8
176
     1
 62
     7
176
     1
 40
1.0
176
     1
 90
        1
176
     1
 90
        6
176
     1
 90
        2
176
     1
 62
     7
176
     1
 90
        3
176
     1
 90
        0
176
     1
 90
        0
176
     1
290
     0
176
     1
 90
       13
176
     1
 40
0.0
176
     1
 90
        0
176
     1
290
     0
176
     1
290
     1
176
     1
290
     1
176
     1
290
     0
176
     1
290
     0
176
     1
290
     0
176
     1
290
     0
176
     1
290
     0
176
     1
290
     0
176
     1
 90
       50
176
     1
 40
0.0
176
     1
 40
1.0
176
     1
 90
        0
176
     1
 62
    18
420
        0
176
     1
 90
       50
176
     1
 90
        3
176
     1
 62
     5
420
      255
176
     1
290
     0
176
     1
 90
       50
176
     1
 90
       50
176
     1
 90
       50
176
     1
290
     0
176
     1
 90
       50
176
     1
 62
   256
176
     0
 40
1.0
176
     0
 90
        2
176
     1
  1
strokes_ogs.tif
176
     1
290
     0
176
     1
 40
1.0
176
     1
 40
1.0
176
     1
  0
DICTIONARYVAR
  5
F5
102
{ACAD_REACTORS
330
F4
102
}
330
F4
100
DictionaryVariables
280
     0
  1
1:1
  0
DICTIONARYVAR
  5
FD
102
{ACAD_REACTORS
330
F4
102
}
330
F4
100
DictionaryVariables
280
     0
  1
3.500000
  0
DICTIONARYVAR
  5
FE
102
{ACAD_REACTORS
330
F4
102
}
330
F4
100
DictionaryVariables
280
     0
  1
acadiso.lin
  0
DICTIONARYVAR
  5
FA
102
{ACAD_REACTORS
330
F4
102
}
330
F4
100
DictionaryVariables
280
     0
  1
Standard
  0
DICTIONARYVAR
  5
F9
102
{ACAD_REACTORS
330
F4
102
}
330
F4
100
DictionaryVariables
280
     0
  1
Standard
  0
DICTIONARY
  5
F6
330
6A
100
AcDbDictionary
280
     1
281
     1
  3
ACAD_ROUNDTRIP_2008_TABLESTYLE_CELLSTYLEMAP
360
F7
  0
CELLSTYLEMAP
  5
F7
102
{ACAD_REACTORS
330
F6
102
}
330
F6
100
AcDbCellStyleMap
 90
        3
300
CELLSTYLE
  1
TABLEFORMAT_BEGIN
 90
        5
170
     1
 91
        0
 92
    32768
 62
   257
 93
        1
300
CONTENTFORMAT
  1
CONTENTFORMAT_BEGIN
 90
        0
 91
        0
 92
        4
 93
        0
300

 40
0.0
140
1.0
 94
        5
 62
     0
340
11
144
6.0
309
CONTENTFORMAT_END
171
     1
301
MARGIN
  1
CELLMARGIN_BEGIN
 40
1.5
 40
1.5
 40
1.5
 40
1.5
 40
1.5
 40
1.5
309
CELLMARGIN_END
 94
        6
 95
        1
302
GRIDFORMAT
  1
GRIDFORMAT_BEGIN
 90
        0
 91
        1
 62
     0
 92
       -2
340
14
 93
        0
 40
0.045
309
GRIDFORMAT_END
 95
        2
302
GRIDFORMAT
  1
GRIDFORMAT_BEGIN
 90
        0
 91
        1
 62
     0
 92
       -2
340
14
 93
        0
 40
0.045
309
GRIDFORMAT_END
 95
        4
302
GRIDFORMAT
  1
GRIDFORMAT_BEGIN
 90
        0
 91
        1
 62
     0
 92
       -2
340
14
 93
        0
 40
0.045
309
GRIDFORMAT_END
 95
        8
302
GRIDFORMAT
  1
GRIDFORMAT_BEGIN
 90
        0
 91
        1
 62
     0
 92
       -2
340
14
 93
        0
 40
0.045
309
GRIDFORMAT_END
 95
       16
302
GRIDFORMAT
  1
GRIDFORMAT_BEGIN
 90
        0
 91
        1
 62
     0
 92
       -2
340
14
 93
        0
 40
0.045
309
GRIDFORMAT_END
 95
       32
302
GRIDFORMAT
  1
GRIDFORMAT_BEGIN
 90
        0
 91
        1
 62
     0
 92
       -2
340
14
 93
        0
 40
0.045
309
GRIDFORMAT_END
309
TABLEFORMAT_END
  1
CELLSTYLE_BEGIN
 90
        1
 91
        1
300
_TITLE
309
CELLSTYLE_END
300
CELLSTYLE
  1
TABLEFORMAT_BEGIN
 90
        5
170
     1
 91
        0
 92
        0
 62
   257
 93
        1
300
CONTENTFORMAT
  1
CONTENTFORMAT_BEGIN
 90
        0
 91
        0
 92
        4
 93
        0
300

 40
0.0
140
1.0
 94
        5
 62
     0
340
11
144
4.5
309
CONTENTFORMAT_END
171
     1
301
MARGIN
  1
CELLMARGIN_BEGIN
 40
1.5
 40
1.5
 40
1.5
 40
1.5
 40
1.5
 40
1.5
309
CELLMARGIN_END
 94
        6
 95
        1
302
GRIDFORMAT
  1
GRIDFORMAT_BEGIN
 90
        0
 91
        1
 62
     0
 92
       -2
340
14
 93
        0
 40
0.045
309
GRIDFORMAT_END
 95
        2
302
GRIDFORMAT
  1
GRIDFORMAT_BEGIN
 90
        0
 91
        1
 62
     0
 92
       -2
340
14
 93
        0
 40
0.045
309
GRIDFORMAT_END
 95
        4
302
GRIDFORMAT
  1
GRIDFORMAT_BEGIN
 90
        0
 91
        1
 62
     0
 92
       -2
340
14
 93
        0
 40
0.045
309
GRIDFORMAT_END
 95
        8
302
GRIDFORMAT
  1
GRIDFORMAT_BEGIN
 90
        0
 91
        1
 62
     0
 92
       -2
340
14
 93
        0
 40
0.045
309
GRIDFORMAT_END
 95
       16
302
GRIDFORMAT
  1
GRIDFORMAT_BEGIN
 90
        0
 91
        1
 62
     0
 92
       -2
340
14
 93
        0
 40
0.045
309
GRIDFORMAT_END
 95
       32
302
GRIDFORMAT
  1
GRIDFORMAT_BEGIN
 90
        0
 91
        1
 62
     0
 92
       -2
340
14
 93
        0
 40
0.045
309
GRIDFORMAT_END
309
TABLEFORMAT_END
  1
CELLSTYLE_BEGIN
 90
        2
 91
        1
300
_HEADER
309
CELLSTYLE_END
300
CELLSTYLE
  1
TABLEFORMAT_BEGIN
 90
        5
170
     1
 91
        0
 92
        0
 62
   257
 93
        1
300
CONTENTFORMAT
  1
CONTENTFORMAT_BEGIN
 90
        0
 91
        0
 92
        4
 93
        0
300

 40
0.0
140
1.0
 94
        2
 62
     0
340
11
144
4.5
309
CONTENTFORMAT_END
171
     1
301
MARGIN
  1
CELLMARGIN_BEGIN
 40
1.5
 40
1.5
 40
1.5
 40
1.5
 40
1.5
 40
1.5
309
CELLMARGIN_END
 94
        6
 95
        1
302
GRIDFORMAT
  1
GRIDFORMAT_BEGIN
 90
        0
 91
        1
 62
     0
 92
       -2
340
14
 93
        0
 40
0.045
309
GRIDFORMAT_END
 95
        2
302
GRIDFORMAT
  1
GRIDFORMAT_BEGIN
 90
        0
 91
        1
 62
     0
 92
       -2
340
14
 93
        0
 40
0.045
309
GRIDFORMAT_END
 95
        4
302
GRIDFORMAT
  1
GRIDFORMAT_BEGIN
 90
        0
 91
        1
 62
     0
 92
       -2
340
14
 93
        0
 40
0.045
309
GRIDFORMAT_END
 95
        8
302
GRIDFORMAT
  1
GRIDFORMAT_BEGIN
 90
        0
 91
        1
 62
     0
 92
       -2
340
14
 93
        0
 40
0.045
309
GRIDFORMAT_END
 95
       16
302
GRIDFORMAT
  1
GRIDFORMAT_BEGIN
 90
        0
 91
        1
 62
     0
 92
       -2
340
14
 93
        0
 40
0.045
309
GRIDFORMAT_END
 95
       32
302
GRIDFORMAT
  1
GRIDFORMAT_BEGIN
 90
        0
 91
        1
 62
     0
 92
       -2
340
14
 93
        0
 40
0.045
309
GRIDFORMAT_END
309
TABLEFORMAT_END
  1
CELLSTYLE_BEGIN
 90
        3
 91
        2
300
_DATA
309
CELLSTYLE_END
  0
ENDSEC
  0
EOF
