  0
SECTION
  2
HEADER
  9
$ACADVER
  1
AC1015
  9
$ACADMAINTVER
 70
     6
  9
$DWGCODEPAGE
  3
ANSI_1252
  9
$INSBASE
 10
0.0
 20
0.0
 30
0.0
  9
$EXTMIN
 10
0.0
 20
0.0
 30
0.0
  9
$EXTMAX
 10
1000.0
 20
700.0
 30
0.0
  9
$LIMMIN
 10
0.0
 20
0.0
  9
$LIMMAX
 10
1000.0
 20
700.0
  9
$ORTHOMODE
 70
     0
  9
$REGENMODE
 70
     1
  9
$FILLMODE
 70
     1
  9
$QTEXTMODE
 70
     0
  9
$MIRRTEXT
 70
     1
  9
$LTSCALE
 40
1.0
  9
$ATTMODE
 70
     1
  9
$TEXTSIZE
 40
5.0
  9
$TRACEWID
 40
1.0
  9
$TEXTSTYLE
  7
Standard
  9
$CLAYER
  8
0
  9
$CELTYPE
  6
ByLayer
  9
$CECOLOR
 62
   256
  9
$CELTSCALE
 40
1.0
  9
$DISPSILH
 70
     0
  9
$DIMSCALE
 40
1.0
  9
$DIMASZ
 40
6.0
  9
$DIMEXO
 40
1.0
  9
$DIMDLI
 40
3.75
  9
$DIMRND
 40
0.0
  9
$DIMDLE
 40
0.0
  9
$DIMEXE
 40
1.0
  9
$DIMTP
 40
0.0
  9
$DIMTM
 40
0.0
  9
$DIMTXT
 40
5.0
  9
$DIMCEN
 40
2.5
  9
$DIMTSZ
 40
0.0
  9
$DIMTOL
 70
     0
  9
$DIMLIM
 70
     0
  9
$DIMTIH
 70
     1
  9
$DIMTOH
 70
     1
  9
$DIMSE1
 70
     0
  9
$DIMSE2
 70
     0
  9
$DIMTAD
 70
     1
  9
$DIMZIN
 70
     0
  9
$DIMBLK
  1

  9
$DIMASO
 70
     1
  9
$DIMSHO
 70
     1
  9
$DIMPOST
  1

  9
$DIMAPOST
  1

  9
$DIMALT
 70
     0
  9
$DIMALTD
 70
     3
  9
$DIMALTF
 40
0.0393700787
  9
$DIMLFAC
 40
1.0
  9
$DIMTOFL
 70
     1
  9
$DIMTVP
 40
0.0
  9
$DIMTIX
 70
     0
  9
$DIMSOXD
 70
     0
  9
$DIMSAH
 70
     0
  9
$DIMBLK1
  1

  9
$DIMBLK2
  1

  9
$DIMSTYLE
  2
ISO-25
  9
$DIMCLRD
 70
     0
  9
$DIMCLRE
 70
     0
  9
$DIMCLRT
 70
     0
  9
$DIMTFAC
 40
1.0
  9
$DIMGAP
 40
1.524
  9
$DIMJUST
 70
     0
  9
$DIMSD1
 70
     0
  9
$DIMSD2
 70
     0
  9
$DIMTOLJ
 70
     0
  9
$DIMTZIN
 70
     0
  9
$DIMALTZ
 70
     0
  9
$DIMALTTZ
 70
     0
  9
$DIMUPT
 70
     0
  9
$DIMDEC
 70
     2
  9
$DIMTDEC
 70
     2
  9
$DIMALTU
 70
     2
  9
$DIMALTTD
 70
     3
  9
$DIMTXSTY
  7
Standard
  9
$DIMAUNIT
 70
     0
  9
$DIMADEC
 70
     2
  9
$DIMALTRND
 40
0.0
  9
$DIMAZIN
 70
     0
  9
$DIMDSEP
 70
    44
  9
$DIMATFIT
 70
     3
  9
$DIMFRAC
 70
     0
  9
$DIMLDRBLK
  1

  9
$DIMLUNIT
 70
     2
  9
$DIMLWD
 70
    -2
  9
$DIMLWE
 70
    -2
  9
$DIMTMOVE
 70
     0
  9
$LUNITS
 70
     2
  9
$LUPREC
 70
     2
  9
$SKETCHINC
 40
1.0
  9
$FILLETRAD
 40
10.0
  9
$AUNITS
 70
     0
  9
$AUPREC
 70
     2
  9
$MENU
  1
.
  9
$ELEVATION
 40
0.0
  9
$PELEVATION
 40
0.0
  9
$THICKNESS
 40
0.0
  9
$LIMCHECK
 70
     0
  9
$CHAMFERA
 40
0.0
  9
$CHAMFERB
 40
0.0
  9
$CHAMFERC
 40
0.0
  9
$CHAMFERD
 40
0.0
  9
$SKPOLY
 70
     0
  9
$TDCREATE
 40
2458642.5902125
  9
$TDUCREATE
 40
2458642.4652125
  9
$TDUPDATE
 40
2458642.590213183
  9
$TDUUPDATE
 40
2458642.465213183
  9
$TDINDWG
 40
0.0000000116
  9
$TDUSRTIMER
 40
0.0000000116
  9
$USRTIMER
 70
     1
  9
$ANGBASE
 50
0.0
  9
$ANGDIR
 70
     0
  9
$PDMODE
 70
     0
  9
$PDSIZE
 40
-1.0
  9
$PLINEWID
 40
0.0
  9
$SPLFRAME
 70
     0
  9
$SPLINETYPE
 70
     6
  9
$SPLINESEGS
 70
     8
  9
$HANDSEED
  5
D9
  9
$SURFTAB1
 70
     6
  9
$SURFTAB2
 70
     6
  9
$SURFTYPE
 70
     6
  9
$SURFU
 70
     6
  9
$SURFV
 70
     6
  9
$UCSBASE
  2

  9
$UCSNAME
  2

  9
$UCSORG
 10
0.0
 20
0.0
 30
0.0
  9
$UCSXDIR
 10
1.0
 20
0.0
 30
0.0
  9
$UCSYDIR
 10
0.0
 20
1.0
 30
0.0
  9
$UCSORTHOREF
  2

  9
$UCSORTHOVIEW
 70
     0
  9
$UCSORGTOP
 10
0.0
 20
0.0
 30
0.0
  9
$UCSORGBOTTOM
 10
0.0
 20
0.0
 30
0.0
  9
$UCSORGLEFT
 10
0.0
 20
0.0
 30
0.0
  9
$UCSORGRIGHT
 10
0.0
 20
0.0
 30
0.0
  9
$UCSORGFRONT
 10
0.0
 20
0.0
 30
0.0
  9
$UCSORGBACK
 10
0.0
 20
0.0
 30
0.0
  9
$PUCSBASE
  2

  9
$PUCSNAME
  2

  9
$PUCSORG
 10
0.0
 20
0.0
 30
0.0
  9
$PUCSXDIR
 10
1.0
 20
0.0
 30
0.0
  9
$PUCSYDIR
 10
0.0
 20
1.0
 30
0.0
  9
$PUCSORTHOREF
  2

  9
$PUCSORTHOVIEW
 70
     0
  9
$PUCSORGTOP
 10
0.0
 20
0.0
 30
0.0
  9
$PUCSORGBOTTOM
 10
0.0
 20
0.0
 30
0.0
  9
$PUCSORGLEFT
 10
0.0
 20
0.0
 30
0.0
  9
$PUCSORGRIGHT
 10
0.0
 20
0.0
 30
0.0
  9
$PUCSORGFRONT
 10
0.0
 20
0.0
 30
0.0
  9
$PUCSORGBACK
 10
0.0
 20
0.0
 30
0.0
  9
$USERI1
 70
     0
  9
$USERI2
 70
     0
  9
$USERI3
 70
     0
  9
$USERI4
 70
     0
  9
$USERI5
 70
     0
  9
$USERR1
 40
0.0
  9
$USERR2
 40
0.0
  9
$USERR3
 40
0.0
  9
$USERR4
 40
0.0
  9
$USERR5
 40
0.0
  9
$WORLDVIEW
 70
     1
  9
$SHADEDGE
 70
     3
  9
$SHADEDIF
 70
    70
  9
$TILEMODE
 70
     1
  9
$MAXACTVP
 70
    64
  9
$PINSBASE
 10
0.0
 20
0.0
 30
0.0
  9
$PLIMCHECK
 70
     0
  9
$PEXTMIN
 10
1.0000000000E+20
 20
1.0000000000E+20
 30
1.0000000000E+20
  9
$PEXTMAX
 10
-1.0000000000E+20
 20
-1.0000000000E+20
 30
-1.0000000000E+20
  9
$PLIMMIN
 10
0.0
 20
0.0
  9
$PLIMMAX
 10
420.0
 20
297.0
  9
$UNITMODE
 70
     0
  9
$VISRETAIN
 70
     1
  9
$PLINEGEN
 70
     0
  9
$PSLTSCALE
 70
     1
  9
$TREEDEPTH
 70
  3020
  9
$CMLSTYLE
  2
Standard
  9
$CMLJUST
 70
     0
  9
$CMLSCALE
 40
20.0
  9
$PROXYGRAPHICS
 70
     1
  9
$MEASUREMENT
 70
     1
  9
$CELWEIGHT
370
    -1
  9
$ENDCAPS
280
     0
  9
$JOINSTYLE
280
     0
  9
$LWDISPLAY
290
     1
  9
$INSUNITS
 70
     4
  9
$HYPERLINKBASE
  1

  9
$STYLESHEET
  1

  9
$XEDIT
290
     1
  9
$CEPSNTYPE
380
     0
  9
$PSTYLEMODE
290
     1
  9
$FINGERPRINTGUID
  2
{F237A5EB-3B5C-4A00-A614-56BAF9DFB2D2}
  9
$VERSIONGUID
  2
{FAEB1C32-E019-11D5-929B-00C0DF256EC4}
  9
$EXTNAMES
290
     1
  9
$PSVPSCALE
 40
0.0
  9
$OLESTARTUP
290
     0
  0
ENDSEC
  0
SECTION
  2
CLASSES
  0
CLASS
  1
ACDBDICTIONARYWDFLT
  2
AcDbDictionaryWithDefault
  3
ObjectDBX Classes
 90
        0
280
     0
281
     0
  0
CLASS
  1
VISUALSTYLE
  2
AcDbVisualStyle
  3
ObjectDBX Classes
 90
     4095
280
     0
281
     0
  0
CLASS
  1
MATERIAL
  2
AcDbMaterial
  3
ObjectDBX Classes
 90
     1153
280
     0
281
     0
  0
CLASS
  1
SCALE
  2
AcDbScale
  3
ObjectDBX Classes
 90
     1153
280
     0
281
     0
  0
CLASS
  1
TABLESTYLE
  2
AcDbTableStyle
  3
ObjectDBX Classes
 90
     4095
280
     0
281
     0
  0
CLASS
  1
MLEADERSTYLE
  2
AcDbMLeaderStyle
  3
ACDB_MLEADERSTYLE_CLASS
 90
     4095
280
     0
281
     0
  0
CLASS
  1
SUN
  2
AcDbSun
  3
SCENEOE
 90
     1153
280
     0
281
     0
  0
CLASS
  1
ACDBPLACEHOLDER
  2
AcDbPlaceHolder
  3
ObjectDBX Classes
 90
        0
280
     0
281
     0
  0
CLASS
  1
LAYOUT
  2
AcDbLayout
  3
ObjectDBX Classes
 90
        0
280
     0
281
     0
  0
ENDSEC
  0
SECTION
  2
TABLES
  0
TABLE
  2
VPORT
  5
8
330
0
100
AcDbSymbolTable
 70
     1
  0
VPORT
  5
29
330
8
100
AcDbSymbolTableRecord
100
AcDbViewportTableRecord
  2
*Active
 70
     0
 10
0.0
 20
0.0
 11
1.0
 21
1.0
 12
500.0
 22
350.0
 13
0.0
 23
0.0
 14
10.0
 24
10.0
 15
10.0
 25
10.0
 16
0.0
 26
0.0
 36
1.0
 17
0.0
 27
0.0
 37
0.0
 40
700.0
 41
1.4285714286
 42
50.0
 43
0.0
 44
0.0
 50
0.0
 51
0.0
 71
     0
 72
  2000
 73
     1
 74
     3
 75
     0
 76
     0
 77
     0
 78
     0
281
     0
 65
     1
110
0.0
120
0.0
130
0.0
111
1.0
121
0.0
131
0.0
112
0.0
122
1.0
132
0.0
 79
     0
146
0.0
  0
ENDTAB
  0
TABLE
  2
LTYPE
  5
5
330
0
100
AcDbSymbolTable
 70
     6
  0
LTYPE
  5
14
330
5
100
AcDbSymbolTableRecord
100
AcDbLinetypeTableRecord
  2
ByBlock
 70
     0
  3

 72
    65
 73
     0
 40
0.0
  0
LTYPE
  5
15
330
5
100
AcDbSymbolTableRecord
100
AcDbLinetypeTableRecord
  2
ByLayer
 70
     0
  3

 72
    65
 73
     0
 40
0.0
  0
LTYPE
  5
16
330
5
100
AcDbSymbolTableRecord
100
AcDbLinetypeTableRecord
  2
Continuous
 70
     0
  3
Solid line
 72
    65
 73
     0
 40
0.0
  0
LTYPE
  5
6E
330
5
100
AcDbSymbolTableRecord
100
AcDbLinetypeTableRecord
  2
HIDDEN
 70
     0
  3
Hidden __ __ __ __ __ __ __ __ __ __ __ __ __ __
 72
    65
 73
     2
 40
1.905
 49
1.27
 74
     0
 49
-0.635
 74
     0
  0
LTYPE
  5
6F
330
5
100
AcDbSymbolTableRecord
100
AcDbLinetypeTableRecord
  2
PHANTOM
 70
     0
  3
Phantom ______  __  __  ______  __  __  ______
 72
    65
 73
     6
 40
12.7
 49
6.35
 74
     0
 49
-1.27
 74
     0
 49
1.27
 74
     0
 49
-1.27
 74
     0
 49
1.27
 74
     0
 49
-1.27
 74
     0
  0
LTYPE
  5
70
330
5
100
AcDbSymbolTableRecord
100
AcDbLinetypeTableRecord
  2
CENTER
 70
     0
  3
Center ____ _ ____ _ ____ _ ____ _ ____ _ ____
 72
    65
 73
     4
 40
10.16
 49
6.35
 74
     0
 49
-1.27
 74
     0
 49
1.27
 74
     0
 49
-1.27
 74
     0
  0
LTYPE
  5
71
330
5
100
AcDbSymbolTableRecord
100
AcDbLinetypeTableRecord
  2
CENTERX2
 70
     0
  3
Center (2x) ________  __  ________  __  _____
 72
    65
 73
     4
 40
20.32
 49
12.7
 74
     0
 49
-2.54
 74
     0
 49
2.54
 74
     0
 49
-2.54
 74
     0
  0
LTYPE
  5
72
330
5
100
AcDbSymbolTableRecord
100
AcDbLinetypeTableRecord
  2
DOT2
 70
     0
  3
Dot (.5x) ........................................
 72
    65
 73
     2
 40
0.635
 49
0.0
 74
     0
 49
-0.635
 74
     0
  0
ENDTAB
  0
TABLE
  2
LAYER
  5
2
330
0
100
AcDbSymbolTable
 70
     2
  0
LAYER
  5
10
330
2
100
AcDbSymbolTableRecord
100
AcDbLayerTableRecord
  2
0
 70
     0
 62
     7
  6
Continuous
370
    -3
390
F
  0
LAYER
  5
73
330
2
100
AcDbSymbolTableRecord
100
AcDbLayerTableRecord
  2
TABLE_BL1
 70
     0
 62
   179
  6
Continuous
370
    -3
390
F
  0
ENDTAB
  0
TABLE
  2
STYLE
  5
3
330
0
100
AcDbSymbolTable
 70
     1
  0
STYLE
  5
11
330
3
100
AcDbSymbolTableRecord
100
AcDbTextStyleTableRecord
  2
Standard
 70
     0
 40
0.0
 41
1.0
 50
0.0
 71
     0
 42
5.0
  3
txt
  4

  0
ENDTAB
  0
TABLE
  2
VIEW
  5
6
330
0
100
AcDbSymbolTable
 70
     0
  0
ENDTAB
  0
TABLE
  2
UCS
  5
7
330
0
100
AcDbSymbolTable
 70
     0
  0
ENDTAB
  0
TABLE
  2
APPID
  5
9
330
0
100
AcDbSymbolTable
 70
     1
  0
APPID
  5
12
330
9
100
AcDbSymbolTableRecord
100
AcDbRegAppTableRecord
  2
ACAD
 70
     0
  0
ENDTAB
  0
TABLE
  2
DIMSTYLE
  5
A
330
0
100
AcDbSymbolTable
 70
     1
100
AcDbDimStyleTable
  0
DIMSTYLE
105
27
330
A
100
AcDbSymbolTableRecord
100
AcDbDimStyleTableRecord
  2
ISO-25
 70
     0
 41
2.5
 42
0.625
 43
3.75
 44
1.25
 73
     0
 74
     0
 77
     1
 78
     8
140
2.5
141
2.5
143
0.0393700787
147
0.625
171
     3
172
     1
178
     0
271
     2
272
     2
274
     3
278
    44
283
     0
284
     8
340
11
  0
ENDTAB
  0
TABLE
  2
BLOCK_RECORD
  5
1
330
0
100
AcDbSymbolTable
 70
     1
  0
BLOCK_RECORD
  5
1F
330
1
100
AcDbSymbolTableRecord
100
AcDbBlockTableRecord
  2
*Model_Space
340
22
  0
BLOCK_RECORD
  5
1B
330
1
100
AcDbSymbolTableRecord
100
AcDbBlockTableRecord
  2
*Paper_Space
340
1E
  0
BLOCK_RECORD
  5
23
330
1
100
AcDbSymbolTableRecord
100
AcDbBlockTableRecord
  2
*Paper_Space0
340
26
  0
ENDTAB
  0
ENDSEC
  0
SECTION
  2
BLOCKS
  0
BLOCK
  5
20
330
1F
100
AcDbEntity
  8
0
100
AcDbBlockBegin
  2
*Model_Space
 70
     0
 10
0.0
 20
0.0
 30
0.0
  3
*Model_Space
  1

  0
ENDBLK
  5
21
330
1F
100
AcDbEntity
  8
0
100
AcDbBlockEnd
  0
BLOCK
  5
1C
330
1B
100
AcDbEntity
 67
     1
  8
0
100
AcDbBlockBegin
  2
*Paper_Space
 70
     0
 10
0.0
 20
0.0
 30
0.0
  3
*Paper_Space
  1

  0
ENDBLK
  5
1D
330
1B
100
AcDbEntity
 67
     1
  8
0
100
AcDbBlockEnd
  0
BLOCK
  5
24
330
23
100
AcDbEntity
  8
0
100
AcDbBlockBegin
  2
*Paper_Space0
 70
     0
 10
0.0
 20
0.0
 30
0.0
  3
*Paper_Space0
  1

  0
ENDBLK
  5
25
330
23
100
AcDbEntity
  8
0
100
AcDbBlockEnd
  0
ENDSEC
  0
SECTION
  2
ENTITIES
  0
SPLINE
  5
74
330
1F
100
AcDbEntity
  8
0
  6
Continuous
 62
     7
370
    25
100
AcDbSpline
210
0.0
220
0.0
230
1.0
 70
     8
 71
     3
 72
    29
 73
    25
 74
     0
 42
0.000000001
 43
0.00000001
 40
0.0
 40
0.0
 40
0.0
 40
0.0
 40
0.0349321292067989
 40
0.0633980396002849
 40
0.083898508646919
 40
0.1410481304736498
 40
0.1993926643925755
 40
0.2579538521618468
 40
0.316735897873228
 40
0.375668501987671
 40
0.4347110456932664
 40
0.4938367975587998
 40
0.5530116417627033
 40
0.6120982865366182
 40
0.6710428131726573
 40
0.7298261530403788
 40
0.7884258339216904
 40
0.8467957915384161
 40
0.8655669465078262
 40
0.8834823656551108
 40
0.9012873224433254
 40
0.9267778304339364
 40
0.9604935042104771
 40
0.9999999999999999
 40
0.9999999999999999
 40
0.9999999999999999
 40
0.9999999999999999
 10
517.8641729107508
 20
385.8176492910671
 30
0.0
 10
518.3972193561202
 20
387.071462234815
 30
0.0
 10
519.3646410512671
 20
389.3469972355159
 30
0.0
 10
520.2484691775086
 20
392.5019707746016
 30
0.0
 10
521.0825381373381
 20
396.5523520458662
 30
0.0
 10
521.5068501301178
 20
401.8668210781066
 30
0.0
 10
520.8168290718463
 20
408.6501192635303
 30
0.0
 10
518.8804377483843
 20
415.2565788993317
 30
0.0
 10
515.7554290261013
 20
421.4164600518782
 30
0.0
 10
511.5392287543459
 20
426.9118251616891
 30
0.0
 10
506.3723226464273
 20
431.5450521878783
 30
0.0
 10
500.4306903477922
 20
435.1498041468765
 30
0.0
 10
493.9235328480536
 20
437.5950375888331
 30
0.0
 10
487.083735414047
 20
438.7947100582001
 30
0.0
 10
480.1556280406987
 20
438.7128874883018
 30
0.0
 10
473.3793745186293
 20
437.361703206697
 30
0.0
 10
466.9881015179157
 20
434.8003298233362
 30
0.0
 10
462.4934303722155
 20
431.9502430117164
 30
0.0
 10
459.6270283050432
 20
429.6027254083886
 30
0.0
 10
458.0637403633491
 20
428.1643864983288
 30
0.0
 10
456.4002876610438
 20
426.453392280492
 30
0.0
 10
454.4623499921847
 20
424.1599972036559
 30
0.0
 10
452.2310425360526
 20
421.0127906434629
 30
0.0
 10
450.9409865054174
 20
418.4640326289851
 30
0.0
 10
450.2449460378298
 20
417.0888685446072
 30
0.0
  0
SPLINE
  5
75
330
1F
100
AcDbEntity
  8
0
  6
Continuous
 62
     7
370
    25
100
AcDbSpline
210
0.0
220
0.0
230
1.0
 70
     8
 71
     3
 72
    29
 73
    25
 74
     0
 42
0.000000001
 43
0.00000001
 40
0.0
 40
0.0
 40
0.0
 40
0.0
 40
0.0349321297065533
 40
0.0633980405072852
 40
0.083898509847208
 40
0.1410481324915465
 40
0.1993926672451748
 40
0.2579538558522483
 40
0.3167358739822812
 40
0.3756685392116251
 40
0.434711062484721
 40
0.4938368151961334
 40
0.5530116341189151
 40
0.6120982891681536
 40
0.6710428190158897
 40
0.7298261616780612
 40
0.788425812286711
 40
0.8467958048667484
 40
0.8655669522410401
 40
0.883482381494845
 40
0.9012873039267119
 40
0.9267778365949396
 40
0.9604934756030015
 40
0.9999999999999999
 40
0.9999999999999999
 40
0.9999999999999999
 40
0.9999999999999999
 10
450.2449460378298
 20
417.0888685446072
 30
0.0
 10
449.7118995926172
 20
415.8350556009559
 30
0.0
 10
448.7444778977552
 20
413.5595206004301
 30
0.0
 10
447.8606497698385
 20
410.4045470603144
 30
0.0
 10
447.0265808168197
 20
406.3541657932374
 30
0.0
 10
446.602268751733
 20
401.0396967165393
 30
0.0
 10
447.2922901242655
 20
394.256398724337
 30
0.0
 10
449.2286799605258
 20
387.6499394355243
 30
0.0
 10
452.3536933620281
 20
381.4900597623651
 30
0.0
 10
456.569888129256
 20
375.9946896345887
 30
0.0
 10
461.7367998951664
 20
371.3614665016115
 30
0.0
 10
467.6784288894613
 20
367.7567125206365
 30
0.0
 10
474.1855881262908
 20
365.3114862615832
 30
0.0
 10
481.0253832818072
 20
364.1118051010591
 30
0.0
 10
487.9534921230112
 20
364.1936349549866
 30
0.0
 10
494.729742358903
 20
365.5448209211511
 30
0.0
 10
501.1210237582308
 20
368.106179028572
 30
0.0
 10
505.6156822730122
 20
370.9562836352251
 30
0.0
 10
508.4820953328166
 20
373.303790291298
 30
0.0
 10
510.0453744322838
 20
374.7421368412492
 30
0.0
 10
511.708838118096
 20
376.453120196507
 30
0.0
 10
513.6467670214772
 20
378.7465209538869
 30
0.0
 10
515.8780789828577
 20
381.8937245555264
 30
0.0
 10
517.1681329785304
 20
384.4424835606824
 30
0.0
 10
517.8641729107508
 20
385.8176492910671
 30
0.0
  0
ARC
  5
76
330
1F
100
AcDbEntity
  8
0
  6
Continuous
 62
     7
370
    25
100
AcDbCircle
 10
484.0545597652
 20
401.4532589151
 30
0.0
 40
36.31056399417613
100
AcDbArc
 50
155.1813223123
 51
335.1813223292
  0
ARC
  5
77
330
1F
100
AcDbEntity
  8
0
  6
Continuous
 62
     7
370
    25
100
AcDbCircle
 10
484.0545597652
 20
401.4532589151
 30
0.0
 40
36.31056399417613
100
AcDbArc
 50
335.1813223292
 51
155.1813223123
  0
SPLINE
  5
78
330
1F
100
AcDbEntity
  8
0
  6
Continuous
 62
     7
370
    25
100
AcDbSpline
210
0.0
220
0.0
230
1.0
 70
     8
 71
     3
 72
     9
 73
     5
 74
     0
 42
0.000000001
 43
0.00000001
 40
0.0
 40
0.0
 40
0.0
 40
0.0
 40
0.5599967903626963
 40
1.0
 40
1.0
 40
1.0
 40
1.0
 10
453.5704772970089
 20
378.2684788863945
 30
0.0
 10
453.4156153510806
 20
378.1506975898481
 30
0.0
 10
453.1390745769308
 20
377.9403726405386
 30
0.0
 10
452.7748151734281
 20
377.6633341538997
 30
0.0
 10
452.6145398667463
 20
377.5414363305855
 30
0.0
  0
SPLINE
  5
79
330
1F
100
AcDbEntity
  8
0
  6
Continuous
 62
     7
370
    25
100
AcDbSpline
210
0.0
220
0.0
230
1.0
 70
     8
 71
     3
 72
     9
 73
     5
 74
     0
 42
0.000000001
 43
0.00000001
 40
0.0
 40
0.0
 40
0.0
 40
0.0
 40
0.5600008092822362
 40
1.0
 40
1.0
 40
1.0
 40
1.0
 10
515.4945790818342
 20
425.3650777797985
 30
0.0
 10
515.2896948383815
 20
425.2092545036833
 30
0.0
 10
514.9238306466576
 20
424.9309990555977
 30
0.0
 10
514.6563381386279
 20
424.7275518359766
 30
0.0
 10
514.5386416515717
 20
424.6380352239895
 30
0.0
  0
ARC
  5
7A
330
1F
100
AcDbEntity
  8
0
  6
Continuous
 62
     7
370
    25
100
AcDbCircle
 10
484.0545597652
 20
401.4532589151
 30
0.0
 40
38.29899805700012
100
AcDbArc
 50
37.2549368278
 51
217.2549368278
  0
ARC
  5
7B
330
1F
100
AcDbEntity
  8
0
  6
Continuous
 62
     7
370
    25
100
AcDbCircle
 10
484.0545597652
 20
401.4532589151
 30
0.0
 40
39.50000000000018
100
AcDbArc
 50
37.2549368278
 51
217.2549368513
  0
ARC
  5
7C
330
1F
100
AcDbEntity
  8
0
  6
Continuous
 62
     7
370
    25
100
AcDbCircle
 10
484.0545597652
 20
401.4532589151
 30
0.0
 40
38.29899805700012
100
AcDbArc
 50
217.2549368278
 51
37.2549368278
  0
ARC
  5
7D
330
1F
100
AcDbEntity
  8
0
  6
Continuous
 62
     7
370
    25
100
AcDbCircle
 10
484.0545597652
 20
401.4532589151
 30
0.0
 40
39.50000000000018
100
AcDbArc
 50
217.2549368513
 51
37.2549368176
  0
CIRCLE
  5
7E
330
1F
100
AcDbEntity
  8
0
  6
Continuous
 62
     7
370
    25
100
AcDbCircle
 10
484.0545597652
 20
401.4532589151
 30
0.0
 40
57.00000000000007
  0
SPLINE
  5
7F
330
1F
100
AcDbEntity
  8
0
  6
Continuous
 62
     7
370
    25
100
AcDbSpline
210
0.0
220
0.0
230
1.0
 70
     8
 71
     3
 72
    35
 73
    31
 74
     0
 42
0.000000001
 43
0.00000001
 40
0.0
 40
0.0
 40
0.0
 40
0.0
 40
0.0282546040128755
 40
0.058383460261304
 40
0.0903495451556452
 40
0.1258616463409333
 40
0.1640104697281543
 40
0.2048404981620859
 40
0.2374624868348689
 40
0.2716127072843556
 40
0.3071914390590456
 40
0.3440549963047004
 40
0.3820151320952699
 40
0.4208413587657854
 40
0.4602672710072007
 40
0.5000000011393605
 40
0.5397327314472495
 40
0.5791586438623552
 40
0.6179848849625678
 40
0.655944998074954
 40
0.6928085773992654
 40
0.7283873092173752
 40
0.7625375377137238
 40
0.795159483353736
 40
0.8359928509932805
 40
0.8741415683438305
 40
0.9096504581991014
 40
0.9416198139471708
 40
0.9717470216771309
 40
1.0
 40
1.0
 40
1.0
 40
1.0
 10
528.0624195984014
 20
396.8076282005596
 30
0.0
 10
528.166340802574
 20
398.1129866431395
 30
0.0
 10
528.38107676176
 20
400.8102936988104
 30
0.0
 10
528.2302834658432
 20
405.0014756771492
 30
0.0
 10
527.6565281946713
 20
409.4917781622042
 30
0.0
 10
526.5160455041737
 20
414.26040642397
 30
0.0
 10
524.6935788810986
 20
419.2532077483295
 30
0.0
 10
522.3263472453393
 20
423.8650056404873
 30
0.0
 10
519.5508131983141
 20
428.0141836053521
 30
0.0
 10
516.5112391640633
 20
431.663947504214
 30
0.0
 10
512.9487021995427
 20
435.0965871291817
 30
0.0
 10
508.8783463982385
 20
438.210473358931
 30
0.0
 10
504.3406681759177
 20
440.9028358972253
 30
0.0
 10
499.4025682019335
 20
443.0777866380946
 30
0.0
 10
494.1558182548599
 20
444.6546416153243
 30
0.0
 10
488.7122730530582
 20
445.5755714004083
 30
0.0
 10
483.1964228081663
 20
445.8115546529948
 30
0.0
 10
477.7360708292738
 20
445.3649860588852
 30
0.0
 10
472.4526862376721
 20
444.2690451524549
 30
0.0
 10
467.4528585756021
 20
442.5834987271489
 30
0.0
 10
462.8220394428034
 20
440.3881402843161
 30
0.0
 10
458.6212893911603
 20
437.7750194001706
 30
0.0
 10
454.8866461753742
 20
434.840363600772
 30
0.0
 10
451.3058174665597
 20
431.3620779412905
 30
0.0
 10
448.0277667111102
 20
427.3460601480385
 30
0.0
 10
445.2029782648465
 20
422.843834167313
 30
0.0
 10
443.0919985833138
 20
418.4184268864363
 30
0.0
 10
441.5933162802224
 20
414.1469723955923
 30
0.0
 10
440.5708245113387
 20
410.0796340214821
 30
0.0
 10
440.2176280808035
 20
407.3970978405681
 30
0.0
 10
440.0466993501791
 20
406.0988896351147
 30
0.0
  0
SPLINE
  5
80
330
1F
100
AcDbEntity
  8
0
  6
Continuous
 62
     7
370
    25
100
AcDbSpline
210
0.0
220
0.0
230
1.0
 70
     8
 71
     3
 72
    35
 73
    31
 74
     0
 42
0.000000001
 43
0.00000001
 40
0.0
 40
0.0
 40
0.0
 40
0.0
 40
0.0282546043389455
 40
0.0583834609350737
 40
0.0903495461983169
 40
0.1258616477934296
 40
0.164010471620904
 40
0.2048405127681988
 40
0.2374624795328343
 40
0.2716127038204224
 40
0.3071914360057059
 40
0.3440550043238768
 40
0.3820151153429869
 40
0.4208413532683583
 40
0.4602672646671942
 40
0.4999999964257746
 40
0.5397327268833026
 40
0.5791586367330341
 40
0.617984874999831
 40
0.655945001253237
 40
0.6928085688898505
 40
0.7283872869570882
 40
0.7625375158475447
 40
0.7951594805449116
 40
0.8359928278849541
 40
0.8741415910940079
 40
0.9096504571564298
 40
0.9416198132734389
 40
0.9717470213510796
 40
1.0
 40
1.0
 40
1.0
 40
1.0
 10
440.0466993501791
 20
406.0988896351147
 30
0.0
 10
439.9427781453554
 20
404.7935311922747
 30
0.0
 10
439.7280421848244
 20
402.096224136066
 30
0.0
 10
439.8788354915637
 20
397.9050421620533
 30
0.0
 10
440.4525907169642
 20
393.4147396587022
 30
0.0
 10
441.5930736040314
 20
388.6461114755107
 30
0.0
 10
443.4155396003877
 20
383.6533092888739
 30
0.0
 10
445.7827742064636
 20
379.0415130870957
 30
0.0
 10
448.558312001082
 20
374.8923384784854
 30
0.0
 10
451.5978780359799
 20
371.242569077598
 30
0.0
 10
455.1604174928902
 20
367.809930737571
 30
0.0
 10
459.2307726093842
 20
364.696044554041
 30
0.0
 10
463.7684532657311
 20
362.003687155448
 30
0.0
 10
468.7065491431715
 20
359.8287282493026
 30
0.0
 10
473.9533025438598
 20
358.2518834434057
 30
0.0
 10
479.3968458849715
 20
357.3309428832064
 30
0.0
 10
484.9126966307784
 20
357.0949701494924
 30
0.0
 10
490.3730486898696
 20
357.5415298294236
 30
0.0
 10
495.6564332500315
 20
358.6374737396878
 30
0.0
 10
500.6562615294191
 20
360.3230178124608
 30
0.0
 10
505.2870787063699
 20
362.5183788178447
 30
0.0
 10
509.4878304501767
 20
365.1314943225722
 30
0.0
 10
513.2224741797856
 20
368.0661504576451
 30
0.0
 10
516.8032985908433
 20
371.5444399773281
 30
0.0
 10
520.0813564181672
 20
375.5604547701737
 30
0.0
 10
522.9061372229538
 20
380.062685730114
 30
0.0
 10
525.0171215665147
 20
384.4880915541864
 30
0.0
 10
526.5158024701716
 20
388.7595455485883
 30
0.0
 10
527.5382944820598
 20
392.8268837896546
 30
0.0
 10
527.8914908823932
 20
395.509419987104
 30
0.0
 10
528.0624195984014
 20
396.8076282005596
 30
0.0
  0
ARC
  5
81
330
1F
100
AcDbEntity
  8
0
  6
Continuous
 62
     7
370
    25
100
AcDbCircle
 10
484.0545597652
 20
401.4532589151
 30
0.0
 40
40.35476230894871
100
AcDbArc
 50
173.973964907
 51
353.973964907
  0
ARC
  5
82
330
1F
100
AcDbEntity
  8
0
  6
Continuous
 62
     7
370
    25
100
AcDbCircle
 10
484.0545597652
 20
401.4532589151
 30
0.0
 40
40.35476230894871
100
AcDbArc
 50
353.973964907
 51
173.973964907
  0
CIRCLE
  5
83
330
1F
100
AcDbEntity
  8
0
  6
Continuous
 62
     7
370
    25
100
AcDbCircle
 10
484.0545597652
 20
401.4532589151
 30
0.0
 40
39.93812333100002
  0
SPLINE
  5
84
330
1F
100
AcDbEntity
  8
0
  6
Continuous
 62
     7
370
    25
100
AcDbSpline
210
0.0
220
0.0
230
1.0
 70
     8
 71
     3
 72
    29
 73
    25
 74
     0
 42
0.000000001
 43
0.00000001
 40
0.0
 40
0.0
 40
0.0
 40
0.0
 40
0.0155120431066945
 40
0.0309971955014606
 40
0.0464645939630885
 40
0.0619234067502533
 40
0.0773828173969426
 40
0.0928520083723481
 40
0.108340144750256
 40
0.1238563580326238
 40
0.1869678680689436
 40
0.2500985826998991
 40
0.3132100932035266
 40
0.3763408083022108
 40
0.5000045159674764
 40
0.6236682236327413
 40
0.6867797336727078
 40
0.7499104483000426
 40
0.8130219588038243
 40
0.8761526739022958
 40
0.9071476425035602
 40
0.9380715650536813
 40
0.9689978777988625
 40
1.0
 40
1.0
 40
1.0
 40
1.0
 10
669.0545445731291
 20
523.9533352117825
 30
0.0
 10
669.196598289464
 20
523.9523456422269
 30
0.0
 10
669.4804594666574
 20
523.9503682185722
 30
0.0
 10
669.9057161814295
 20
523.9343323240543
 30
0.0
 10
670.3299846526095
 20
523.9087215768973
 30
0.0
 10
670.7532642926897
 20
523.8726025974099
 30
0.0
 10
671.1755553391138
 20
523.8262247473273
 30
0.0
 10
671.596854738944
 20
523.769522805544
 30
0.0
 10
672.0171718192332
 20
523.7025088315355
 30
0.0
 10
672.8647771778034
 20
523.5462310692276
 30
0.0
 10
674.1269506419607
 20
523.2325002936083
 30
0.0
 10
675.7622031524968
 20
522.6476325891666
 30
0.0
 10
677.3324518876509
 20
521.9046681885657
 30
0.0
 10
679.2961479381948
 20
520.7233203055924
 30
0.0
 10
681.5074136301023
 20
518.9062036226078
 30
0.0
 10
683.324415980638
 20
516.6950760396383
 30
0.0
 10
684.5057962859139
 20
514.7313971076045
 30
0.0
 10
685.2486961587113
 20
513.1613252900742
 30
0.0
 10
685.8337007694191
 20
511.52588610648
 30
0.0
 10
686.1815437703444
 20
510.1259971359859
 30
0.0
 10
686.3759144373336
 20
508.9970853612265
 30
0.0
 10
686.4784997906341
 20
508.1527917670506
 30
0.0
 10
686.5426950365809
 20
507.3044247531416
 30
0.0
 10
686.550591505469
 20
506.7372631551333
 30
0.0
 10
686.5545445731292
 20
506.4533352117825
 30
0.0
  0
LINE
  5
85
330
1F
100
AcDbEntity
  8
0
  6
Continuous
 62
     7
370
    25
100
AcDbLine
 10
299.0545421889
 20
523.9533358078
 30
0.0
 11
669.0545469573
 21
523.9533358078
 31
0.0
  0
SPLINE
  5
86
330
1F
100
AcDbEntity
  8
0
  6
Continuous
 62
     7
370
    25
100
AcDbSpline
210
0.0
220
0.0
230
1.0
 70
     8
 71
     3
 72
    29
 73
    25
 74
     0
 42
0.000000001
 43
0.00000001
 40
0.0
 40
0.0
 40
0.0
 40
0.0
 40
0.0155120431059466
 40
0.0309971955001793
 40
0.0464645939614871
 40
0.061923406748549
 40
0.0773828173953474
 40
0.0928520083710739
 40
0.1083401447495124
 40
0.1238563580326233
 40
0.1869678680792377
 40
0.2500985827000563
 40
0.3132100932072596
 40
0.3763408083021924
 40
0.5000045159674773
 40
0.6236682236327644
 40
0.6867797336848457
 40
0.7499104483000445
 40
0.813021958811053
 40
0.876152673902313
 40
0.907147642506068
 40
0.9380715650570269
 40
0.9689978778013771
 40
1.0
 40
1.0
 40
1.0
 40
1.0
 10
281.5545445731291
 20
506.4533352117825
 30
0.0
 10
281.5555341426846
 20
506.5953889281105
 30
0.0
 10
281.5575115663395
 20
506.8792501052921
 30
0.0
 10
281.5735474608574
 20
507.3045068200496
 30
0.0
 10
281.5991582080146
 20
507.7287752912206
 30
0.0
 10
281.6352771875018
 20
508.1520549312979
 30
0.0
 10
281.6816550375847
 20
508.5743459777248
 30
0.0
 10
281.738356979368
 20
508.9956453775639
 30
0.0
 10
281.8053709533764
 20
509.4159624578679
 30
0.0
 10
281.9616487156978
 20
510.2635678165429
 30
0.0
 10
282.2753794912745
 20
511.5257412807205
 30
0.0
 10
282.86024719579
 20
513.1609937912706
 30
0.0
 10
283.60321159644
 20
514.7312425262916
 30
0.0
 10
284.7845594792976
 20
516.6949385769009
 30
0.0
 10
286.601676162321
 20
518.9062042687433
 30
0.0
 10
288.8128037453516
 20
520.7232066193734
 30
0.0
 10
290.776482677416
 20
521.9045869246019
 30
0.0
 10
292.3465544949989
 20
522.6474867974366
 30
0.0
 10
293.9819936784974
 20
523.2324914080853
 30
0.0
 10
295.3818826490115
 20
523.5803344090228
 30
0.0
 10
296.5107944237399
 20
523.7747050759822
 30
0.0
 10
297.355088017938
 20
523.8772904292856
 30
0.0
 10
298.2034550318239
 20
523.9414856752331
 30
0.0
 10
298.7706166298013
 20
523.9493821441221
 30
0.0
 10
299.0545445731291
 20
523.9533352117826
 30
0.0
  0
LINE
  5
87
330
1F
100
AcDbEntity
  8
0
  6
Continuous
 62
     7
370
    25
100
AcDbLine
 10
281.5545439771
 20
136.4533328276
 30
0.0
 11
281.5545439771
 21
506.453337596
 31
0.0
  0
SPLINE
  5
88
330
1F
100
AcDbEntity
  8
0
  6
Continuous
 62
     7
370
    25
100
AcDbSpline
210
0.0
220
0.0
230
1.0
 70
     8
 71
     3
 72
    29
 73
    25
 74
     0
 42
0.000000001
 43
0.00000001
 40
0.0
 40
0.0
 40
0.0
 40
0.0
 40
0.0145955711837587
 40
0.0291688399713632
 40
0.0437274228249618
 40
0.0582789592671384
 40
0.0728310999180743
 40
0.0873914944455225
 40
0.101967779522278
 40
0.116567566885676
 40
0.1783208701561563
 40
0.2400932645303353
 40
0.3044207645044163
 40
0.368767432882424
 40
0.5000037599882269
 40
0.6312400870940298
 40
0.6955675886020231
 40
0.7599142585321496
 40
0.8216675604996984
 40
0.883439954010539
 40
0.9126069404576695
 40
0.9417151533788364
 40
0.9708257819130469
 40
0.9999999999999999
 40
0.9999999999999999
 40
0.9999999999999999
 40
0.9999999999999999
 10
299.0545445731291
 20
118.9533352117825
 30
0.0
 10
298.9208937980195
 20
118.9542121370012
 30
0.0
 10
298.6537964695123
 20
118.9559646474752
 30
0.0
 10
298.2535950675641
 20
118.9701722684443
 30
0.0
 10
297.8542144280131
 20
118.9928617619877
 30
0.0
 10
297.4556550139099
 20
119.0248605538011
 30
0.0
 10
297.057916538996
 20
119.0659475149175
 30
0.0
 10
296.661001669684
 20
119.1161806438493
 30
0.0
 10
296.264901980016
 20
119.1755486905333
 30
0.0
 10
295.4444846550521
 20
119.3177111844278
 30
0.0
 10
294.2111136220541
 20
119.607962488448
 30
0.0
 10
292.5807261376682
 20
120.1642142135274
 30
0.0
 10
290.9906730748419
 20
120.8879499668513
 30
0.0
 10
288.9327983062507
 20
122.0901223720569
 30
0.0
 10
286.5916774871707
 20
123.9904689035222
 30
0.0
 10
284.6914453429107
 20
126.331451488612
 30
0.0
 10
283.4892368152994
 20
128.3893073550788
 30
0.0
 10
282.7655636697613
 20
129.9791850091063
 30
0.0
 10
282.2091827214087
 20
131.6097578359746
 30
0.0
 10
281.888450295353
 20
132.9731118265045
 30
0.0
 10
281.712787232531
 20
134.0585604347609
 30
0.0
 10
281.6219180474428
 20
134.8537901648684
 30
0.0
 10
281.5650475378307
 20
135.652423713326
 30
0.0
 10
281.558048106854
 20
136.1861706039479
 30
0.0
 10
281.5545445731291
 20
136.4533352117825
 30
0.0
  0
LINE
  5
89
330
1F
100
AcDbEntity
  8
0
  6
Continuous
 62
     7
370
    25
100
AcDbLine
 10
669.0545469573
 20
118.9533346157
 30
0.0
 11
299.0545421889
 21
118.9533346157
 31
0.0
  0
SPLINE
  5
8A
330
1F
100
AcDbEntity
  8
0
  6
Continuous
 62
     7
370
    25
100
AcDbSpline
210
0.0
220
0.0
230
1.0
 70
     8
 71
     3
 72
    29
 73
    25
 74
     0
 42
0.000000001
 43
0.00000001
 40
0.0
 40
0.0
 40
0.0
 40
0.0
 40
0.0145955711887257
 40
0.0291688399798789
 40
0.0437274228356019
 40
0.0582789592784879
 40
0.0728310999287206
 40
0.0873914944540549
 40
0.1019677795273033
 40
0.1165675668858095
 40
0.1783208701659564
 40
0.2400932645303595
 40
0.3044207645004453
 40
0.3687674328824481
 40
0.5000037599882625
 40
0.631240087094077
 40
0.6955675886178776
 40
0.7599142585322244
 40
0.821667560520982
 40
0.8834399540106601
 40
0.9126069404669976
 40
0.9417151533912558
 40
0.970825781922367
 40
1.0
 40
1.0
 40
1.0
 40
1.0
 10
686.5545445731292
 20
136.4533352117825
 30
0.0
 10
686.5536676479105
 20
136.3196844366275
 30
0.0
 10
686.5519151374368
 20
136.0525871080423
 30
0.0
 10
686.5377075164681
 20
135.6523857059966
 30
0.0
 10
686.5150180229252
 20
135.253005066387
 30
0.0
 10
686.4830192311122
 20
134.8544456522642
 30
0.0
 10
686.4419322699963
 20
134.4567071773698
 30
0.0
 10
686.3916991410647
 20
134.059792308116
 30
0.0
 10
686.3323310943822
 20
133.6636926185452
 30
0.0
 10
686.1901686004297
 20
132.8432752935795
 30
0.0
 10
685.8999172963912
 20
131.6099042606363
 30
0.0
 10
685.343665571373
 20
129.9795167762695
 30
0.0
 10
684.6199298180703
 20
128.3894637135311
 30
0.0
 10
683.4177574128819
 20
126.331588944931
 30
0.0
 10
681.5174108813887
 20
123.990468125823
 30
0.0
 10
679.1764282961843
 20
122.0902359814771
 30
0.0
 10
677.1185724297073
 20
120.8880274538772
 30
0.0
 10
675.5286947754897
 20
120.1643543082913
 30
0.0
 10
673.898121948752
 20
119.6079733600011
 30
0.0
 10
672.5347679581379
 20
119.2872409339299
 30
0.0
 10
671.4493193499485
 20
119.1115778712003
 30
0.0
 10
670.6540896197581
 20
119.0207086861031
 30
0.0
 10
669.8554560713864
 20
118.9638381764874
 30
0.0
 10
669.3217091808783
 20
118.9568387455084
 30
0.0
 10
669.0545445731291
 20
118.9533352117824
 30
0.0
  0
LINE
  5
8B
330
1F
100
AcDbEntity
  8
0
  6
Continuous
 62
     7
370
    25
100
AcDbLine
 10
686.5545451692
 20
506.453337596
 30
0.0
 11
686.5545451692
 21
136.4533328276
 31
0.0
  0
CIRCLE
  5
8C
330
1F
100
AcDbEntity
  8
0
  6
Continuous
 62
     7
370
    25
100
AcDbCircle
 10
484.0545445731
 20
561.4533352118
 30
0.0
 40
18.00000000000011
  0
ARC
  5
8D
330
1F
100
AcDbEntity
  8
0
  6
Continuous
 62
     7
370
    25
100
AcDbCircle
 10
269.0545445731
 20
591.4533352118
 30
0.0
 40
9.499999999999886
100
AcDbArc
 50
90.0
 51
180.0
  0
LINE
  5
8E
330
1F
100
AcDbEntity
  8
0
  6
Continuous
 62
     7
370
    25
100
AcDbLine
 10
699.0545481494
 20
600.9533428412
 30
0.0
 11
269.0545409969
 21
600.9533428412
 31
0.0
  0
ARC
  5
8F
330
1F
100
AcDbEntity
  8
0
  6
Continuous
 62
     7
370
    25
100
AcDbCircle
 10
699.0545445731
 20
591.4533352118
 30
0.0
 40
9.500000000000114
100
AcDbArc
 50
0.0
 51
90.0
  0
LINE
  5
90
330
1F
100
AcDbEntity
  8
0
  6
Continuous
 62
     7
370
    25
100
AcDbLine
 10
708.55454505
 20
106.4533316355
 30
0.0
 11
708.55454505
 21
591.4533459406
 31
0.0
  0
ARC
  5
91
330
1F
100
AcDbEntity
  8
0
  6
Continuous
 62
     7
370
    25
100
AcDbCircle
 10
699.0545445731
 20
106.4533352118
 30
0.0
 40
9.500000000000028
100
AcDbArc
 50
270.0
 51
0.0
  0
LINE
  5
92
330
1F
100
AcDbEntity
  8
0
  6
Continuous
 62
     7
370
    25
100
AcDbLine
 10
269.0545409969
 20
96.9533347349
 30
0.0
 11
699.0545481494
 21
96.9533347349
 31
0.0
  0
ARC
  5
93
330
1F
100
AcDbEntity
  8
0
  6
Continuous
 62
     7
370
    25
100
AcDbCircle
 10
269.0545445731
 20
106.4533352118
 30
0.0
 40
9.500000000000028
100
AcDbArc
 50
180.0
 51
270.0
  0
LINE
  5
94
330
1F
100
AcDbEntity
  8
0
  6
Continuous
 62
     7
370
    25
100
AcDbLine
 10
259.5545440963
 20
591.4533459406
 30
0.0
 11
259.5545440963
 21
106.4533316355
 31
0.0
  0
LINE
  5
95
330
1F
100
AcDbEntity
  8
0
  6
Continuous
 62
     7
370
    25
100
AcDbLine
 10
299.0545421889
 20
523.9533358078
 30
0.0
 11
299.0545421889
 21
521.453338192
 31
0.0
  0
LINE
  5
96
330
1F
100
AcDbEntity
  8
0
  6
Continuous
 62
     7
370
    25
100
AcDbLine
 10
669.0545469573
 20
523.9533358078
 30
0.0
 11
669.0545469573
 21
521.453338192
 31
0.0
  0
LINE
  5
97
330
1F
100
AcDbEntity
  8
0
  6
Continuous
 62
     7
370
    25
100
AcDbLine
 10
299.0545421889
 20
521.453338192
 30
0.0
 11
669.0545469573
 21
521.453338192
 31
0.0
  0
LINE
  5
98
330
1F
100
AcDbEntity
  8
0
  6
Continuous
 62
     7
370
    25
100
AcDbLine
 10
281.5545439771
 20
136.4533328276
 30
0.0
 11
284.0545415929
 21
136.4533328276
 31
0.0
  0
LINE
  5
99
330
1F
100
AcDbEntity
  8
0
  6
Continuous
 62
     7
370
    25
100
AcDbLine
 10
281.5545439771
 20
506.453337596
 30
0.0
 11
284.0545415929
 21
506.453337596
 31
0.0
  0
LINE
  5
9A
330
1F
100
AcDbEntity
  8
0
  6
Continuous
 62
     7
370
    25
100
AcDbLine
 10
284.0545415929
 20
136.4533328276
 30
0.0
 11
284.0545415929
 21
506.453337596
 31
0.0
  0
LINE
  5
9B
330
1F
100
AcDbEntity
  8
0
  6
Continuous
 62
     7
370
    25
100
AcDbLine
 10
686.5545451692
 20
136.4533328276
 30
0.0
 11
684.0545475534
 21
136.4533328276
 31
0.0
  0
LINE
  5
9C
330
1F
100
AcDbEntity
  8
0
  6
Continuous
 62
     7
370
    25
100
AcDbLine
 10
684.0545475534
 20
506.453337596
 30
0.0
 11
684.0545475534
 21
136.4533328276
 31
0.0
  0
LINE
  5
9D
330
1F
100
AcDbEntity
  8
0
  6
Continuous
 62
     7
370
    25
100
AcDbLine
 10
686.5545451692
 20
506.453337596
 30
0.0
 11
684.0545475534
 21
506.453337596
 31
0.0
  0
LINE
  5
9E
330
1F
100
AcDbEntity
  8
0
  6
Continuous
 62
     7
370
    25
100
AcDbLine
 10
669.0545469573
 20
121.4533322316
 30
0.0
 11
669.0545469573
 21
118.9533346157
 31
0.0
  0
LINE
  5
9F
330
1F
100
AcDbEntity
  8
0
  6
Continuous
 62
     7
370
    25
100
AcDbLine
 10
299.0545421889
 20
118.9533346157
 30
0.0
 11
299.0545421889
 21
121.4533322316
 31
0.0
  0
LINE
  5
A0
330
1F
100
AcDbEntity
  8
0
  6
Continuous
 62
     7
370
    25
100
AcDbLine
 10
669.0545469573
 20
121.4533322316
 30
0.0
 11
299.0545421889
 21
121.4533322316
 31
0.0
  0
ARC
  5
A1
330
1F
100
AcDbEntity
  8
0
  6
Continuous
 62
     7
370
    25
100
AcDbCircle
 10
669.0545445731
 20
506.4533352118
 30
0.0
 40
15.0
100
AcDbArc
 50
0.0
 51
90.0
  0
ARC
  5
A2
330
1F
100
AcDbEntity
  8
0
  6
Continuous
 62
     7
370
    25
100
AcDbCircle
 10
299.0545445731
 20
506.4533352118
 30
0.0
 40
15.0
100
AcDbArc
 50
90.0
 51
180.0
  0
ARC
  5
A3
330
1F
100
AcDbEntity
  8
0
  6
Continuous
 62
     7
370
    25
100
AcDbCircle
 10
669.0545445731
 20
136.4533352118
 30
0.0
 40
15.00000000000003
100
AcDbArc
 50
270.0
 51
0.0
  0
ARC
  5
A4
330
1F
100
AcDbEntity
  8
0
  6
Continuous
 62
     7
370
    25
100
AcDbCircle
 10
299.0545445731
 20
136.4533352118
 30
0.0
 40
15.00000000000003
100
AcDbArc
 50
180.0
 51
270.0
  0
LINE
  5
A5
330
1F
100
AcDbEntity
  8
0
  6
Continuous
 62
     7
370
    25
100
AcDbLine
 10
269.0545409969
 20
600.9533428412
 30
0.0
 11
269.0545409969
 21
601.4533364039
 31
0.0
  0
LINE
  5
A6
330
1F
100
AcDbEntity
  8
0
  6
Continuous
 62
     7
370
    25
100
AcDbLine
 10
269.0545409969
 20
601.4533364039
 30
0.0
 11
699.0545481494
 21
601.4533364039
 31
0.0
  0
LINE
  5
A7
330
1F
100
AcDbEntity
  8
0
  6
Continuous
 62
     7
370
    25
100
AcDbLine
 10
699.0545481494
 20
600.9533428412
 30
0.0
 11
699.0545481494
 21
601.4533364039
 31
0.0
  0
LINE
  5
A8
330
1F
100
AcDbEntity
  8
0
  6
Continuous
 62
     7
370
    25
100
AcDbLine
 10
259.5545440963
 20
591.4533459406
 30
0.0
 11
259.0545505336
 21
591.4533459406
 31
0.0
  0
ARC
  5
A9
330
1F
100
AcDbEntity
  8
0
  6
Continuous
 62
     7
370
    25
100
AcDbCircle
 10
269.0545445731
 20
591.4533352118
 30
0.0
 40
10.0
100
AcDbArc
 50
90.0
 51
180.0
  0
ARC
  5
AA
330
1F
100
AcDbEntity
  8
0
  6
Continuous
 62
     7
370
    25
100
AcDbCircle
 10
699.0545445731
 20
591.4533352118
 30
0.0
 40
10.0
100
AcDbArc
 50
0.0
 51
90.0
  0
LINE
  5
AB
330
1F
100
AcDbEntity
  8
0
  6
Continuous
 62
     7
370
    25
100
AcDbLine
 10
709.0545386127
 20
591.4533459406
 30
0.0
 11
708.55454505
 21
591.4533459406
 31
0.0
  0
LINE
  5
AC
330
1F
100
AcDbEntity
  8
0
  6
Continuous
 62
     7
370
    25
100
AcDbLine
 10
259.5545440963
 20
106.4533316355
 30
0.0
 11
259.0545505336
 21
106.4533316355
 31
0.0
  0
LINE
  5
AD
330
1F
100
AcDbEntity
  8
0
  6
Continuous
 62
     7
370
    25
100
AcDbLine
 10
259.0545505336
 20
106.4533316355
 30
0.0
 11
259.0545505336
 21
591.4533459406
 31
0.0
  0
LINE
  5
AE
330
1F
100
AcDbEntity
  8
0
  6
Continuous
 62
     7
370
    25
100
AcDbLine
 10
709.0545386127
 20
591.4533459406
 30
0.0
 11
709.0545386127
 21
106.4533316355
 31
0.0
  0
LINE
  5
AF
330
1F
100
AcDbEntity
  8
0
  6
Continuous
 62
     7
370
    25
100
AcDbLine
 10
709.0545386127
 20
106.4533316355
 30
0.0
 11
708.55454505
 21
106.4533316355
 31
0.0
  0
CIRCLE
  5
B0
330
1F
100
AcDbEntity
  8
0
  6
Continuous
 62
     7
370
    25
100
AcDbCircle
 10
484.0545445731
 20
561.4533352118
 30
0.0
 40
17.50000000000011
  0
ARC
  5
B1
330
1F
100
AcDbEntity
  8
0
  6
Continuous
 62
     7
370
    25
100
AcDbCircle
 10
269.0545445731
 20
106.4533352118
 30
0.0
 40
10.00000000000003
100
AcDbArc
 50
180.0
 51
270.0
  0
LINE
  5
B2
330
1F
100
AcDbEntity
  8
0
  6
Continuous
 62
     7
370
    25
100
AcDbLine
 10
269.0545409969
 20
96.4533411722
 30
0.0
 11
269.0545409969
 21
96.9533347349
 31
0.0
  0
ARC
  5
B3
330
1F
100
AcDbEntity
  8
0
  6
Continuous
 62
     7
370
    25
100
AcDbCircle
 10
699.0545445731
 20
106.4533352118
 30
0.0
 40
9.999999999810015
100
AcDbArc
 50
270.0
 51
0.0
  0
LINE
  5
B4
330
1F
100
AcDbEntity
  8
0
  6
Continuous
 62
     7
370
    25
100
AcDbLine
 10
699.0545481494
 20
96.4533411722
 30
0.0
 11
699.0545481494
 21
96.9533347349
 31
0.0
  0
LINE
  5
B5
330
1F
100
AcDbEntity
  8
0
  6
Continuous
 62
     7
370
    25
100
AcDbLine
 10
699.0545481494
 20
96.4533411722
 30
0.0
 11
269.0545409969
 21
96.4533411722
 31
0.0
  0
SPLINE
  5
B6
330
1F
100
AcDbEntity
  8
0
  6
Continuous
 62
     7
370
    25
100
AcDbSpline
210
0.0
220
0.0
230
1.0
 70
     8
 71
     3
 72
    14
 73
    10
 74
     0
 42
0.000000001
 43
0.00000001
 40
0.0
 40
0.0
 40
0.0
 40
0.0
 40
0.25
 40
0.25
 40
0.5
 40
0.5
 40
0.75
 40
0.75
 40
1.0
 40
1.0
 40
1.0
 40
1.0
 10
684.0545445731291
 20
506.4533352117825
 30
0.0
 10
684.0545445739624
 20
506.4801240287408
 30
0.0
 10
683.6847755524509
 20
506.5069034562001
 30
0.0
 10
682.2586162287685
 20
506.5566139595301
 30
0.0
 10
681.2027386364146
 20
506.579527347076
 30
0.0
 10
678.5563341860219
 20
506.6181942292697
 30
0.0
 10
676.9667634540189
 20
506.6339337553198
 30
0.0
 10
673.482188747238
 20
506.655975189715
 30
0.0
 10
671.5884245976913
 20
506.6622691832132
 30
0.0
 10
669.6786041261269
 20
506.6633863150991
 30
0.0
  0
SPLINE
  5
B7
330
1F
100
AcDbEntity
  8
0
  6
Continuous
 62
     7
370
    25
100
AcDbSpline
210
0.0
220
0.0
230
1.0
 70
     8
 71
     3
 72
    14
 73
    10
 74
     0
 42
0.000000001
 43
0.00000001
 40
0.0
 40
0.0
 40
0.0
 40
0.0
 40
0.25
 40
0.25
 40
0.5
 40
0.5
 40
0.75
 40
0.75
 40
1.0
 40
1.0
 40
1.0
 40
1.0
 10
669.678604131107
 20
506.663386316775
 30
0.0
 10
669.6774702906986
 20
508.6091860859284
 30
0.0
 10
669.6603856130403
 20
510.5488811036984
 30
0.0
 10
669.5968466116577
 20
514.128766381667
 30
0.0
 10
669.5504168240651
 20
515.7675883658734
 30
0.0
 10
669.4351105859622
 20
518.5002976871024
 30
0.0
 10
669.3662789090787
 20
519.5931239046878
 30
0.0
 10
669.2164517049633
 20
521.0699279074655
 30
0.0
 10
669.1355134470518
 20
521.4533352117825
 30
0.0
 10
669.0545445730361
 20
521.4533352117825
 30
0.0
  0
SPLINE
  5
B8
330
1F
100
AcDbEntity
  8
0
  6
Continuous
 62
     7
370
    25
100
AcDbSpline
210
0.0
220
0.0
230
1.0
 70
     8
 71
     3
 72
    14
 73
    10
 74
     0
 42
0.000000001
 43
0.00000001
 40
0.0
 40
0.0
 40
0.0
 40
0.0
 40
0.25
 40
0.25
 40
0.5
 40
0.5
 40
0.75
 40
0.75
 40
1.0
 40
1.0
 40
1.0
 40
1.0
 10
669.0545445731291
 20
121.4533352117825
 30
0.0
 10
669.0805840210494
 20
121.4533352117824
 30
0.0
 10
669.1066138921553
 20
121.8316350786496
 30
0.0
 10
669.1548490219845
 20
123.2894887999187
 30
0.0
 10
669.1770363262323
 20
124.368494282422
 30
0.0
 10
669.2143072774448
 20
127.0689723983708
 30
0.0
 10
669.2293768346731
 20
128.6894240506766
 30
0.0
 10
669.2501820460741
 20
132.2338680795324
 30
0.0
 10
669.2559098600342
 20
134.1565412009156
 30
0.0
 10
669.2565441179444
 20
136.0891116725093
 30
0.0
  0
SPLINE
  5
B9
330
1F
100
AcDbEntity
  8
0
  6
Continuous
 62
     7
370
    25
100
AcDbSpline
210
0.0
220
0.0
230
1.0
 70
     8
 71
     3
 72
    14
 73
    10
 74
     0
 42
0.000000001
 43
0.00000001
 40
0.0
 40
0.0
 40
0.0
 40
0.0
 40
0.25
 40
0.25
 40
0.5
 40
0.5
 40
0.75
 40
0.75
 40
1.0
 40
1.0
 40
1.0
 40
1.0
 10
669.2565441161291
 20
136.0891116757825
 30
0.0
 10
671.2030291986291
 20
136.0897482749491
 30
0.0
 10
673.1436104578011
 20
136.0997008632721
 30
0.0
 10
676.7253449299104
 20
136.1367620011367
 30
0.0
 10
678.3651272715041
 20
136.1638562191991
 30
0.0
 10
681.0995228902541
 20
136.2311579633658
 30
0.0
 10
682.1930729188791
 20
136.2713393196574
 30
0.0
 10
683.6708695875511
 20
136.3588085413762
 30
0.0
 10
684.0545445731292
 20
136.4060629267825
 30
0.0
 10
684.0545445731291
 20
136.4533352117825
 30
0.0
  0
SPLINE
  5
BA
330
1F
100
AcDbEntity
  8
0
  6
Continuous
 62
     7
370
    25
100
AcDbSpline
210
0.0
220
0.0
230
1.0
 70
     8
 71
     3
 72
    14
 73
    10
 74
     0
 42
0.000000001
 43
0.00000001
 40
0.0
 40
0.0
 40
0.0
 40
0.0
 40
0.25
 40
0.25
 40
0.5
 40
0.5
 40
0.75
 40
0.75
 40
1.0
 40
1.0
 40
1.0
 40
1.0
 10
284.0545445731291
 20
136.4533352117825
 30
0.0
 10
284.0545445731291
 20
136.4091733359491
 30
0.0
 10
284.4362914719155
 20
136.3650280164805
 30
0.0
 10
285.9069368867333
 20
136.283281666272
 30
0.0
 10
286.9952721728375
 20
136.2457116154491
 30
0.0
 10
289.7175149699208
 20
136.1827182271158
 30
0.0
 10
291.3503745192228
 20
136.1573191395013
 30
0.0
 10
294.9187709638322
 20
136.1224607832512
 30
0.0
 10
296.8529556244625
 20
136.1130148592825
 30
0.0
 10
298.794486591129
 20
136.1122492167825
 30
0.0
  0
SPLINE
  5
BB
330
1F
100
AcDbEntity
  8
0
  6
Continuous
 62
     7
370
    25
100
AcDbSpline
210
0.0
220
0.0
230
1.0
 70
     8
 71
     3
 72
    14
 73
    10
 74
     0
 42
0.000000001
 43
0.00000001
 40
0.0
 40
0.0
 40
0.0
 40
0.0
 40
0.25
 40
0.25
 40
0.5
 40
0.5
 40
0.75
 40
0.75
 40
1.0
 40
1.0
 40
1.0
 40
1.0
 10
298.7944899651291
 20
136.1122472427825
 30
0.0
 10
298.7952530334624
 20
134.1776786244574
 30
0.0
 10
298.8025876419155
 20
132.2524449030388
 30
0.0
 10
298.8293248520456
 20
128.702678532787
 30
0.0
 10
298.8487173616705
 20
127.07947243839
 30
0.0
 10
298.896710537087
 20
124.3741646442166
 30
0.0
 10
298.9252929847433
 20
123.2930898693576
 30
0.0
 10
298.9874431595612
 20
121.8323993320048
 30
0.0
 10
299.0209876589622
 20
121.4533352134491
 30
0.0
 10
299.0545445631291
 20
121.4533352117825
 30
0.0
  0
SPLINE
  5
BC
330
1F
100
AcDbEntity
  8
0
  6
Continuous
 62
     7
370
    25
100
AcDbSpline
210
0.0
220
0.0
230
1.0
 70
     8
 71
     3
 72
    14
 73
    10
 74
     0
 42
0.000000001
 43
0.00000001
 40
0.0
 40
0.0
 40
0.0
 40
0.0
 40
0.25
 40
0.25
 40
0.5
 40
0.5
 40
0.75
 40
0.75
 40
1.0
 40
1.0
 40
1.0
 40
1.0
 10
299.0545445731291
 20
521.4533352117825
 30
0.0
 10
298.9766182233762
 20
521.4533352109491
 30
0.0
 10
298.89872050012
 20
521.075441279005
 30
0.0
 10
298.7543594520835
 20
519.6190945133865
 30
0.0
 10
298.6879497512763
 20
518.5411883192055
 30
0.0
 10
298.5763697089967
 20
515.8432764699821
 30
0.0
 10
298.5312414617806
 20
514.2242886487594
 30
0.0
 10
298.4688967383142
 20
510.6826743203219
 30
0.0
 10
298.4517036572761
 20
508.7613632513925
 30
0.0
 10
298.4497460039045
 20
506.8298566900351
 30
0.0
  0
SPLINE
  5
BD
330
1F
100
AcDbEntity
  8
0
  6
Continuous
 62
     7
370
    25
100
AcDbSpline
210
0.0
220
0.0
230
1.0
 70
     8
 71
     3
 72
    14
 73
    10
 74
     0
 42
0.000000001
 43
0.00000001
 40
0.0
 40
0.0
 40
0.0
 40
0.0
 40
0.25
 40
0.25
 40
0.5
 40
0.5
 40
0.75
 40
0.75
 40
1.0
 40
1.0
 40
1.0
 40
1.0
 10
298.4497460045067
 20
506.8298566896602
 30
0.0
 10
296.5382197920645
 20
506.8279180107855
 30
0.0
 10
294.6423033173776
 20
506.8166827665033
 30
0.0
 10
291.1532848055905
 20
506.7772293471666
 30
0.0
 10
289.5614283543137
 20
506.7490253901197
 30
0.0
 10
286.9110260959949
 20
506.6797015457489
 30
0.0
 10
285.8534411056413
 20
506.6386067889392
 30
0.0
 10
284.4249427025619
 20
506.54943753018
 30
0.0
 10
284.0545445764624
 20
506.5013948666623
 30
0.0
 10
284.0545445731291
 20
506.4533352387825
 30
0.0
  0
SPLINE
  5
BE
330
1F
100
AcDbEntity
  8
0
  6
Continuous
 62
     7
370
    25
100
AcDbSpline
210
0.0
220
0.0
230
1.0
 70
     8
 71
     3
 72
    14
 73
    10
 74
     0
 42
0.000000001
 43
0.00000001
 40
0.0
 40
0.0
 40
0.0
 40
0.0
 40
0.5000000000000001
 40
0.5000000000000001
 40
0.7500000000000056
 40
0.7500000000000056
 40
0.8750000000000028
 40
0.8750000000000028
 40
1.0
 40
1.0
 40
1.0
 40
1.0
 10
669.2565441179444
 20
136.0891116725093
 30
0.0
 10
667.9960306770608
 20
136.0736696511088
 30
0.0
 10
666.7069522832516
 20
136.0579603833586
 30
0.0
 10
664.7593246607327
 20
136.0321997984531
 30
0.0
 10
664.1080386223448
 20
136.0232419001897
 30
0.0
 10
663.132911587414
 20
136.0088632388164
 30
0.0
 10
662.8084238616282
 20
136.0039280059359
 30
0.0
 10
662.1618064517812
 20
135.9936811899534
 30
0.0
 10
661.8376708673281
 20
135.9883132539686
 30
0.0
 10
661.5171942651291
 20
135.9827365817825
 30
0.0
  0
SPLINE
  5
BF
330
1F
100
AcDbEntity
  8
0
  6
Continuous
 62
     7
370
    25
100
AcDbSpline
210
0.0
220
0.0
230
1.0
 70
     8
 71
     3
 72
    18
 73
    14
 74
     0
 42
0.000000001
 43
0.00000001
 40
0.0
 40
0.0
 40
0.0
 40
0.0
 40
0.0624999999999985
 40
0.0624999999999985
 40
0.124999999999997
 40
0.124999999999997
 40
0.2499999999999974
 40
0.2499999999999974
 40
0.4999999999999983
 40
0.4999999999999983
 40
0.7499999999999992
 40
0.7499999999999992
 40
1.0
 40
1.0
 40
1.0
 40
1.0
 10
669.8735777943139
 20
160.4071103535362
 30
0.0
 10
669.8217105314859
 20
159.94498149259
 30
0.0
 10
669.7811275628923
 20
159.4384559593867
 30
0.0
 10
669.7139992034054
 20
158.4107708875709
 30
0.0
 10
669.6868361155114
 20
157.8864206231217
 30
0.0
 10
669.615644636214
 20
156.3067831537039
 30
0.0
 10
669.5815986197509
 20
155.2447530815965
 30
0.0
 10
669.4937890028248
 20
152.0840772950273
 30
0.0
 10
669.4547941250823
 20
149.9974870338952
 30
0.0
 10
669.3860757001911
 20
145.9067142667524
 30
0.0
 10
669.3575406228928
 20
143.8945571474635
 30
0.0
 10
669.3045608211206
 20
139.9407479136116
 30
0.0
 10
669.2802864006222
 20
137.998505381933
 30
0.0
 10
669.2565441161291
 20
136.0891116757825
 30
0.0
  0
SPLINE
  5
C0
330
1F
100
AcDbEntity
  8
0
  6
Continuous
 62
     7
370
    25
100
AcDbSpline
210
0.0
220
0.0
230
1.0
 70
     8
 71
     3
 72
    20
 73
    16
 74
     0
 42
0.000000001
 43
0.00000001
 40
0.0
 40
0.0
 40
0.0
 40
0.0
 40
0.5000000000000027
 40
0.5000000000000027
 40
0.7500000000000062
 40
0.7500000000000062
 40
0.8750000000000079
 40
0.8750000000000079
 40
0.9375000000000064
 40
0.9375000000000064
 40
0.9687500000000058
 40
0.9687500000000058
 40
0.9843750000000029
 40
0.9843750000000029
 40
1.0
 40
1.0
 40
1.0
 40
1.0
 10
298.7944865911288
 20
136.1122492167825
 30
0.0
 10
298.7539896039002
 20
138.9131013602698
 30
0.0
 10
298.7128025832799
 20
141.8222105985448
 30
0.0
 10
298.6296801936568
 20
146.3287024620292
 30
0.0
 10
298.5985622835857
 20
147.8537687096337
 30
0.0
 10
298.5364325232619
 20
150.1540819589139
 30
0.0
 10
298.5130780305947
 20
150.922575338997
 30
0.0
 10
298.4703929637959
 20
152.0651275655252
 30
0.0
 10
298.4548678007806
 20
152.4441715505076
 30
0.0
 10
298.4287273558031
 20
153.0064004773092
 30
0.0
 10
298.4195338517667
 20
153.192734395711
 30
0.0
 10
298.4048599528968
 20
153.4699622652888
 30
0.0
 10
298.3998484899855
 20
153.5615496711156
 30
0.0
 10
298.3892321053972
 20
153.7495224068704
 30
0.0
 10
298.3836313833095
 20
153.8432652606411
 30
0.0
 10
298.3780720140616
 20
153.9338434147824
 30
0.0
  0
SPLINE
  5
C1
330
1F
100
AcDbEntity
  8
0
  6
Continuous
 62
     7
370
    25
100
AcDbSpline
210
0.0
220
0.0
230
1.0
 70
     8
 71
     3
 72
    14
 73
    10
 74
     0
 42
0.000000001
 43
0.00000001
 40
0.0
 40
0.0
 40
0.0
 40
0.0
 40
0.1250000000000029
 40
0.1250000000000029
 40
0.2500000000000057
 40
0.2500000000000057
 40
0.5000000000000038
 40
0.5000000000000038
 40
1.0
 40
1.0
 40
1.0
 40
1.0
 10
309.6004345761291
 20
135.9203429837825
 30
0.0
 10
309.1545973434198
 20
135.9323823173483
 30
0.0
 10
308.6952471070823
 20
135.9439267430344
 30
0.0
 10
307.7859855094336
 20
135.9646188718172
 30
0.0
 10
307.33089976392
 20
135.9742072940296
 30
0.0
 10
305.9605191004994
 20
136.001353576939
 30
0.0
 10
305.0443327147033
 20
136.0173277306965
 30
0.0
 10
302.3164106692555
 20
136.0619713726631
 30
0.0
 10
300.5262392920558
 20
136.0874076753785
 30
0.0
 10
298.7944899651291
 20
136.1122472427825
 30
0.0
  0
SPLINE
  5
C2
330
1F
100
AcDbEntity
  8
0
  6
Continuous
 62
     7
370
    25
100
AcDbSpline
210
0.0
220
0.0
230
1.0
 70
     8
 71
     3
 72
    20
 73
    16
 74
     0
 42
0.000000001
 43
0.00000001
 40
0.0
 40
0.0
 40
0.0
 40
0.0
 40
0.0312500000000001
 40
0.0312500000000001
 40
0.0625000000000001
 40
0.0625000000000001
 40
0.1250000000000002
 40
0.1250000000000002
 40
0.2500000000000002
 40
0.2500000000000002
 40
0.5000000000000002
 40
0.5000000000000002
 40
0.7500000000000001
 40
0.7500000000000001
 40
1.0
 40
1.0
 40
1.0
 40
1.0
 10
661.5172015001292
 20
135.9827363657825
 30
0.0
 10
658.7730742923925
 20
135.9815293191465
 30
0.0
 10
656.016943504082
 20
135.9803168540158
 30
0.0
 10
650.5110594090947
 20
135.9778978995893
 30
0.0
 10
647.759462647989
 20
135.976690512171
 30
0.0
 10
639.503952148746
 20
135.9730755406952
 30
0.0
 10
634.0013335336615
 20
135.9706760890146
 30
0.0
 10
617.4961424970278
 20
135.9635371078602
 30
0.0
 10
606.4996898760666
 20
135.9588581533212
 30
0.0
 10
573.523032994887
 20
135.9453067933208
 30
0.0
 10
551.555441718142
 20
135.9369259430889
 30
0.0
 10
507.6100331563569
 20
135.9228414719772
 30
0.0
 10
485.6362718969504
 20
135.9171652593444
 30
0.0
 10
441.6908560879798
 20
135.9096682436499
 30
0.0
 10
419.7128012796979
 20
135.9078912409447
 30
0.0
 10
397.7299459928291
 20
135.9082409397825
 30
0.0
  0
SPLINE
  5
C3
330
1F
100
AcDbEntity
  8
0
  6
Continuous
 62
     7
370
    25
100
AcDbSpline
210
0.0
220
0.0
230
1.0
 70
     8
 71
     3
 72
    23
 73
    19
 74
     0
 42
0.000000001
 43
0.00000001
 40
0.0
 40
0.0
 40
0.0
 40
0.0
 40
0.0625000000000003
 40
0.0625000000000003
 40
0.1250000000000005
 40
0.1250000000000005
 40
0.1875000000000008
 40
0.1875000000000008
 40
0.2500000000000011
 40
0.2500000000000011
 40
0.3125000000000013
 40
0.3125000000000013
 40
0.3750000000000016
 40
0.5000000000000017
 40
0.5000000000000017
 40
0.7500000000000008
 40
0.7500000000000008
 40
1.0
 40
1.0
 40
1.0
 40
1.0
 10
397.7299441522291
 20
135.9082391387825
 30
0.0
 10
395.8923572532444
 20
135.9082652907262
 30
0.0
 10
394.0389732651906
 20
135.9083080867436
 30
0.0
 10
390.3037803185222
 20
135.9084268841307
 30
0.0
 10
388.4227491286413
 20
135.9085028122937
 30
0.0
 10
384.6600963877614
 20
135.9086851046073
 30
0.0
 10
382.7792526054965
 20
135.9087913955514
 30
0.0
 10
379.0445860916796
 20
135.9090313001069
 30
0.0
 10
377.1915411288616
 20
135.9091648405118
 30
0.0
 10
373.5165274061435
 20
135.909457982909
 30
0.0
 10
371.6938365054144
 20
135.9096176279639
 30
0.0
 10
368.0436536492426
 20
135.9099652280638
 30
0.0
 10
362.5681750767698
 20
135.9105286162369
 30
0.0
 10
357.0920397207428
 20
135.9112166278934
 30
0.0
 10
346.1387779856725
 20
135.912754315472
 30
0.0
 10
338.8367146545131
 20
135.9140024268662
 30
0.0
 10
324.2208089971107
 20
135.9168521849163
 30
0.0
 10
316.9088302382616
 20
135.9185210535327
 30
0.0
 10
309.6004345761357
 20
135.9203429849053
 30
0.0
  0
SPLINE
  5
C4
330
1F
100
AcDbEntity
  8
0
  6
Continuous
 62
     7
370
    25
100
AcDbSpline
210
0.0
220
0.0
230
1.0
 70
     8
 71
     3
 72
    14
 73
    10
 74
     0
 42
0.000000001
 43
0.00000001
 40
0.0
 40
0.0
 40
0.0
 40
0.0
 40
0.4999999999999999
 40
0.4999999999999999
 40
0.75
 40
0.75
 40
0.875
 40
0.875
 40
1.0
 40
1.0
 40
1.0
 40
1.0
 10
669.6786041261291
 20
506.6633863151021
 30
0.0
 10
669.6887442843639
 20
505.9439808548752
 30
0.0
 10
669.6990441377555
 20
505.207102115327
 30
0.0
 10
669.7150063801465
 20
504.08889068536
 30
0.0
 10
669.7204128818139
 20
503.7140761813314
 30
0.0
 10
669.7286913800099
 20
503.1510104590706
 30
0.0
 10
669.7314790609634
 20
502.9631852496762
 30
0.0
 10
669.7371182807791
 20
502.5876870741661
 30
0.0
 10
669.7399993546079
 20
502.3980792382686
 30
0.0
 10
669.7428868374259
 20
502.2107303057567
 30
0.0
  0
SPLINE
  5
C5
330
1F
100
AcDbEntity
  8
0
  6
Continuous
 62
     7
370
    25
100
AcDbSpline
210
0.0
220
0.0
230
1.0
 70
     8
 71
     3
 72
    32
 73
    28
 74
     0
 42
0.000000001
 43
0.00000001
 40
0.0
 40
0.0
 40
0.0
 40
0.0
 40
0.0156249999999997
 40
0.0156249999999997
 40
0.0312499999999994
 40
0.0312499999999994
 40
0.046874999999999
 40
0.046874999999999
 40
0.0624999999999987
 40
0.0624999999999987
 40
0.0937499999999984
 40
0.0937499999999984
 40
0.124999999999998
 40
0.124999999999998
 40
0.1874999999999974
 40
0.1874999999999974
 40
0.2499999999999968
 40
0.2499999999999968
 40
0.3749999999999977
 40
0.3749999999999977
 40
0.4999999999999987
 40
0.4999999999999987
 40
0.6249999999999997
 40
0.6249999999999997
 40
0.7500000000000007
 40
0.7500000000000007
 40
1.0
 40
1.0
 40
1.0
 40
1.0
 10
635.305860726129
 20
508.2179847177825
 30
0.0
 10
635.348484666338
 20
508.1590785061487
 30
0.0
 10
635.4200348767893
 20
508.0993765684236
 30
0.0
 10
635.6406696595752
 20
507.9838032813739
 30
0.0
 10
635.7886806507838
 20
507.9283335922882
 30
0.0
 10
636.1366802373699
 20
507.8290141802029
 30
0.0
 10
636.3352099480527
 20
507.7852815815246
 30
0.0
 10
636.7497796731652
 20
507.7081517547812
 30
0.0
 10
636.9663707745241
 20
507.674753938403
 30
0.0
 10
637.6190177844971
 20
507.5858136903907
 30
0.0
 10
638.0574446587182
 20
507.5406037096823
 30
0.0
 10
638.9194405753573
 20
507.4631333230903
 30
0.0
 10
639.3438300620608
 20
507.4311274943433
 30
0.0
 10
640.6043257999544
 20
507.3455772990911
 30
0.0
 10
641.426989752342
 20
507.3025355926753
 30
0.0
 10
643.0367320420681
 20
507.2279603687885
 30
0.0
 10
643.8249722865379
 20
507.1969013234649
 30
0.0
 10
646.1477592781506
 20
507.1137584940723
 30
0.0
 10
647.6409456326687
 20
507.0713002910317
 30
0.0
 10
650.5909534243475
 20
506.995846333114
 30
0.0
 10
652.0374610320907
 20
506.96363251498
 30
0.0
 10
654.8797693292319
 20
506.9049922860489
 30
0.0
 10
656.2777158257771
 20
506.8786085215959
 30
0.0
 10
659.0421239783554
 20
506.829213777744
 30
0.0
 10
660.4073023149829
 20
506.8062581354556
 30
0.0
 10
664.4539738791506
 20
506.7407044441168
 30
0.0
 10
667.0896897356524
 20
506.7012813323002
 30
0.0
 10
669.6786041311072
 20
506.6633863167751
 30
0.0
  0
SPLINE
  5
C6
330
1F
100
AcDbEntity
  8
0
  6
Continuous
 62
     7
370
    25
100
AcDbSpline
210
0.0
220
0.0
230
1.0
 70
     8
 71
     3
 72
    24
 73
    20
 74
     0
 42
0.000000001
 43
0.00000001
 40
0.0
 40
0.0
 40
0.0
 40
0.0
 40
0.03125
 40
0.03125
 40
0.0625
 40
0.0625
 40
0.125
 40
0.125
 40
0.25
 40
0.25
 40
0.375
 40
0.375
 40
0.5
 40
0.5
 40
0.625
 40
0.625
 40
0.75
 40
0.75
 40
1.0
 40
1.0
 40
1.0
 40
1.0
 10
298.3780720401714
 20
153.9338434152775
 30
0.0
 10
298.3746421951607
 20
157.5715744727282
 30
0.0
 10
298.3711970669692
 20
161.2000898946913
 30
0.0
 10
298.3642954619698
 20
168.4335135784991
 30
0.0
 10
298.3608381777866
 20
172.0393545404048
 30
0.0
 10
298.3504302066803
 20
182.8601098826693
 30
0.0
 10
298.3434497145921
 20
190.0702711626604
 30
0.0
 10
298.3225307729518
 20
211.6886010260839
 30
0.0
 10
298.3086067596752
 20
226.0844390468678
 30
0.0
 10
298.2818123686513
 20
254.8412073192114
 30
0.0
 10
298.2689445580036
 20
269.2025288856299
 30
0.0
 10
298.2455059519131
 20
297.8922363743915
 30
0.0
 10
298.2349473058976
 20
312.2167329216573
 30
0.0
 10
298.2174132213603
 20
340.8406792403719
 30
0.0
 10
298.2104473591499
 20
355.1429539402277
 30
0.0
 10
298.2010877371157
 20
383.749329061154
 30
0.0
 10
298.1987067844465
 20
398.0497614147654
 30
0.0
 10
298.1989927908039
 20
440.9588831936551
 30
0.0
 10
298.2093984419942
 20
469.5805595624272
 30
0.0
 10
298.2271951698347
 20
498.2553347849394
 30
0.0
  0
SPLINE
  5
C7
330
1F
100
AcDbEntity
  8
0
  6
Continuous
 62
     7
370
    25
100
AcDbSpline
210
0.0
220
0.0
230
1.0
 70
     8
 71
     3
 72
    32
 73
    28
 74
     0
 42
0.000000001
 43
0.00000001
 40
0.0
 40
0.0
 40
0.0
 40
0.0
 40
0.0312500000000003
 40
0.0312500000000003
 40
0.0625000000000006
 40
0.0625000000000006
 40
0.0781250000000007
 40
0.0781250000000007
 40
0.0937500000000009
 40
0.0937500000000009
 40
0.1250000000000009
 40
0.1250000000000009
 40
0.2500000000000008
 40
0.2500000000000008
 40
0.3750000000000007
 40
0.3750000000000007
 40
0.5000000000000006
 40
0.5000000000000006
 40
0.6250000000000004
 40
0.6250000000000004
 40
0.7500000000000002
 40
0.7500000000000002
 40
0.8750000000000001
 40
0.8750000000000001
 40
0.9375000000000001
 40
0.9375000000000001
 40
1.0
 40
1.0
 40
1.0
 40
1.0
 10
669.7428869931291
 20
502.2107287067825
 30
0.0
 10
669.7464935523132
 20
498.5403538959873
 30
0.0
 10
669.7501132134563
 20
494.8756735690473
 30
0.0
 10
669.7573075974827
 20
487.6141917059535
 30
0.0
 10
669.7608797786521
 20
484.0199052859879
 30
0.0
 10
669.7662090401919
 20
478.6638657071514
 30
0.0
 10
669.7679824880801
 20
476.8825599350353
 30
0.0
 10
669.771531475091
 20
473.31828403623
 30
0.0
 10
669.7733059451912
 20
471.5363880023594
 30
0.0
 10
669.7786265712293
 20
466.1914902378443
 30
0.0
 10
669.7821699796018
 20
462.6292858870059
 30
0.0
 10
669.7998301584796
 20
444.823959593142
 30
0.0
 10
669.8137856644285
 20
430.5989814816434
 30
0.0
 10
669.8402018873205
 20
402.1732136638373
 30
0.0
 10
669.8526587346927
 20
387.9705100111311
 30
0.0
 10
669.8747474647417
 20
359.5765521310411
 30
0.0
 10
669.8843623552827
 20
345.3898421351936
 30
0.0
 10
669.8995209728542
 20
317.0233413495538
 30
0.0
 10
669.9050556885414
 20
302.8406139738695
 30
0.0
 10
669.9112894594365
 20
274.4456792462616
 30
0.0
 10
669.9119817352316
 20
260.2361012769854
 30
0.0
 10
669.908488952774
 20
231.7842937767861
 30
0.0
 10
669.9043105114599
 20
217.5409986060332
 30
0.0
 10
669.8949094690245
 20
196.1430188927
 30
0.0
 10
669.8912561827902
 20
189.0053437840836
 30
0.0
 10
669.8831035603157
 20
174.7141123341854
 30
0.0
 10
669.878502745009
 20
167.5624100637881
 30
0.0
 10
669.8735777671291
 20
160.4071103537826
 30
0.0
  0
SPLINE
  5
C8
330
1F
100
AcDbEntity
  8
0
  6
Continuous
 62
     7
370
    25
100
AcDbSpline
210
0.0
220
0.0
230
1.0
 70
     8
 71
     3
 72
    24
 73
    20
 74
     0
 42
0.000000001
 43
0.00000001
 40
0.0
 40
0.0
 40
0.0
 40
0.0
 40
0.250000000000001
 40
0.250000000000001
 40
0.500000000000002
 40
0.500000000000002
 40
0.750000000000003
 40
0.750000000000003
 40
0.8750000000000036
 40
0.8750000000000036
 40
0.937500000000002
 40
0.937500000000002
 40
0.9687499999999996
 40
0.9687499999999996
 40
0.9843749999999981
 40
0.9843749999999981
 40
0.9921874999999991
 40
0.9921874999999991
 40
1.0
 40
1.0
 40
1.0
 40
1.0
 10
298.4497460039085
 20
506.8298566900311
 30
0.0
 10
299.8808435896758
 20
506.8629983184185
 30
0.0
 10
301.3529655519092
 20
506.8973240904655
 30
0.0
 10
304.403565939311
 20
506.9726448273243
 30
0.0
 10
305.980143839799
 20
507.0133809054574
 30
0.0
 10
309.268260631505
 20
507.1108217154185
 30
0.0
 10
310.9846411363409
 20
507.1660240440024
 30
0.0
 10
313.7096705041751
 20
507.2877348031688
 30
0.0
 10
314.6431887638229
 20
507.3345442685701
 30
0.0
 10
316.0912274123771
 20
507.4313973259533
 30
0.0
 10
316.5820189384793
 20
507.4683337545644
 30
0.0
 10
317.3070473269934
 20
507.5348380783493
 30
0.0
 10
317.546624145565
 20
507.5588742109317
 30
0.0
 10
317.8981375449993
 20
507.5984801929098
 30
0.0
 10
318.0139896205075
 20
507.6122761677341
 30
0.0
 10
318.1851190257399
 20
507.6339752177533
 30
0.0
 10
318.2407152970861
 20
507.6412337708398
 30
0.0
 10
318.3626314996212
 20
507.6576711103143
 30
0.0
 10
318.4235557299161
 20
507.6662776466447
 30
0.0
 10
318.4784204487132
 20
507.6742454921459
 30
0.0
  0
SPLINE
  5
C9
330
1F
100
AcDbEntity
  8
0
  6
Continuous
 62
     7
370
    25
100
AcDbSpline
210
0.0
220
0.0
230
1.0
 70
     8
 71
     3
 72
    12
 73
     8
 74
     0
 42
0.000000001
 43
0.00000001
 40
0.0
 40
0.0
 40
0.0
 40
0.0
 40
0.2499999999999976
 40
0.2499999999999976
 40
0.4999999999999951
 40
0.4999999999999951
 40
1.0
 40
1.0
 40
1.0
 40
1.0
 10
298.2271983971291
 20
498.2553295837825
 30
0.0
 10
298.2525626439386
 20
498.9944943768074
 30
0.0
 10
298.2754293544146
 20
499.745363257143
 30
0.0
 10
298.3170874207026
 20
501.2362280366744
 30
0.0
 10
298.3359864182509
 20
501.9754032441088
 30
0.0
 10
298.389272763972
 20
504.1430777856546
 30
0.0
 10
298.4202026368471
 20
505.5249154557682
 30
0.0
 10
298.4497460045067
 20
506.8298566896602
 30
0.0
  0
SPLINE
  5
CA
330
1F
100
AcDbEntity
  8
0
  6
Continuous
 62
     7
370
    25
100
AcDbSpline
210
0.0
220
0.0
230
1.0
 70
     8
 71
     3
 72
    24
 73
    20
 74
     0
 42
0.000000001
 43
0.00000001
 40
0.0
 40
0.0
 40
0.0
 40
0.0
 40
0.2499999999999999
 40
0.2499999999999999
 40
0.3749999999999998
 40
0.3749999999999998
 40
0.4999999999999998
 40
0.4999999999999998
 40
0.6249999999999998
 40
0.6249999999999998
 40
0.7499999999999999
 40
0.7499999999999999
 40
0.8749999999999999
 40
0.8749999999999999
 40
0.9374999999999999
 40
0.9374999999999999
 40
0.96875
 40
0.96875
 40
1.0
 40
1.0
 40
1.0
 40
1.0
 10
318.4784184005214
 20
507.6742471718291
 30
0.0
 10
338.7705062070496
 20
507.7421090886695
 30
0.0
 10
358.9546089717966
 20
507.8191334056655
 30
0.0
 10
389.0185322149528
 20
507.9446166102229
 30
0.0
 10
399.0047026528238
 20
507.9880516085944
 30
0.0
 10
418.9059530801147
 20
508.0758911568479
 30
0.0
 10
428.8185937937912
 20
508.1203062554414
 30
0.0
 10
448.57615502342
 20
508.2062012596958
 30
0.0
 10
458.4228784984343
 20
508.2476591620216
 30
0.0
 10
478.0788116725386
 20
508.3221948226386
 30
0.0
 10
487.887378300927
 20
508.3552061331416
 30
0.0
 10
507.4744862653819
 20
508.4068483187657
 30
0.0
 10
517.2543477059177
 20
508.4254128115183
 30
0.0
 10
531.938581680917
 20
508.4395775006811
 30
0.0
 10
536.8358426124622
 20
508.4420413829905
 30
0.0
 10
544.1880980559793
 20
508.4422621464925
 30
0.0
 10
546.6423910350176
 20
508.4417595603925
 30
0.0
 10
551.5405533867936
 20
508.439608473483
 30
0.0
 10
553.9757294004457
 20
508.4379486868957
 30
0.0
 10
556.40396712103
 20
508.4358418730206
 30
0.0
  0
SPLINE
  5
CB
330
1F
100
AcDbEntity
  8
0
  6
Continuous
 62
     7
370
    25
100
AcDbSpline
210
0.0
220
0.0
230
1.0
 70
     8
 71
     3
 72
    18
 73
    14
 74
     0
 42
0.000000001
 43
0.00000001
 40
0.0
 40
0.0
 40
0.0
 40
0.0
 40
0.0625000000000003
 40
0.0625000000000003
 40
0.1250000000000005
 40
0.1250000000000005
 40
0.2500000000000005
 40
0.2500000000000005
 40
0.5000000000000006
 40
0.5000000000000006
 40
0.7500000000000004
 40
0.7500000000000004
 40
1.0
 40
1.0
 40
1.0
 40
1.0
 10
556.4039671210264
 20
508.4358417407822
 30
0.0
 10
558.0385543167241
 20
508.4344468255103
 30
0.0
 10
559.6761734798683
 20
508.4326695450352
 30
0.0
 10
562.9426482639334
 20
508.4287407219715
 30
0.0
 10
564.5731955481436
 20
508.4265718239685
 30
0.0
 10
569.4703227516317
 20
508.4193380111047
 30
0.0
 10
572.737700401618
 20
508.413590621912
 30
0.0
 10
582.5482688095295
 20
508.3938045332185
 30
0.0
 10
589.0998036367706
 20
508.3772132220275
 30
0.0
 10
602.2353726855082
 20
508.3387656559088
 30
0.0
 10
608.8199015568554
 20
508.3169188437658
 30
0.0
 10
622.0314991871201
 20
508.2696903248425
 30
0.0
 10
628.6587509315724
 20
508.2443171581775
 30
0.0
 10
635.305860743725
 20
508.2179895407837
 30
0.0
  0
SPLINE
  5
CC
330
1F
100
AcDbEntity
  8
0
  6
Continuous
 62
     7
370
    25
100
AcDbSpline
210
0.0
220
0.0
230
1.0
 70
     8
 71
     3
 72
     8
 73
     4
 74
     0
 42
0.000000001
 43
0.00000001
 40
0.0
 40
0.0
 40
0.0
 40
0.0
 40
1.0
 40
1.0
 40
1.0
 40
1.0
 10
540.0027195307687
 20
379.7784253178672
 30
0.0
 10
539.3231969730057
 20
378.0244135533218
 30
0.0
 10
538.5614023019328
 20
376.3029720194027
 30
0.0
 10
537.7201760331241
 20
374.6205194817851
 30
0.0
  0
SPLINE
  5
CD
330
1F
100
AcDbEntity
  8
0
  6
Continuous
 62
     7
370
    25
100
AcDbSpline
210
0.0
220
0.0
230
1.0
 70
     8
 71
     3
 72
     8
 73
     4
 74
     0
 42
0.000000001
 43
0.00000001
 40
0.0
 40
0.0
 40
0.0
 40
0.0
 40
1.0
 40
1.0
 40
1.0
 40
1.0
 10
462.3796346792137
 20
345.5051602541429
 30
0.0
 10
460.6256229146653
 20
346.1846828119071
 30
0.0
 10
458.9041813807499
 20
346.946477482972
 30
0.0
 10
457.2217288431291
 20
347.7877037517825
 30
0.0
  0
ARC
  5
CE
330
1F
100
AcDbEntity
  8
0
  6
Continuous
 62
     7
370
    25
100
AcDbCircle
 10
484.0545445731
 20
401.4533352118
 30
0.0
 40
60.00000000000273
100
AcDbArc
 50
270.0
 51
333.4349488229
  0
ARC
  5
CF
330
1F
100
AcDbEntity
  8
0
  6
Continuous
 62
     7
370
    25
100
AcDbCircle
 10
484.0545445731
 20
401.4533352118
 30
0.0
 40
60.00000000000005
100
AcDbArc
 50
248.823109616
 51
270.0
  0
SPLINE
  5
D0
330
1F
100
AcDbEntity
  8
0
  6
Continuous
 62
     7
370
    25
100
AcDbSpline
210
0.0
220
0.0
230
1.0
 70
     8
 71
     3
 72
     8
 73
     4
 74
     0
 42
0.000000001
 43
0.00000001
 40
0.0
 40
0.0
 40
0.0
 40
0.0
 40
1.0
 40
1.0
 40
1.0
 40
1.0
 10
505.7294544668749
 20
457.4015101694877
 30
0.0
 10
507.4834662314862
 20
456.7219876117052
 30
0.0
 10
509.204907765449
 20
455.9601929406164
 30
0.0
 10
510.8873603031265
 20
455.1189666717776
 30
0.0
  0
SPLINE
  5
D1
330
1F
100
AcDbEntity
  8
0
  6
Continuous
 62
     7
370
    25
100
AcDbSpline
210
0.0
220
0.0
230
1.0
 70
     8
 71
     3
 72
    36
 73
    32
 74
     0
 42
0.000000001
 43
0.00000001
 40
0.0
 40
0.0
 40
0.0
 40
0.0
 40
0.1249999999999995
 40
0.1249999999999995
 40
0.1874999999999991
 40
0.1874999999999991
 40
0.2187499999999991
 40
0.2187499999999991
 40
0.2499999999999992
 40
0.2499999999999992
 40
0.3749999999999994
 40
0.3749999999999994
 40
0.4374999999999997
 40
0.4374999999999997
 40
0.4687499999999998
 40
0.4687499999999998
 40
0.4999999999999999
 40
0.4999999999999999
 40
0.6249999999999997
 40
0.6249999999999997
 40
0.6874999999999996
 40
0.6874999999999996
 40
0.7499999999999993
 40
0.7499999999999993
 40
0.8749999999999991
 40
0.8749999999999991
 40
0.9062499999999992
 40
0.9062499999999992
 40
0.9374999999999993
 40
0.9374999999999993
 40
1.0
 40
1.0
 40
1.0
 40
1.0
 10
510.8873603031303
 20
455.118966671785
 30
0.0
 10
514.2188203059243
 20
453.453236670388
 30
0.0
 10
517.3441552599257
 20
451.506181304383
 30
0.0
 10
521.7358415891172
 20
448.1811775609098
 30
0.0
 10
523.1500235693039
 20
447.0049926231282
 30
0.0
 10
525.1954428169574
 20
445.1371878853529
 30
0.0
 10
525.8645870237777
 20
444.4973045608499
 30
0.0
 10
527.1770837427482
 20
443.1823366689604
 30
0.0
 10
527.8201424829256
 20
442.5073371239664
 30
0.0
 10
530.9373443135676
 20
439.0796720387843
 30
0.0
 10
533.1476171489504
 20
436.1431388470558
 30
0.0
 10
536.0482382657358
 20
431.4538998564113
 30
0.0
 10
536.9455406057886
 20
429.8431119243792
 30
0.0
 10
538.184399432403
 20
427.3534903019245
 30
0.0
 10
538.5804141882778
 20
426.5091096958258
 30
0.0
 10
539.3296712217483
 20
424.8097618704676
 30
0.0
 10
539.6832586946203
 20
423.9544065534967
 30
0.0
 10
541.3478604101787
 20
419.6497277598733
 30
0.0
 10
542.3514666941077
 20
416.1173994234067
 30
0.0
 10
543.3683778750268
 20
410.6870049064497
 30
0.0
 10
543.6255661481717
 20
408.8532550318178
 30
0.0
 10
543.9697276725112
 20
405.1460657739376
 30
0.0
 10
544.0544009591426
 20
403.2989197486515
 30
0.0
 10
544.0548312547545
 20
397.7761905827672
 30
0.0
 10
543.719082693452
 20
394.1191626026924
 30
0.0
 10
542.8750971847429
 20
389.5791809145251
 30
0.0
 10
542.6849169531788
 20
388.6727621459526
 30
0.0
 10
542.2609857180784
 20
386.8631391009046
 30
0.0
 10
542.0273237179761
 20
385.9607177742045
 30
0.0
 10
541.2655870897659
 20
383.2776954283541
 30
0.0
 10
540.6754880551592
 20
381.5150032917925
 30
0.0
 10
540.0027195307687
 20
379.7784253178672
 30
0.0
  0
SPLINE
  5
D2
330
1F
100
AcDbEntity
  8
0
  6
Continuous
 62
     7
370
    25
100
AcDbSpline
210
0.0
220
0.0
230
1.0
 70
     8
 71
     3
 72
    36
 73
    32
 74
     0
 42
0.000000001
 43
0.00000001
 40
0.0
 40
0.0
 40
0.0
 40
0.0
 40
0.1250000000000001
 40
0.1250000000000001
 40
0.1875
 40
0.1875
 40
0.21875
 40
0.21875
 40
0.2499999999999999
 40
0.2499999999999999
 40
0.3749999999999998
 40
0.3749999999999998
 40
0.4374999999999998
 40
0.4374999999999998
 40
0.4687499999999999
 40
0.4687499999999999
 40
0.5
 40
0.5
 40
0.625
 40
0.625
 40
0.6875
 40
0.6875
 40
0.75
 40
0.75
 40
0.875
 40
0.875
 40
0.9062499999999999
 40
0.9062499999999999
 40
0.9374999999999999
 40
0.9374999999999999
 40
1.0
 40
1.0
 40
1.0
 40
1.0
 10
457.2217288431278
 20
347.78770375178
 30
0.0
 10
453.8902688403318
 20
349.4534337531779
 30
0.0
 10
450.7649338863289
 20
351.4004891191839
 30
0.0
 10
446.3732475571338
 20
354.7254928626609
 30
0.0
 10
444.9590655769458
 20
355.901677800444
 30
0.0
 10
442.913646329291
 20
357.7694825382213
 30
0.0
 10
442.2445021224703
 20
358.4093658627249
 30
0.0
 10
440.9320054034992
 20
359.7243337546156
 30
0.0
 10
440.2889466633214
 20
360.3993332996106
 30
0.0
 10
437.1717448326771
 20
363.8269983847972
 30
0.0
 10
434.9614719972925
 20
366.7635315765303
 30
0.0
 10
432.060850880506
 20
371.4527705671818
 30
0.0
 10
431.1635485404531
 20
373.0635584992164
 30
0.0
 10
429.9246897138389
 20
375.5531801216742
 30
0.0
 10
429.5286749579643
 20
376.3975607277739
 30
0.0
 10
428.7794179244939
 20
378.0969085531351
 30
0.0
 10
428.425830451622
 20
378.9522638701074
 30
0.0
 10
426.7612287360644
 20
383.256942663738
 30
0.0
 10
425.7576224521375
 20
386.7892710002096
 30
0.0
 10
424.7407112712225
 20
392.2196655171724
 30
0.0
 10
424.4835229980794
 20
394.0534153918038
 30
0.0
 10
424.1393614737431
 20
397.7606046496911
 30
0.0
 10
424.0546881871134
 20
399.6077506749802
 30
0.0
 10
424.0542578915079
 20
405.1304798408725
 30
0.0
 10
424.3900064528157
 20
408.787507820951
 30
0.0
 10
425.2339919615314
 20
413.3274895091205
 30
0.0
 10
425.424172193097
 20
414.2339082776932
 30
0.0
 10
425.8481034282001
 20
416.0435313227416
 30
0.0
 10
426.0817654283042
 20
416.9459526494429
 30
0.0
 10
426.8435020565191
 20
419.6289749952957
 30
0.0
 10
427.4336010911351
 20
421.3916671318563
 30
0.0
 10
428.1063696155291
 20
423.1282451057825
 30
0.0
  0
SPLINE
  5
D3
330
1F
100
AcDbEntity
  8
0
  6
Continuous
 62
     7
370
    25
100
AcDbSpline
210
0.0
220
0.0
230
1.0
 70
     8
 71
     3
 72
     8
 73
     4
 74
     0
 42
0.000000001
 43
0.00000001
 40
0.0
 40
0.0
 40
0.0
 40
0.0
 40
1.0
 40
1.0
 40
1.0
 40
1.0
 10
428.1063696155321
 20
423.1282451057813
 30
0.0
 10
428.7858921732889
 20
424.8822568703026
 30
0.0
 10
429.5476868443314
 20
426.6036984041871
 30
0.0
 10
430.3889131131291
 20
428.2861509417825
 30
0.0
  0
SPLINE
  5
D4
330
1F
100
AcDbEntity
  8
0
  6
Continuous
 62
     7
370
    25
100
AcDbSpline
210
0.0
220
0.0
230
1.0
 70
     8
 71
     3
 72
    32
 73
    28
 74
     0
 42
0.000000001
 43
0.00000001
 40
0.0
 40
0.0
 40
0.0
 40
0.0
 40
0.1249999999999996
 40
0.1249999999999996
 40
0.2499999999999991
 40
0.2499999999999991
 40
0.281249999999999
 40
0.281249999999999
 40
0.3124999999999989
 40
0.3124999999999989
 40
0.3749999999999987
 40
0.3749999999999987
 40
0.4999999999999979
 40
0.4999999999999979
 40
0.5624999999999974
 40
0.5624999999999974
 40
0.5937499999999976
 40
0.5937499999999976
 40
0.6249999999999977
 40
0.6249999999999977
 40
0.7499999999999984
 40
0.7499999999999984
 40
0.8749999999999993
 40
0.8749999999999993
 40
0.9374999999999997
 40
0.9374999999999997
 40
1.0
 40
1.0
 40
1.0
 40
1.0
 10
430.3889131131265
 20
428.2861509417837
 30
0.0
 10
431.6376793918716
 20
430.783683499274
 30
0.0
 10
433.0451473477268
 20
433.1649364920566
 30
0.0
 10
436.1645785819518
 20
437.704340969166
 30
0.0
 10
437.876579392437
 20
439.8624649539852
 30
0.0
 10
440.2100118095015
 20
442.4183941520012
 30
0.0
 10
440.6864131452206
 20
442.922461989968
 30
0.0
 10
441.6589010884188
 20
443.9161744104384
 30
0.0
 10
442.1559190548309
 20
444.4066952197508
 30
0.0
 10
443.6698336241153
 20
445.8494943559187
 30
0.0
 10
444.7069136560532
 20
446.7708153142277
 30
0.0
 10
447.8994008355689
 20
449.4162982958552
 30
0.0
 10
450.13568082008
 20
451.0225261773671
 30
0.0
 10
453.6505658985692
 20
453.1978671313682
 30
0.0
 10
454.8490329738615
 20
453.8838427848945
 30
0.0
 10
456.6876784125509
 20
454.8530978010139
 30
0.0
 10
457.3073905317726
 20
455.1662224000837
 30
0.0
 10
458.5606675645537
 20
455.7722705335177
 30
0.0
 10
459.1952562975513
 20
456.065609082365
 30
0.0
 10
462.3799067702529
 20
457.4708754135336
 30
0.0
 10
464.9785008036725
 20
458.4066782269164
 30
0.0
 10
470.2739916065733
 20
459.914220309681
 30
0.0
 10
472.970893813292
 20
460.4859394422887
 30
0.0
 10
477.0916957161669
 20
461.0640947682207
 30
0.0
 10
478.4814532513989
 20
461.2102301054237
 30
0.0
 10
481.2645329843555
 20
461.4046627162217
 30
0.0
 10
482.6583814294876
 20
461.4533352117825
 30
0.0
 10
484.0545445731292
 20
461.4533352117825
 30
0.0
  0
SPLINE
  5
D5
330
1F
100
AcDbEntity
  8
0
  6
Continuous
 62
     7
370
    25
100
AcDbSpline
210
0.0
220
0.0
230
1.0
 70
     8
 71
     3
 72
    12
 73
     8
 74
     0
 42
0.000000001
 43
0.00000001
 40
0.0
 40
0.0
 40
0.0
 40
0.0
 40
0.5
 40
0.5
 40
0.75
 40
0.75
 40
1.0
 40
1.0
 40
1.0
 40
1.0
 10
484.0545445731291
 20
461.4533352117825
 30
0.0
 10
487.7570035060787
 20
461.4533352117825
 30
0.0
 10
491.4299897921196
 20
461.1132655010269
 30
0.0
 10
496.8885550155536
 20
460.0938868338274
 30
0.0
 10
498.6890164571872
 20
459.6706751979493
 30
0.0
 10
502.2499057760267
 20
458.6578391698303
 30
0.0
 10
504.0032392989218
 20
458.0702640341291
 30
0.0
 10
505.7294544668749
 20
457.4015101694877
 30
0.0
  0
SPLINE
  5
D6
330
1F
100
AcDbEntity
  8
0
  6
Continuous
 62
     8
370
    25
100
AcDbSpline
210
0.0
220
0.0
230
1.0
 70
     8
 71
     3
 72
    12
 73
     8
 74
     0
 42
0.000000001
 43
0.00000001
 40
0.0
 40
0.0
 40
0.0
 40
0.0
 40
0.2635996031709393
 40
0.4531115894023203
 40
0.6509878401780441
 40
0.8488675558733606
 40
1.0
 40
1.0
 40
1.0
 40
1.0
 10
517.011506115497
 20
386.2119712691593
 30
0.0
 10
517.1309940618389
 20
386.1567123210181
 30
0.0
 10
517.3363865306823
 20
386.0617255702044
 30
0.0
 10
517.5833300130507
 20
385.9475301194711
 30
0.0
 10
517.7507340163638
 20
385.8701094642682
 30
0.0
 10
517.8504558243624
 20
385.8239939369502
 30
0.0
 10
517.8558737688685
 20
385.8214849987299
 30
0.0
 10
517.8582198968538
 20
385.8203985553074
 30
0.0
  0
SPLINE
  5
D7
330
1F
100
AcDbEntity
  8
0
  6
Continuous
 62
     8
370
    25
100
AcDbSpline
210
0.0
220
0.0
230
1.0
 70
     8
 71
     3
 72
    12
 73
     8
 74
     0
 42
0.000000001
 43
0.00000001
 40
0.0
 40
0.0
 40
0.0
 40
0.0
 40
0.1511321151545382
 40
0.3490114001223146
 40
0.5468872201780407
 40
0.7363987938960354
 40
1.0
 40
1.0
 40
1.0
 40
1.0
 10
450.2508990517267
 20
417.0861192803669
 30
0.0
 10
450.2532451801657
 20
417.0850328378987
 30
0.0
 10
450.2586631257197
 20
417.0825239018818
 30
0.0
 10
450.3583849239853
 20
417.036408354096
 30
0.0
 10
450.5257889655744
 20
416.9589877793852
 30
0.0
 10
450.7727331191951
 20
416.8447916220002
 30
0.0
 10
450.9781272389348
 20
416.7498053986499
 30
0.0
 10
451.0976165583738
 20
416.694546566515
 30
0.0
  0
LINE
  5
D8
330
1F
100
AcDbEntity
  8
0
  6
Continuous
 62
     8
370
    25
100
AcDbLine
 10
497.9646630636
 20
459.753053711
 30
0.0
 11
498.8045595637
 21
459.753053711
 31
0.0
  0
ENDSEC
  0
SECTION
  2
OBJECTS
  0
DICTIONARY
  5
C
330
0
100
AcDbDictionary
281
     1
  3
ACAD_GROUP
350
D
  3
ACAD_LAYOUT
350
1A
  3
ACAD_MLINESTYLE
350
17
  3
ACAD_PLOTSETTINGS
350
19
  3
ACAD_PLOTSTYLENAME
350
E
  3
ACAD_SCALELIST
350
47
  0
DICTIONARY
  5
D
102
{ACAD_REACTORS
330
C
102
}
330
C
100
AcDbDictionary
281
     1
  0
DICTIONARY
  5
1A
102
{ACAD_REACTORS
330
C
102
}
330
C
100
AcDbDictionary
281
     1
  3
Layout1
350
1E
  3
Layout2
350
26
  3
Model
350
22
  0
DICTIONARY
  5
17
102
{ACAD_REACTORS
330
C
102
}
330
C
100
AcDbDictionary
281
     1
  3
Standard
350
18
  0
DICTIONARY
  5
19
102
{ACAD_REACTORS
330
C
102
}
330
C
100
AcDbDictionary
281
     1
  0
ACDBDICTIONARYWDFLT
  5
E
102
{ACAD_REACTORS
330
C
102
}
330
C
100
AcDbDictionary
281
     1
  3
Normal
350
F
100
AcDbDictionaryWithDefault
340
F
  0
DICTIONARY
  5
47
102
{ACAD_REACTORS
330
C
102
}
330
C
100
AcDbDictionary
281
     1
  3
A0
350
48
  3
A1
350
49
  3
A2
350
4A
  3
A3
350
4B
  3
A4
350
4C
  3
A5
350
4D
  3
A6
350
4E
  3
A7
350
4F
  3
A8
350
50
  3
A9
350
51
  3
B0
350
52
  3
B1
350
53
  3
B2
350
54
  3
B3
350
55
  3
B4
350
56
  3
B5
350
57
  3
B6
350
58
  3
B7
350
59
  3
B8
350
5A
  3
B9
350
5B
  3
C0
350
5C
  3
C1
350
5D
  3
C2
350
5E
  3
C3
350
5F
  3
C4
350
60
  3
C5
350
61
  3
C6
350
62
  3
C7
350
63
  3
C8
350
64
  3
C9
350
65
  3
D0
350
66
  3
D1
350
67
  3
D2
350
68
  0
LAYOUT
  5
1E
102
{ACAD_REACTORS
330
1A
102
}
330
1A
100
AcDbPlotSettings
  1

  2
none_device
  4

  6

 40
0.0
 41
0.0
 42
0.0
 43
0.0
 44
0.0
 45
0.0
 46
0.0
 47
0.0
 48
0.0
 49
0.0
140
0.0
141
0.0
142
1.0
143
1.0
 70
   688
 72
     1
 73
     0
 74
     5
  7

 75
    16
147
1.0
148
0.0
149
0.0
100
AcDbLayout
  1
Layout1
 70
     1
 71
     1
 10
0.0
 20
0.0
 11
420.0
 21
297.0
 12
0.0
 22
0.0
 32
0.0
 14
1.0000000000E+20
 24
1.0000000000E+20
 34
1.0000000000E+20
 15
-1.0000000000E+20
 25
-1.0000000000E+20
 35
-1.0000000000E+20
146
0.0
 13
0.0
 23
0.0
 33
0.0
 16
1.0
 26
0.0
 36
0.0
 17
0.0
 27
1.0
 37
0.0
 76
     0
330
1B
  0
LAYOUT
  5
26
102
{ACAD_REACTORS
330
1A
102
}
330
1A
100
AcDbPlotSettings
  1

  2
none_device
  4

  6

 40
0.0
 41
0.0
 42
0.0
 43
0.0
 44
0.0
 45
0.0
 46
0.0
 47
0.0
 48
0.0
 49
0.0
140
0.0
141
0.0
142
1.0
143
1.0
 70
   688
 72
     1
 73
     0
 74
     5
  7

 75
    16
147
1.0
148
0.0
149
0.0
100
AcDbLayout
  1
Layout2
 70
     1
 71
     2
 10
0.0
 20
0.0
 11
0.0
 21
0.0
 12
0.0
 22
0.0
 32
0.0
 14
0.0
 24
0.0
 34
0.0
 15
0.0
 25
0.0
 35
0.0
146
0.0
 13
0.0
 23
0.0
 33
0.0
 16
1.0
 26
0.0
 36
0.0
 17
0.0
 27
1.0
 37
0.0
 76
     0
330
23
  0
LAYOUT
  5
22
102
{ACAD_REACTORS
330
1A
102
}
330
1A
100
AcDbPlotSettings
  1

  2
none_device
  4
Letter_(8.50_x_11.00_Inches)
  6

 40
6.35
 41
6.35
 42
6.35000508
 43
6.35000508
 44
215.9
 45
279.4
 46
0.0
 47
0.0
 48
0.0
 49
0.0
140
0.0
141
0.0
142
1.0
143
1.0
 70
  1712
 72
     1
 73
     0
 74
     0
  7

 75
     0
147
1.0
148
0.0
149
0.0
100
AcDbLayout
  1
Model
 70
     1
 71
     0
 10
0.0
 20
0.0
 11
1000.0
 21
700.0
 12
0.0
 22
0.0
 32
0.0
 14
0.0
 24
0.0
 34
0.0
 15
1000.0
 25
700.0
 35
0.0
146
0.0
 13
0.0
 23
0.0
 33
0.0
 16
1.0
 26
0.0
 36
0.0
 17
0.0
 27
1.0
 37
0.0
 76
     0
330
1F
331
29
  0
MLINESTYLE
  5
18
102
{ACAD_REACTORS
330
17
102
}
330
17
100
AcDbMlineStyle
  2
Standard
 70
     0
  3

 62
   256
 51
90.0
 52
90.0
 71
     2
 49
0.5
 62
   256
  6
BYLAYER
 49
-0.5
 62
   256
  6
BYLAYER
  0
ACDBPLACEHOLDER
  5
F
102
{ACAD_REACTORS
330
E
102
}
330
E
  0
SCALE
  5
48
102
{ACAD_REACTORS
330
47
102
}
330
47
100
AcDbScale
 70
     0
300
1:1
140
1.0
141
1.0
290
     1
  0
SCALE
  5
49
102
{ACAD_REACTORS
330
47
102
}
330
47
100
AcDbScale
 70
     0
300
1:2
140
1.0
141
2.0
290
     0
  0
SCALE
  5
4A
102
{ACAD_REACTORS
330
47
102
}
330
47
100
AcDbScale
 70
     0
300
1:4
140
1.0
141
4.0
290
     0
  0
SCALE
  5
4B
102
{ACAD_REACTORS
330
47
102
}
330
47
100
AcDbScale
 70
     0
300
1:5
140
1.0
141
5.0
290
     0
  0
SCALE
  5
4C
102
{ACAD_REACTORS
330
47
102
}
330
47
100
AcDbScale
 70
     0
300
1:8
140
1.0
141
8.0
290
     0
  0
SCALE
  5
4D
102
{ACAD_REACTORS
330
47
102
}
330
47
100
AcDbScale
 70
     0
300
1:10
140
1.0
141
10.0
290
     0
  0
SCALE
  5
4E
102
{ACAD_REACTORS
330
47
102
}
330
47
100
AcDbScale
 70
     0
300
1:16
140
1.0
141
16.0
290
     0
  0
SCALE
  5
4F
102
{ACAD_REACTORS
330
47
102
}
330
47
100
AcDbScale
 70
     0
300
1:20
140
1.0
141
20.0
290
     0
  0
SCALE
  5
50
102
{ACAD_REACTORS
330
47
102
}
330
47
100
AcDbScale
 70
     0
300
1:30
140
1.0
141
30.0
290
     0
  0
SCALE
  5
51
102
{ACAD_REACTORS
330
47
102
}
330
47
100
AcDbScale
 70
     0
300
1:40
140
1.0
141
40.0
290
     0
  0
SCALE
  5
52
102
{ACAD_REACTORS
330
47
102
}
330
47
100
AcDbScale
 70
     0
300
1:50
140
1.0
141
50.0
290
     0
  0
SCALE
  5
53
102
{ACAD_REACTORS
330
47
102
}
330
47
100
AcDbScale
 70
     0
300
1:100
140
1.0
141
100.0
290
     0
  0
SCALE
  5
54
102
{ACAD_REACTORS
330
47
102
}
330
47
100
AcDbScale
 70
     0
300
2:1
140
2.0
141
1.0
290
     0
  0
SCALE
  5
55
102
{ACAD_REACTORS
330
47
102
}
330
47
100
AcDbScale
 70
     0
300
4:1
140
4.0
141
1.0
290
     0
  0
SCALE
  5
56
102
{ACAD_REACTORS
330
47
102
}
330
47
100
AcDbScale
 70
     0
300
8:1
140
8.0
141
1.0
290
     0
  0
SCALE
  5
57
102
{ACAD_REACTORS
330
47
102
}
330
47
100
AcDbScale
 70
     0
300
10:1
140
10.0
141
1.0
290
     0
  0
SCALE
  5
58
102
{ACAD_REACTORS
330
47
102
}
330
47
100
AcDbScale
 70
     0
300
100:1
140
100.0
141
1.0
290
     0
  0
SCALE
  5
59
102
{ACAD_REACTORS
330
47
102
}
330
47
100
AcDbScale
 70
     0
300
1/128" = 1'-0"
140
0.0078125
141
12.0
290
     0
  0
SCALE
  5
5A
102
{ACAD_REACTORS
330
47
102
}
330
47
100
AcDbScale
 70
     0
300
1/64" = 1'-0"
140
0.015625
141
12.0
290
     0
  0
SCALE
  5
5B
102
{ACAD_REACTORS
330
47
102
}
330
47
100
AcDbScale
 70
     0
300
1/32" = 1'-0"
140
0.03125
141
12.0
290
     0
  0
SCALE
  5
5C
102
{ACAD_REACTORS
330
47
102
}
330
47
100
AcDbScale
 70
     0
300
1/16" = 1'-0"
140
0.0625
141
12.0
290
     0
  0
SCALE
  5
5D
102
{ACAD_REACTORS
330
47
102
}
330
47
100
AcDbScale
 70
     0
300
3/32" = 1'-0"
140
0.09375
141
12.0
290
     0
  0
SCALE
  5
5E
102
{ACAD_REACTORS
330
47
102
}
330
47
100
AcDbScale
 70
     0
300
1/8" = 1'-0"
140
0.125
141
12.0
290
     0
  0
SCALE
  5
5F
102
{ACAD_REACTORS
330
47
102
}
330
47
100
AcDbScale
 70
     0
300
3/16" = 1'-0"
140
0.1875
141
12.0
290
     0
  0
SCALE
  5
60
102
{ACAD_REACTORS
330
47
102
}
330
47
100
AcDbScale
 70
     0
300
1/4" = 1'-0"
140
0.25
141
12.0
290
     0
  0
SCALE
  5
61
102
{ACAD_REACTORS
330
47
102
}
330
47
100
AcDbScale
 70
     0
300
3/8" = 1'-0"
140
0.375
141
12.0
290
     0
  0
SCALE
  5
62
102
{ACAD_REACTORS
330
47
102
}
330
47
100
AcDbScale
 70
     0
300
1/2" = 1'-0"
140
0.5
141
12.0
290
     0
  0
SCALE
  5
63
102
{ACAD_REACTORS
330
47
102
}
330
47
100
AcDbScale
 70
     0
300
3/4" = 1'-0"
140
0.75
141
12.0
290
     0
  0
SCALE
  5
64
102
{ACAD_REACTORS
330
47
102
}
330
47
100
AcDbScale
 70
     0
300
1" = 1'-0"
140
1.0
141
12.0
290
     0
  0
SCALE
  5
65
102
{ACAD_REACTORS
330
47
102
}
330
47
100
AcDbScale
 70
     0
300
1-1/2" = 1'-0"
140
1.5
141
12.0
290
     0
  0
SCALE
  5
66
102
{ACAD_REACTORS
330
47
102
}
330
47
100
AcDbScale
 70
     0
300
3" = 1'-0"
140
3.0
141
12.0
290
     0
  0
SCALE
  5
67
102
{ACAD_REACTORS
330
47
102
}
330
47
100
AcDbScale
 70
     0
300
6" = 1'-0"
140
6.0
141
12.0
290
     0
  0
SCALE
  5
68
102
{ACAD_REACTORS
330
47
102
}
330
47
100
AcDbScale
 70
     0
300
1'-0" = 1'-0"
140
12.0
141
12.0
290
     0
  0
ENDSEC
  0
EOF
