  0
SECTION
  2
HEADER
  9
$ACADVER
  1
AC1015
  9
$ACADMAINTVER
 70
     6
  9
$DWGCODEPAGE
  3
ANSI_1252
  9
$INSBASE
 10
0.0
 20
0.0
 30
0.0
  9
$EXTMIN
 10
0.0
 20
0.0
 30
0.0
  9
$EXTMAX
 10
1100.0
 20
700.0
 30
0.0
  9
$LIMMIN
 10
0.0
 20
0.0
  9
$LIMMAX
 10
1100.0
 20
700.0
  9
$ORTHOMODE
 70
     0
  9
$REGENMODE
 70
     1
  9
$FILLMODE
 70
     1
  9
$QTEXTMODE
 70
     0
  9
$MIRRTEXT
 70
     1
  9
$LTSCALE
 40
1.0
  9
$ATTMODE
 70
     1
  9
$TEXTSIZE
 40
3.5
  9
$TRACEWID
 40
1.0
  9
$TEXTSTYLE
  7
Standard
  9
$CLAYER
  8
0
  9
$CELTYPE
  6
ByLayer
  9
$CECOLOR
 62
   256
  9
$CELTSCALE
 40
1.0
  9
$DISPSILH
 70
     0
  9
$DIMSCALE
 40
1.0
  9
$DIMASZ
 40
3.302
  9
$DIMEXO
 40
1.0
  9
$DIMDLI
 40
3.75
  9
$DIMRND
 40
0.0
  9
$DIMDLE
 40
0.0
  9
$DIMEXE
 40
1.0
  9
$DIMTP
 40
0.0
  9
$DIMTM
 40
0.0
  9
$DIMTXT
 40
3.5
  9
$DIMCEN
 40
2.5
  9
$DIMTSZ
 40
0.0
  9
$DIMTOL
 70
     0
  9
$DIMLIM
 70
     0
  9
$DIMTIH
 70
     1
  9
$DIMTOH
 70
     1
  9
$DIMSE1
 70
     0
  9
$DIMSE2
 70
     0
  9
$DIMTAD
 70
     1
  9
$DIMZIN
 70
     1
  9
$DIMBLK
  1

  9
$DIMASO
 70
     1
  9
$DIMSHO
 70
     1
  9
$DIMPOST
  1

  9
$DIMAPOST
  1

  9
$DIMALT
 70
     0
  9
$DIMALTD
 70
     3
  9
$DIMALTF
 40
0.0393700787
  9
$DIMLFAC
 40
1.0
  9
$DIMTOFL
 70
     1
  9
$DIMTVP
 40
0.0
  9
$DIMTIX
 70
     0
  9
$DIMSOXD
 70
     0
  9
$DIMSAH
 70
     0
  9
$DIMBLK1
  1

  9
$DIMBLK2
  1

  9
$DIMSTYLE
  2
ISO-25
  9
$DIMCLRD
 70
     0
  9
$DIMCLRE
 70
     0
  9
$DIMCLRT
 70
     0
  9
$DIMTFAC
 40
1.0
  9
$DIMGAP
 40
1.524
  9
$DIMJUST
 70
     0
  9
$DIMSD1
 70
     0
  9
$DIMSD2
 70
     0
  9
$DIMTOLJ
 70
     0
  9
$DIMTZIN
 70
     1
  9
$DIMALTZ
 70
     0
  9
$DIMALTTZ
 70
     0
  9
$DIMUPT
 70
     0
  9
$DIMDEC
 70
     2
  9
$DIMTDEC
 70
     2
  9
$DIMALTU
 70
     2
  9
$DIMALTTD
 70
     3
  9
$DIMTXSTY
  7
Standard
  9
$DIMAUNIT
 70
     0
  9
$DIMADEC
 70
     2
  9
$DIMALTRND
 40
0.0
  9
$DIMAZIN
 70
     0
  9
$DIMDSEP
 70
    44
  9
$DIMATFIT
 70
     3
  9
$DIMFRAC
 70
     0
  9
$DIMLDRBLK
  1

  9
$DIMLUNIT
 70
     2
  9
$DIMLWD
 70
    -2
  9
$DIMLWE
 70
    -2
  9
$DIMTMOVE
 70
     0
  9
$LUNITS
 70
     2
  9
$LUPREC
 70
     4
  9
$SKETCHINC
 40
1.0
  9
$FILLETRAD
 40
0.0
  9
$AUNITS
 70
     0
  9
$AUPREC
 70
     2
  9
$MENU
  1
.
  9
$ELEVATION
 40
0.0
  9
$PELEVATION
 40
0.0
  9
$THICKNESS
 40
0.0
  9
$LIMCHECK
 70
     0
  9
$CHAMFERA
 40
0.0
  9
$CHAMFERB
 40
0.0
  9
$CHAMFERC
 40
0.0
  9
$CHAMFERD
 40
0.0
  9
$SKPOLY
 70
     0
  9
$TDCREATE
 40
2460832.43700426
  9
$TDUCREATE
 40
2460832.31200426
  9
$TDUPDATE
 40
2460832.437004989
  9
$TDUUPDATE
 40
2460832.312004989
  9
$TDINDWG
 40
0.0000000116
  9
$TDUSRTIMER
 40
0.0000000116
  9
$USRTIMER
 70
     1
  9
$ANGBASE
 50
0.0
  9
$ANGDIR
 70
     0
  9
$PDMODE
 70
     0
  9
$PDSIZE
 40
-1.0
  9
$PLINEWID
 40
0.0
  9
$SPLFRAME
 70
     0
  9
$SPLINETYPE
 70
     6
  9
$SPLINESEGS
 70
     8
  9
$HANDSEED
  5
2A2
  9
$SURFTAB1
 70
     6
  9
$SURFTAB2
 70
     6
  9
$SURFTYPE
 70
     6
  9
$SURFU
 70
     6
  9
$SURFV
 70
     6
  9
$UCSBASE
  2

  9
$UCSNAME
  2

  9
$UCSORG
 10
0.0
 20
0.0
 30
0.0
  9
$UCSXDIR
 10
1.0
 20
0.0
 30
0.0
  9
$UCSYDIR
 10
0.0
 20
1.0
 30
0.0
  9
$UCSORTHOREF
  2

  9
$UCSORTHOVIEW
 70
     0
  9
$UCSORGTOP
 10
0.0
 20
0.0
 30
0.0
  9
$UCSORGBOTTOM
 10
0.0
 20
0.0
 30
0.0
  9
$UCSORGLEFT
 10
0.0
 20
0.0
 30
0.0
  9
$UCSORGRIGHT
 10
0.0
 20
0.0
 30
0.0
  9
$UCSORGFRONT
 10
0.0
 20
0.0
 30
0.0
  9
$UCSORGBACK
 10
0.0
 20
0.0
 30
0.0
  9
$PUCSBASE
  2

  9
$PUCSNAME
  2

  9
$PUCSORG
 10
0.0
 20
0.0
 30
0.0
  9
$PUCSXDIR
 10
1.0
 20
0.0
 30
0.0
  9
$PUCSYDIR
 10
0.0
 20
1.0
 30
0.0
  9
$PUCSORTHOREF
  2

  9
$PUCSORTHOVIEW
 70
     0
  9
$PUCSORGTOP
 10
0.0
 20
0.0
 30
0.0
  9
$PUCSORGBOTTOM
 10
0.0
 20
0.0
 30
0.0
  9
$PUCSORGLEFT
 10
0.0
 20
0.0
 30
0.0
  9
$PUCSORGRIGHT
 10
0.0
 20
0.0
 30
0.0
  9
$PUCSORGFRONT
 10
0.0
 20
0.0
 30
0.0
  9
$PUCSORGBACK
 10
0.0
 20
0.0
 30
0.0
  9
$USERI1
 70
     0
  9
$USERI2
 70
     0
  9
$USERI3
 70
     0
  9
$USERI4
 70
     0
  9
$USERI5
 70
     0
  9
$USERR1
 40
0.0
  9
$USERR2
 40
0.0
  9
$USERR3
 40
0.0
  9
$USERR4
 40
0.0
  9
$USERR5
 40
0.0
  9
$WORLDVIEW
 70
     1
  9
$SHADEDGE
 70
     3
  9
$SHADEDIF
 70
    70
  9
$TILEMODE
 70
     1
  9
$MAXACTVP
 70
    64
  9
$PINSBASE
 10
0.0
 20
0.0
 30
0.0
  9
$PLIMCHECK
 70
     0
  9
$PEXTMIN
 10
1.0000000000E+20
 20
1.0000000000E+20
 30
1.0000000000E+20
  9
$PEXTMAX
 10
-1.0000000000E+20
 20
-1.0000000000E+20
 30
-1.0000000000E+20
  9
$PLIMMIN
 10
0.0
 20
0.0
  9
$PLIMMAX
 10
420.0
 20
297.0
  9
$UNITMODE
 70
     0
  9
$VISRETAIN
 70
     1
  9
$PLINEGEN
 70
     0
  9
$PSLTSCALE
 70
     1
  9
$TREEDEPTH
 70
  3020
  9
$CMLSTYLE
  2
Standard
  9
$CMLJUST
 70
     0
  9
$CMLSCALE
 40
20.0
  9
$PROXYGRAPHICS
 70
     1
  9
$MEASUREMENT
 70
     1
  9
$CELWEIGHT
370
    -1
  9
$ENDCAPS
280
     0
  9
$JOINSTYLE
280
     0
  9
$LWDISPLAY
290
     1
  9
$INSUNITS
 70
     4
  9
$HYPERLINKBASE
  1

  9
$STYLESHEET
  1

  9
$XEDIT
290
     1
  9
$CEPSNTYPE
380
     0
  9
$PSTYLEMODE
290
     1
  9
$FINGERPRINTGUID
  2
{1cabb247-548f-4809-b9f1-1a95aa3f24a2}
  9
$VERSIONGUID
  2
{FAEB1C32-E019-11D5-929B-00C0DF256EC4}
  9
$EXTNAMES
290
     1
  9
$PSVPSCALE
 40
0.0
  9
$OLESTARTUP
290
     0
  0
ENDSEC
  0
SECTION
  2
CLASSES
  0
CLASS
  1
ACDBDICTIONARYWDFLT
  2
AcDbDictionaryWithDefault
  3
ObjectDBX Classes
 90
        0
280
     0
281
     0
  0
CLASS
  1
VISUALSTYLE
  2
AcDbVisualStyle
  3
ObjectDBX Classes
 90
     4095
280
     0
281
     0
  0
CLASS
  1
MATERIAL
  2
AcDbMaterial
  3
ObjectDBX Classes
 90
     1153
280
     0
281
     0
  0
CLASS
  1
SCALE
  2
AcDbScale
  3
ObjectDBX Classes
 90
     1153
280
     0
281
     0
  0
CLASS
  1
TABLESTYLE
  2
AcDbTableStyle
  3
ObjectDBX Classes
 90
     4095
280
     0
281
     0
  0
CLASS
  1
MLEADERSTYLE
  2
AcDbMLeaderStyle
  3
ACDB_MLEADERSTYLE_CLASS
 90
     4095
280
     0
281
     0
  0
CLASS
  1
SUN
  2
AcDbSun
  3
SCENEOE
 90
     1153
280
     0
281
     0
  0
CLASS
  1
ACDBPLACEHOLDER
  2
AcDbPlaceHolder
  3
ObjectDBX Classes
 90
        0
280
     0
281
     0
  0
CLASS
  1
LAYOUT
  2
AcDbLayout
  3
ObjectDBX Classes
 90
        0
280
     0
281
     0
  0
ENDSEC
  0
SECTION
  2
TABLES
  0
TABLE
  2
VPORT
  5
8
330
0
100
AcDbSymbolTable
 70
     1
  0
VPORT
  5
29
330
8
100
AcDbSymbolTableRecord
100
AcDbViewportTableRecord
  2
*Active
 70
     0
 10
0.0
 20
0.0
 11
1.0
 21
1.0
 12
550.0
 22
350.0
 13
0.0
 23
0.0
 14
10.0
 24
10.0
 15
10.0
 25
10.0
 16
0.0
 26
0.0
 36
1.0
 17
0.0
 27
0.0
 37
0.0
 40
700.0
 41
1.5714285714
 42
50.0
 43
0.0
 44
0.0
 50
0.0
 51
0.0
 71
     0
 72
  2000
 73
     1
 74
     3
 75
     0
 76
     0
 77
     0
 78
     0
281
     0
 65
     1
110
0.0
120
0.0
130
0.0
111
1.0
121
0.0
131
0.0
112
0.0
122
1.0
132
0.0
 79
     0
146
0.0
  0
ENDTAB
  0
TABLE
  2
LTYPE
  5
5
330
0
100
AcDbSymbolTable
 70
     6
  0
LTYPE
  5
14
330
5
100
AcDbSymbolTableRecord
100
AcDbLinetypeTableRecord
  2
ByBlock
 70
     0
  3

 72
    65
 73
     0
 40
0.0
  0
LTYPE
  5
15
330
5
100
AcDbSymbolTableRecord
100
AcDbLinetypeTableRecord
  2
ByLayer
 70
     0
  3

 72
    65
 73
     0
 40
0.0
  0
LTYPE
  5
16
330
5
100
AcDbSymbolTableRecord
100
AcDbLinetypeTableRecord
  2
Continuous
 70
     0
  3
Solid line
 72
    65
 73
     0
 40
0.0
  0
LTYPE
  5
5E
330
5
100
AcDbSymbolTableRecord
100
AcDbLinetypeTableRecord
  2
HIDDEN
 70
     0
  3
Hidden __ __ __ __ __ __ __ __ __ __ __ __ __ __
 72
    65
 73
     2
 40
1.905
 49
1.27
 74
     0
 49
-0.635
 74
     0
  0
LTYPE
  5
5F
330
5
100
AcDbSymbolTableRecord
100
AcDbLinetypeTableRecord
  2
PHANTOM
 70
     0
  3
Phantom ______  __  __  ______  __  __  ______
 72
    65
 73
     6
 40
12.7
 49
6.35
 74
     0
 49
-1.27
 74
     0
 49
1.27
 74
     0
 49
-1.27
 74
     0
 49
1.27
 74
     0
 49
-1.27
 74
     0
  0
LTYPE
  5
60
330
5
100
AcDbSymbolTableRecord
100
AcDbLinetypeTableRecord
  2
CENTER
 70
     0
  3
Center ____ _ ____ _ ____ _ ____ _ ____ _ ____
 72
    65
 73
     4
 40
10.16
 49
6.35
 74
     0
 49
-1.27
 74
     0
 49
1.27
 74
     0
 49
-1.27
 74
     0
  0
LTYPE
  5
61
330
5
100
AcDbSymbolTableRecord
100
AcDbLinetypeTableRecord
  2
CENTERX2
 70
     0
  3
Center (2x) ________  __  ________  __  _____
 72
    65
 73
     4
 40
20.32
 49
12.7
 74
     0
 49
-2.54
 74
     0
 49
2.54
 74
     0
 49
-2.54
 74
     0
  0
LTYPE
  5
62
330
5
100
AcDbSymbolTableRecord
100
AcDbLinetypeTableRecord
  2
DOT2
 70
     0
  3
Dot (.5x) ........................................
 72
    65
 73
     2
 40
0.635
 49
0.0
 74
     0
 49
-0.635
 74
     0
  0
ENDTAB
  0
TABLE
  2
LAYER
  5
2
330
0
100
AcDbSymbolTable
 70
     2
  0
LAYER
  5
10
330
2
100
AcDbSymbolTableRecord
100
AcDbLayerTableRecord
  2
0
 70
     0
 62
     7
  6
Continuous
370
    -3
390
F
  0
LAYER
  5
63
330
2
100
AcDbSymbolTableRecord
100
AcDbLayerTableRecord
  2
TABLE_BL1
 70
     0
 62
   179
  6
Continuous
370
    -3
390
F
  0
ENDTAB
  0
TABLE
  2
STYLE
  5
3
330
0
100
AcDbSymbolTable
 70
     1
  0
STYLE
  5
11
330
3
100
AcDbSymbolTableRecord
100
AcDbTextStyleTableRecord
  2
Standard
 70
     0
 40
0.0
 41
1.0
 50
0.0
 71
     0
 42
3.5
  3
txt
  4

  0
ENDTAB
  0
TABLE
  2
VIEW
  5
6
330
0
100
AcDbSymbolTable
 70
     0
  0
ENDTAB
  0
TABLE
  2
UCS
  5
7
330
0
100
AcDbSymbolTable
 70
     0
  0
ENDTAB
  0
TABLE
  2
APPID
  5
9
330
0
100
AcDbSymbolTable
 70
     1
  0
APPID
  5
12
330
9
100
AcDbSymbolTableRecord
100
AcDbRegAppTableRecord
  2
ACAD
 70
     0
  0
ENDTAB
  0
TABLE
  2
DIMSTYLE
  5
A
330
0
100
AcDbSymbolTable
 70
     1
100
AcDbDimStyleTable
  0
DIMSTYLE
105
27
330
A
100
AcDbSymbolTableRecord
100
AcDbDimStyleTableRecord
  2
ISO-25
 70
     0
 41
2.5
 42
0.625
 43
3.75
 44
1.25
 73
     0
 74
     0
 77
     1
 78
     8
140
2.5
141
2.5
143
0.0393700787
147
0.625
171
     3
172
     1
178
     0
271
     2
272
     2
274
     3
278
    44
283
     0
284
     8
340
11
  0
ENDTAB
  0
TABLE
  2
BLOCK_RECORD
  5
1
330
0
100
AcDbSymbolTable
 70
     1
  0
BLOCK_RECORD
  5
1F
330
1
100
AcDbSymbolTableRecord
100
AcDbBlockTableRecord
  2
*Model_Space
340
22
  0
BLOCK_RECORD
  5
1B
330
1
100
AcDbSymbolTableRecord
100
AcDbBlockTableRecord
  2
*Paper_Space
340
1E
  0
BLOCK_RECORD
  5
23
330
1
100
AcDbSymbolTableRecord
100
AcDbBlockTableRecord
  2
*Paper_Space0
340
26
  0
ENDTAB
  0
ENDSEC
  0
SECTION
  2
BLOCKS
  0
BLOCK
  5
20
330
1F
100
AcDbEntity
  8
0
100
AcDbBlockBegin
  2
*Model_Space
 70
     0
 10
0.0
 20
0.0
 30
0.0
  3
*Model_Space
  1

  0
ENDBLK
  5
21
330
1F
100
AcDbEntity
  8
0
100
AcDbBlockEnd
  0
BLOCK
  5
1C
330
1B
100
AcDbEntity
 67
     1
  8
0
100
AcDbBlockBegin
  2
*Paper_Space
 70
     0
 10
0.0
 20
0.0
 30
0.0
  3
*Paper_Space
  1

  0
ENDBLK
  5
1D
330
1B
100
AcDbEntity
 67
     1
  8
0
100
AcDbBlockEnd
  0
BLOCK
  5
24
330
23
100
AcDbEntity
  8
0
100
AcDbBlockBegin
  2
*Paper_Space0
 70
     0
 10
0.0
 20
0.0
 30
0.0
  3
*Paper_Space0
  1

  0
ENDBLK
  5
25
330
23
100
AcDbEntity
  8
0
100
AcDbBlockEnd
  0
ENDSEC
  0
SECTION
  2
ENTITIES
  0
ARC
  5
64
330
1F
100
AcDbEntity
  8
0
  6
Continuous
 62
     7
370
    25
100
AcDbCircle
 10
170.9263033187
 20
124.6942694378
 30
0.0
 40
35.00000000000003
100
AcDbArc
 50
180.0
 51
270.0
  0
LINE
  5
65
330
1F
100
AcDbEntity
  8
0
  6
Continuous
 62
     7
370
    25
100
AcDbLine
 10
170.9263033187
 20
89.6942694378
 30
0.0
 11
890.9263033187
 21
89.6942694378
 31
0.0
  0
LINE
  5
66
330
1F
100
AcDbEntity
  8
0
  6
Continuous
 62
     7
370
    25
100
AcDbLine
 10
890.9263033187
 20
589.6942694378
 30
0.0
 11
170.9263033187
 21
589.6942694378
 31
0.0
  0
ARC
  5
67
330
1F
100
AcDbEntity
  8
0
  6
Continuous
 62
     7
370
    25
100
AcDbCircle
 10
170.9263033187
 20
554.6942694378
 30
0.0
 40
35.00000000000003
100
AcDbArc
 50
90.0
 51
180.0
  0
ARC
  5
68
330
1F
100
AcDbEntity
  8
0
  6
Continuous
 62
     7
370
    25
100
AcDbCircle
 10
890.9263033187
 20
554.6942694378
 30
0.0
 40
35.0
100
AcDbArc
 50
0.0
 51
90.0
  0
LINE
  5
69
330
1F
100
AcDbEntity
  8
0
  6
Continuous
 62
     7
370
    25
100
AcDbLine
 10
925.9263033187
 20
124.6942694378
 30
0.0
 11
925.9263033187
 21
554.6942694378
 31
0.0
  0
LINE
  5
6A
330
1F
100
AcDbEntity
  8
0
  6
Continuous
 62
     7
370
    25
100
AcDbLine
 10
135.9263033187
 20
554.6942694378
 30
0.0
 11
135.9263033187
 21
124.6942694378
 31
0.0
  0
ARC
  5
6B
330
1F
100
AcDbEntity
  8
0
  6
Continuous
 62
     7
370
    25
100
AcDbCircle
 10
890.9263033187
 20
124.6942694378
 30
0.0
 40
35.0
100
AcDbArc
 50
270.0
 51
0.0
  0
SPLINE
  5
6C
330
1F
100
AcDbEntity
  8
0
  6
Continuous
 62
     7
370
    25
100
AcDbSpline
210
0.0
220
0.0
230
1.0
 70
     8
 71
     3
 72
    33
 73
    29
 74
     0
 42
0.00000001
 43
0.00000001
 40
0.0
 40
0.0
 40
0.0
 40
0.0
 40
0.0465528824134837
 40
0.0583775896767992
 40
0.0614255412704898
 40
0.0622333926448222
 40
0.0625259760666745
 40
0.0625638267533179
 40
0.1251413220986617
 40
0.2501280075596374
 40
0.3127492709422096
 40
0.3145652910813775
 40
0.3180998017452928
 40
0.3303240922781698
 40
0.3753833289508204
 40
0.5004660611627175
 40
0.67022381153898
 40
0.6859893807431717
 40
0.687810886929695
 40
0.7504319634161832
 40
0.9374291776730251
 40
0.9374664220323539
 40
0.9375335276647944
 40
0.9377573228352368
 40
0.9385632488557654
 40
0.9416084405373399
 40
0.9534319911544072
 40
1.0
 40
1.0
 40
1.0
 40
1.0
 10
874.9265609849652
 20
342.008528735389
 30
0.0
 10
874.9270489471598
 20
341.9550631461009
 30
0.0
 10
874.9276608546359
 20
341.8880169811489
 30
0.0
 10
874.928406603094
 20
341.8117427059212
 30
0.0
 10
874.928601729973
 20
341.792066452192
 30
0.0
 10
874.9286506816412
 20
341.7868423129472
 30
0.0
 10
874.9286647529544
 20
341.7854075483101
 30
0.0
 10
874.9292025970585
 20
341.7060883691466
 30
0.0
 10
874.9264876224172
 20
341.4568075702339
 30
0.0
 10
874.923449204319
 20
341.0783651450677
 30
0.0
 10
874.926901351053
 20
340.7691961090764
 30
0.0
 10
874.9264195127175
 20
340.6560776190194
 30
0.0
 10
874.9262437023682
 20
340.6267826790046
 30
0.0
 10
874.9256530937597
 20
340.5249382635493
 30
0.0
 10
874.9236184322514
 20
340.2147365355956
 30
0.0
 10
874.9276138686141
 20
339.6160624260863
 30
0.0
 10
874.9241272778809
 20
339.066164082606
 30
0.0
 10
874.9263294288988
 20
338.7528326060575
 30
0.0
 10
874.9269120811938
 20
338.6193477954422
 30
0.0
 10
874.9219082052459
 20
338.2092722661282
 30
0.0
 10
874.9302439605473
 20
337.8393221664263
 30
0.0
 10
874.9286665332614
 20
337.6034106262917
 30
0.0
 10
874.928662900319
 20
337.602996925085
 30
0.0
 10
874.9286503053697
 20
337.6016144830011
 30
0.0
 10
874.9286007089614
 20
337.596482876279
 30
0.0
 10
874.9284078257231
 20
337.5768137924105
 30
0.0
 10
874.9276580393215
 20
337.5005248573008
 30
0.0
 10
874.9270472494841
 20
337.4334632859023
 30
0.0
 10
874.9265601368463
 20
337.3799808326365
 30
0.0
  0
SPLINE
  5
6D
330
1F
100
AcDbEntity
  8
0
  6
Continuous
 62
     7
370
    25
100
AcDbSpline
210
0.0
220
0.0
230
1.0
 70
     8
 71
     3
 72
    19
 73
    15
 74
     0
 42
0.00000001
 43
0.00000001
 40
0.0
 40
0.0
 40
0.0
 40
0.0
 40
0.0616746050320898
 40
0.1221594450723526
 40
0.1827472707375145
 40
0.2446201162885404
 40
0.3703767865347227
 40
0.4999994659372712
 40
0.6296192402112573
 40
0.7553767348667267
 40
0.81725007996919
 40
0.8778385181273113
 40
0.9383241441443175
 40
1.0
 40
1.0
 40
1.0
 40
1.0
 10
874.9265612158612
 20
342.008515392721
 30
0.0
 10
875.0715015294526
 20
341.9992894243445
 30
0.0
 10
875.3585861126084
 20
341.9810154657751
 30
0.0
 10
875.7701094535888
 20
341.8454288083404
 30
0.0
 10
876.1471683653605
 20
341.6345553800809
 30
0.0
 10
876.5883666919627
 20
341.2486035578777
 30
0.0
 10
876.9987553237717
 20
340.6037827178185
 30
0.0
 10
877.1685570871585
 20
339.6942674069815
 30
0.0
 10
876.9987598971434
 20
338.7847506427722
 30
0.0
 10
876.5883794746459
 20
338.1399288307078
 30
0.0
 10
876.1471811468782
 20
337.7539702340536
 30
0.0
 10
875.7701204683093
 20
337.5430910503651
 30
0.0
 10
875.3585926724381
 20
337.4074981426382
 30
0.0
 10
875.0715035140305
 20
337.3892215168501
 30
0.0
 10
874.9265603676292
 20
337.3799941685866
 30
0.0
  0
SPLINE
  5
6E
330
1F
100
AcDbEntity
  8
0
  6
Continuous
 62
     7
370
    25
100
AcDbSpline
210
0.0
220
0.0
230
1.0
 70
     8
 71
     3
 72
    33
 73
    29
 74
     0
 42
0.00000001
 43
0.00000001
 40
0.0
 40
0.0
 40
0.0
 40
0.0
 40
0.046552882467143
 40
0.0583775897169468
 40
0.0614255412937885
 40
0.0622333926571755
 40
0.0625259760697166
 40
0.0625638267530456
 40
0.1251413220979849
 40
0.2501280075586302
 40
0.3127492709410205
 40
0.31456529340429
 40
0.3180998057282652
 40
0.3303240975891053
 40
0.3753833289536666
 40
0.5004660611647186
 40
0.6702238115398387
 40
0.6859893807440307
 40
0.6878108869305786
 40
0.7504319634169692
 40
0.9374291776732212
 40
0.9374664220324457
 40
0.9375335276647826
 40
0.9377573228350184
 40
0.9385632488551837
 40
0.9416084405361991
 40
0.9534319911527801
 40
1.0
 40
1.0
 40
1.0
 40
1.0
 10
874.9265609849652
 20
421.0085287353878
 30
0.0
 10
874.9270489471606
 20
420.9550631460359
 30
0.0
 10
874.9276608546372
 20
420.888016981035
 30
0.0
 10
874.9284066030953
 20
420.8117427057735
 30
0.0
 10
874.9286017299743
 20
420.7920664520939
 30
0.0
 10
874.9286506816414
 20
420.7868423128962
 30
0.0
 10
874.9286647529547
 20
420.7854075482884
 30
0.0
 10
874.9292025970274
 20
420.7060883691673
 30
0.0
 10
874.9264876223834
 20
420.4568075702068
 30
0.0
 10
874.9234492046749
 20
420.0783651450709
 30
0.0
 10
874.9269013507155
 20
419.7691961052803
 30
0.0
 10
874.9264195127138
 20
419.6560776085147
 30
0.0
 10
874.9262437023633
 20
419.6267826595904
 30
0.0
 10
874.9256530938152
 20
419.5249382477501
 30
0.0
 10
874.9236184321222
 20
419.2147365262671
 30
0.0
 10
874.927613868717
 20
418.6160624260721
 30
0.0
 10
874.9241272778776
 20
418.0661640826063
 30
0.0
 10
874.926329428899
 20
417.7528326060578
 30
0.0
 10
874.9269120811931
 20
417.6193477954423
 30
0.0
 10
874.9219082052615
 20
417.2092722661228
 30
0.0
 10
874.9302439604593
 20
416.839322166452
 30
0.0
 10
874.9286665332614
 20
416.6034106262909
 30
0.0
 10
874.928662900319
 20
416.6029969250848
 30
0.0
 10
874.9286503053696
 20
416.6016144830016
 30
0.0
 10
874.9286007089617
 20
416.5964828762811
 30
0.0
 10
874.9284078257228
 20
416.576813792414
 30
0.0
 10
874.9276580393213
 20
416.5005248573035
 30
0.0
 10
874.927047249484
 20
416.4334632859033
 30
0.0
 10
874.9265601368463
 20
416.3799808326353
 30
0.0
  0
SPLINE
  5
6F
330
1F
100
AcDbEntity
  8
0
  6
Continuous
 62
     7
370
    25
100
AcDbSpline
210
0.0
220
0.0
230
1.0
 70
     8
 71
     3
 72
    19
 73
    15
 74
     0
 42
0.00000001
 43
0.00000001
 40
0.0
 40
0.0
 40
0.0
 40
0.0
 40
0.0616746050320212
 40
0.1221594450721579
 40
0.1827472707373207
 40
0.2446201162885013
 40
0.3703767865347341
 40
0.4999994659372559
 40
0.6296192402111707
 40
0.7553767348670883
 40
0.817250079969608
 40
0.8778385181273598
 40
0.9383241441444728
 40
0.9999999999999999
 40
0.9999999999999999
 40
0.9999999999999999
 40
0.9999999999999999
 10
874.9265612158612
 20
421.0085153927213
 30
0.0
 10
875.071501529452
 20
420.9992894243422
 30
0.0
 10
875.3585861126065
 20
420.9810154657678
 30
0.0
 10
875.7701094535886
 20
420.8454288083413
 30
0.0
 10
876.1471683653602
 20
420.6345553800803
 30
0.0
 10
876.5883666919615
 20
420.248603557876
 30
0.0
 10
876.9987553237708
 20
419.6037827178168
 30
0.0
 10
877.1685570871589
 20
418.6942674069804
 30
0.0
 10
876.9987598971422
 20
417.7847506427705
 30
0.0
 10
876.5883794746461
 20
417.1399288307051
 30
0.0
 10
876.1471811468789
 20
416.7539702340489
 30
0.0
 10
875.7701204683063
 20
416.543091050368
 30
0.0
 10
875.3585926724377
 20
416.4074981426392
 30
0.0
 10
875.0715035140302
 20
416.3892215168505
 30
0.0
 10
874.9265603676292
 20
416.3799941685865
 30
0.0
  0
SPLINE
  5
70
330
1F
100
AcDbEntity
  8
0
  6
Continuous
 62
     7
370
    25
100
AcDbSpline
210
0.0
220
0.0
230
1.0
 70
     8
 71
     3
 72
    33
 73
    29
 74
     0
 42
0.00000001
 43
0.00000001
 40
0.0
 40
0.0
 40
0.0
 40
0.0
 40
0.0465680414269184
 40
0.0583916064623866
 40
0.061436804882264
 40
0.0622427341541404
 40
0.0624665309208037
 40
0.0625336373439937
 40
0.0625708824891646
 40
0.2495683878084556
 40
0.3121895754133846
 40
0.3140109687064476
 40
0.3297764144227849
 40
0.4995345054575948
 40
0.624617232157557
 40
0.6696761220175796
 40
0.6819004617242771
 40
0.6854350526562334
 40
0.687251190184199
 40
0.7498723432195933
 40
0.8748588293779888
 40
0.9374362326379871
 40
0.937474082539502
 40
0.9377666635786828
 40
0.938574511712434
 40
0.9416224566066317
 40
0.9534471495982445
 40
0.9999999999999999
 40
0.9999999999999999
 40
0.9999999999999999
 40
0.9999999999999999
 10
874.9265601368463
 20
258.3799808326352
 30
0.0
 10
874.9270472497972
 20
258.433463324003
 30
0.0
 10
874.9276580400913
 20
258.500524950236
 30
0.0
 10
874.9284078269934
 20
258.5768139571215
 30
0.0
 10
874.9286007104112
 20
258.5964830731887
 30
0.0
 10
874.928650306885
 20
258.6016146949546
 30
0.0
 10
874.9286629018619
 20
258.6029971442729
 30
0.0
 10
874.9286665348209
 20
258.6034108495189
 30
0.0
 10
874.93024395094
 20
258.839322781329
 30
0.0
 10
874.9219081937847
 20
259.2092735966376
 30
0.0
 10
874.9269121028418
 20
259.619349717087
 30
0.0
 10
874.9263294237109
 20
259.7528343510522
 30
0.0
 10
874.9241272639048
 20
260.0661660514201
 30
0.0
 10
874.9276138719624
 20
260.616064869156
 30
0.0
 10
874.923618441931
 20
261.2147388850027
 30
0.0
 10
874.9256531030356
 20
261.5249400333279
 30
0.0
 10
874.9262437048808
 20
261.626784070326
 30
0.0
 10
874.9264195141227
 20
261.6560794162821
 30
0.0
 10
874.9269013280918
 20
261.7691980233156
 30
0.0
 10
874.9234492067775
 20
262.0783666509525
 30
0.0
 10
874.9264876407645
 20
262.4568083515186
 30
0.0
 10
874.9292025989894
 20
262.7060887190481
 30
0.0
 10
874.9286647513939
 20
262.785407769501
 30
0.0
 10
874.9286506801186
 20
262.7868425259092
 30
0.0
 10
874.9286017285243
 20
262.7920666491097
 30
0.0
 10
874.9284066018203
 20
262.8117428706436
 30
0.0
 10
874.9276608538734
 20
262.8880170740937
 30
0.0
 10
874.9270489468502
 20
262.9550631842068
 30
0.0
 10
874.9265609849652
 20
263.0085287353878
 30
0.0
  0
SPLINE
  5
71
330
1F
100
AcDbEntity
  8
0
  6
Continuous
 62
     7
370
    25
100
AcDbSpline
210
0.0
220
0.0
230
1.0
 70
     8
 71
     3
 72
    19
 73
    15
 74
     0
 42
0.00000001
 43
0.00000001
 40
0.0
 40
0.0
 40
0.0
 40
0.0
 40
0.0616746050315299
 40
0.1221594450716746
 40
0.1827472707368018
 40
0.2446201162879674
 40
0.3703767865342181
 40
0.4999994659367125
 40
0.6296192402105719
 40
0.7553767348666122
 40
0.8172500799691664
 40
0.8778385181269431
 40
0.9383241441441178
 40
1.0
 40
1.0
 40
1.0
 40
1.0
 10
874.9265612158613
 20
263.0085153927213
 30
0.0
 10
875.0715015294509
 20
262.9992894243422
 30
0.0
 10
875.3585861126043
 20
262.9810154657679
 30
0.0
 10
875.7701094535853
 20
262.8454288083427
 30
0.0
 10
876.1471683653571
 20
262.6345553800823
 30
0.0
 10
876.5883666919593
 20
262.2486035578787
 30
0.0
 10
876.99875532377
 20
261.6037827178204
 30
0.0
 10
877.1685570871588
 20
260.694267406984
 30
0.0
 10
876.9987598971436
 20
259.7847506427739
 30
0.0
 10
876.5883794746481
 20
259.1399288307073
 30
0.0
 10
876.147181146881
 20
258.7539702340505
 30
0.0
 10
875.7701204683086
 20
258.5430910503689
 30
0.0
 10
875.3585926724389
 20
258.4074981426394
 30
0.0
 10
875.0715035140306
 20
258.3892215168504
 30
0.0
 10
874.9265603676288
 20
258.3799941685864
 30
0.0
  0
SPLINE
  5
72
330
1F
100
AcDbEntity
  8
0
  6
Continuous
 62
     7
370
    25
100
AcDbSpline
210
0.0
220
0.0
230
1.0
 70
     8
 71
     3
 72
    15
 73
    11
 74
     0
 42
0.00000001
 43
0.00000001
 40
0.0
 40
0.0
 40
0.0
 40
0.0
 40
0.141630286438936
 40
0.2697450919447312
 40
0.3868007446265188
 40
0.5000138615296734
 40
0.6132307389203502
 40
0.7302747857681567
 40
0.8583789533700703
 40
1.0
 40
1.0
 40
1.0
 40
1.0
 10
717.8775720952367
 20
337.3801090327822
 30
0.0
 10
717.9881303836535
 20
337.5417853201519
 30
0.0
 10
718.1986966151006
 20
337.8497094661686
 30
0.0
 10
718.4213246259504
 20
338.4417718687851
 30
0.0
 10
718.5526137534837
 20
339.060180911385
 30
0.0
 10
718.596131023404
 20
339.6943549572358
 30
0.0
 10
718.5525896071922
 20
340.3285021279075
 30
0.0
 10
718.4212953573588
 20
340.9468659075659
 30
0.0
 10
718.1986666126659
 20
341.5388642104576
 30
0.0
 10
717.9881199962808
 20
341.8467652131503
 30
0.0
 10
717.8775710724001
 20
342.008430715517
 30
0.0
  0
LINE
  5
73
330
1F
100
AcDbEntity
  8
0
  6
Continuous
 62
     7
370
    25
100
AcDbLine
 10
717.8775710587
 20
342.0084315059
 30
0.0
 11
874.9265610974
 21
342.0085222391
 31
0.0
  0
LINE
  5
74
330
1F
100
AcDbEntity
  8
0
  6
Continuous
 62
     7
370
    25
100
AcDbLine
 10
874.9265602492
 20
337.3799873245
 30
0.0
 11
717.8775720827
 21
337.3801083096
 31
0.0
  0
SPLINE
  5
75
330
1F
100
AcDbEntity
  8
0
  6
Continuous
 62
     7
370
    25
100
AcDbSpline
210
0.0
220
0.0
230
1.0
 70
     8
 71
     3
 72
    15
 73
    11
 74
     0
 42
0.00000001
 43
0.00000001
 40
0.0
 40
0.0
 40
0.0
 40
0.0
 40
0.1416302863261813
 40
0.2697450919426693
 40
0.3868007445420492
 40
0.5000138615289427
 40
0.6132307389913653
 40
0.7302747857691027
 40
0.8583789534607482
 40
0.9999999999999999
 40
0.9999999999999999
 40
0.9999999999999999
 40
0.9999999999999999
 10
717.8775720952367
 20
416.3801090327838
 30
0.0
 10
717.9881303835446
 20
416.5417853200227
 30
0.0
 10
718.1986966149503
 20
416.8497094660333
 30
0.0
 10
718.4213246258478
 20
417.4417718684677
 30
0.0
 10
718.552613753572
 20
418.0601809112138
 30
0.0
 10
718.5961310233731
 20
418.6943549572124
 30
0.0
 10
718.5525896072692
 20
419.3285021280516
 30
0.0
 10
718.4212953572735
 20
419.9468659078285
 30
0.0
 10
718.1986666125363
 20
420.5388642105664
 30
0.0
 10
717.9881199961902
 20
420.8467652132567
 30
0.0
 10
717.8775710724001
 20
421.0084307155191
 30
0.0
  0
LINE
  5
76
330
1F
100
AcDbEntity
  8
0
  6
Continuous
 62
     7
370
    25
100
AcDbLine
 10
717.8775710587
 20
421.0084315059
 30
0.0
 11
874.9265610974
 21
421.0085222391
 31
0.0
  0
LINE
  5
77
330
1F
100
AcDbEntity
  8
0
  6
Continuous
 62
     7
370
    25
100
AcDbLine
 10
874.9265602492
 20
416.3799873245
 30
0.0
 11
717.8775720827
 21
416.3801083096
 31
0.0
  0
SPLINE
  5
78
330
1F
100
AcDbEntity
  8
0
  6
Continuous
 62
     7
370
    25
100
AcDbSpline
210
0.0
220
0.0
230
1.0
 70
     8
 71
     3
 72
    15
 73
    11
 74
     0
 42
0.00000001
 43
0.00000001
 40
0.0
 40
0.0
 40
0.0
 40
0.0
 40
0.1416255846418095
 40
0.2697252776339972
 40
0.3867762223719721
 40
0.4999861995354836
 40
0.6132062166586202
 40
0.7302549708163022
 40
0.8583742917603028
 40
1.0
 40
1.0
 40
1.0
 40
1.0
 10
717.8775709971432
 20
258.3801080959744
 30
0.0
 10
717.9881245185518
 20
258.5417788296399
 30
0.0
 10
718.198673193996
 20
258.8496800018292
 30
0.0
 10
718.421300220779
 20
259.4416913033421
 30
0.0
 10
718.5525914667301
 20
260.0600497587356
 30
0.0
 10
718.5961310230629
 20
260.6942092660363
 30
0.0
 10
718.5526118975998
 20
261.3283709767852
 30
0.0
 10
718.4213197380305
 20
261.9467854112639
 30
0.0
 10
718.1986900404064
 20
262.5388348174062
 30
0.0
 10
717.9881258408234
 20
262.846758779309
 30
0.0
 10
717.8775721672818
 20
263.0084297814418
 30
0.0
  0
LINE
  5
79
330
1F
100
AcDbEntity
  8
0
  6
Continuous
 62
     7
370
    25
100
AcDbLine
 10
717.8775721548
 20
263.0084305014
 30
0.0
 11
874.9265610974
 21
263.0085222391
 31
0.0
  0
LINE
  5
7A
330
1F
100
AcDbEntity
  8
0
  6
Continuous
 62
     7
370
    25
100
AcDbLine
 10
874.9265602492
 20
258.3799873245
 30
0.0
 11
717.8775709834
 21
258.3801073031
 31
0.0
  0
SPLINE
  5
7B
330
1F
100
AcDbEntity
  8
0
  6
Continuous
 62
     7
370
    25
100
AcDbSpline
210
0.0
220
0.0
230
1.0
 70
     8
 71
     3
 72
    19
 73
    15
 74
     0
 42
0.00000001
 43
0.00000001
 40
0.0
 40
0.0
 40
0.0
 40
0.0
 40
0.0891673967713863
 40
0.1703710764018244
 40
0.244904430956916
 40
0.3037093033933798
 40
0.4022450208571708
 40
0.4991253588769813
 40
0.5962405395585745
 40
0.6949876115303801
 40
0.7544829020585804
 40
0.8290977953278226
 40
0.9103337405857289
 40
1.0
 40
1.0
 40
1.0
 40
1.0
 10
874.9456536975177
 20
264.9368996481094
 30
0.0
 10
875.3364019641075
 20
264.9050747143023
 30
0.0
 10
876.082999994234
 20
264.8442671946767
 30
0.0
 10
877.0701008045883
 20
264.3843713155047
 30
0.0
 10
877.8073143788449
 20
263.7955475942702
 30
0.0
 10
878.4509268051426
 20
263.006837443414
 30
0.0
 10
878.9298744265312
 20
261.985739839912
 30
0.0
 10
879.11979091808
 20
260.7049537090858
 30
0.0
 10
878.9359516114956
 20
259.4222401503491
 30
0.0
 10
878.4593079093213
 20
258.3944631872953
 30
0.0
 10
877.8152532104782
 20
257.600351872007
 30
0.0
 10
877.0763773166268
 20
257.0079551857785
 30
0.0
 10
876.0875720878116
 20
256.5451564449012
 30
0.0
 10
875.3386081979409
 20
256.4838201712417
 30
0.0
 10
874.9456536976178
 20
256.4516392275494
 30
0.0
  0
SPLINE
  5
7C
330
1F
100
AcDbEntity
  8
0
  6
Continuous
 62
     7
370
    25
100
AcDbSpline
210
0.0
220
0.0
230
1.0
 70
     8
 71
     3
 72
    11
 73
     7
 74
     0
 42
0.00000001
 43
0.00000001
 40
0.0
 40
0.0
 40
0.0
 40
0.0
 40
0.2500000000000021
 40
0.5000000000000047
 40
0.7500000000000117
 40
1.0
 40
1.0
 40
1.0
 40
1.0
 10
874.9265698400162
 20
258.3799808231719
 30
0.0
 10
874.9293882940821
 20
258.2541431260843
 30
0.0
 10
874.9350252022135
 20
258.0024677319092
 30
0.0
 10
874.9409821333445
 20
257.5250848384182
 30
0.0
 10
874.9449266385592
 20
257.0024995273496
 30
0.0
 10
874.9454185650205
 20
256.6352593275592
 30
0.0
 10
874.9456645282512
 20
256.451639227664
 30
0.0
  0
SPLINE
  5
7D
330
1F
100
AcDbEntity
  8
0
  6
Continuous
 62
     7
370
    25
100
AcDbSpline
210
0.0
220
0.0
230
1.0
 70
     8
 71
     3
 72
    11
 73
     7
 74
     0
 42
0.00000001
 43
0.00000001
 40
0.0
 40
0.0
 40
0.0
 40
0.0
 40
0.2499999999999923
 40
0.4999999999999875
 40
0.7499999999999888
 40
1.0
 40
1.0
 40
1.0
 40
1.0
 10
874.9265772608333
 20
263.0085287406895
 30
0.0
 10
874.929394120877
 20
263.1343667891075
 30
0.0
 10
874.9350278409646
 20
263.3860428859436
 30
0.0
 10
874.9409799164983
 20
263.8634327381525
 30
0.0
 10
874.9449194890447
 20
264.3860278187557
 30
0.0
 10
874.9454080394314
 20
264.7532757049915
 30
0.0
 10
874.9456523146248
 20
264.9368996481094
 30
0.0
  0
SPLINE
  5
7E
330
1F
100
AcDbEntity
  8
0
  6
Continuous
 62
     7
370
    25
100
AcDbSpline
210
0.0
220
0.0
230
1.0
 70
     8
 71
     3
 72
    19
 73
    15
 74
     0
 42
0.00000001
 43
0.00000001
 40
0.0
 40
0.0
 40
0.0
 40
0.0
 40
0.0891673967713713
 40
0.1703710764017955
 40
0.2449044309571601
 40
0.303709303393553
 40
0.4022450208570301
 40
0.4991253588774004
 40
0.5962405395583498
 40
0.6949876115308278
 40
0.7544829020587579
 40
0.8290977953277192
 40
0.9103337405858153
 40
1.0
 40
1.0
 40
1.0
 40
1.0
 10
874.9456536975177
 20
422.9368996481094
 30
0.0
 10
875.3364019641074
 20
422.9050747143021
 30
0.0
 10
876.0829999942337
 20
422.8442671946763
 30
0.0
 10
877.0701008045904
 20
422.3843713155056
 30
0.0
 10
877.8073143788432
 20
421.7955475942642
 30
0.0
 10
878.4509268051421
 20
421.0068374434104
 30
0.0
 10
878.9298744265329
 20
419.9857398399079
 30
0.0
 10
879.1197909180803
 20
418.7049537090823
 30
0.0
 10
878.9359516114921
 20
417.4222401503446
 30
0.0
 10
878.4593079093255
 20
416.3944631872879
 30
0.0
 10
877.815253210478
 20
415.6003518720009
 30
0.0
 10
877.0763773166234
 20
415.0079551857806
 30
0.0
 10
876.0875720878142
 20
414.5451564448911
 30
0.0
 10
875.3386081979414
 20
414.4838201712382
 30
0.0
 10
874.9456536976178
 20
414.4516392275494
 30
0.0
  0
SPLINE
  5
7F
330
1F
100
AcDbEntity
  8
0
  6
Continuous
 62
     7
370
    25
100
AcDbSpline
210
0.0
220
0.0
230
1.0
 70
     8
 71
     3
 72
    11
 73
     7
 74
     0
 42
0.00000001
 43
0.00000001
 40
0.0
 40
0.0
 40
0.0
 40
0.0
 40
0.2499999999999887
 40
0.500000000000002
 40
0.7499999999999939
 40
1.0
 40
1.0
 40
1.0
 40
1.0
 10
874.9265698400212
 20
416.3799808231714
 30
0.0
 10
874.9293882940863
 20
416.2541431260838
 30
0.0
 10
874.9350252022164
 20
416.0024677319087
 30
0.0
 10
874.9409821333464
 20
415.5250848384179
 30
0.0
 10
874.9449266385599
 20
415.0024995273496
 30
0.0
 10
874.9454185650208
 20
414.6352593275592
 30
0.0
 10
874.9456645282512
 20
414.451639227664
 30
0.0
  0
SPLINE
  5
80
330
1F
100
AcDbEntity
  8
0
  6
Continuous
 62
     7
370
    25
100
AcDbSpline
210
0.0
220
0.0
230
1.0
 70
     8
 71
     3
 72
    11
 73
     7
 74
     0
 42
0.00000001
 43
0.00000001
 40
0.0
 40
0.0
 40
0.0
 40
0.0
 40
0.2499999999999944
 40
0.4999999999999932
 40
0.7499999999999943
 40
1.0
 40
1.0
 40
1.0
 40
1.0
 10
874.9265772608333
 20
421.0085287406893
 30
0.0
 10
874.9293941208771
 20
421.1343667891073
 30
0.0
 10
874.9350278409646
 20
421.3860428859434
 30
0.0
 10
874.9409799164985
 20
421.8634327381524
 30
0.0
 10
874.9449194890447
 20
422.3860278187557
 30
0.0
 10
874.9454080394316
 20
422.7532757049916
 30
0.0
 10
874.9456523146252
 20
422.9368996481095
 30
0.0
  0
SPLINE
  5
81
330
1F
100
AcDbEntity
  8
0
  6
Continuous
 62
     7
370
    25
100
AcDbSpline
210
0.0
220
0.0
230
1.0
 70
     8
 71
     3
 72
    19
 73
    15
 74
     0
 42
0.00000001
 43
0.00000001
 40
0.0
 40
0.0
 40
0.0
 40
0.0
 40
0.0891673967713017
 40
0.1703710764017658
 40
0.244904430957079
 40
0.3037093033934694
 40
0.4022450208571379
 40
0.4991253588772835
 40
0.5962405395585628
 40
0.6949876115307153
 40
0.7544829020587659
 40
0.8290977953279342
 40
0.9103337405858546
 40
1.0
 40
1.0
 40
1.0
 40
1.0
 10
874.9456536975177
 20
343.9368996481044
 30
0.0
 10
875.3364019641075
 20
343.9050747143
 30
0.0
 10
876.0829999942346
 20
343.8442671946796
 30
0.0
 10
877.07010080459
 20
343.3843713155051
 30
0.0
 10
877.8073143788432
 20
342.7955475942656
 30
0.0
 10
878.4509268051428
 20
342.0068374434111
 30
0.0
 10
878.9298744265319
 20
340.985739839908
 30
0.0
 10
879.1197909180801
 20
339.7049537090817
 30
0.0
 10
878.9359516114938
 20
338.4222401503442
 30
0.0
 10
878.4593079093237
 20
337.3944631872885
 30
0.0
 10
877.8152532104775
 20
336.6003518720012
 30
0.0
 10
877.0763773166262
 20
336.0079551857749
 30
0.0
 10
876.0875720878128
 20
335.5451564448935
 30
0.0
 10
875.3386081979411
 20
335.4838201712423
 30
0.0
 10
874.9456536976178
 20
335.4516392275544
 30
0.0
  0
SPLINE
  5
82
330
1F
100
AcDbEntity
  8
0
  6
Continuous
 62
     7
370
    25
100
AcDbSpline
210
0.0
220
0.0
230
1.0
 70
     8
 71
     3
 72
    11
 73
     7
 74
     0
 42
0.00000001
 43
0.00000001
 40
0.0
 40
0.0
 40
0.0
 40
0.0
 40
0.2500000000000017
 40
0.5000000000000008
 40
0.75
 40
1.0
 40
1.0
 40
1.0
 40
1.0
 10
874.9265698400212
 20
337.3799808231732
 30
0.0
 10
874.9293882940863
 20
337.2541431260859
 30
0.0
 10
874.9350252022165
 20
337.0024677319112
 30
0.0
 10
874.9409821333464
 20
336.5250848384213
 30
0.0
 10
874.9449266385599
 20
336.0024995273538
 30
0.0
 10
874.9454185650208
 20
335.6352593275639
 30
0.0
 10
874.9456645282512
 20
335.451639227669
 30
0.0
  0
SPLINE
  5
83
330
1F
100
AcDbEntity
  8
0
  6
Continuous
 62
     7
370
    25
100
AcDbSpline
210
0.0
220
0.0
230
1.0
 70
     8
 71
     3
 72
    11
 73
     7
 74
     0
 42
0.00000001
 43
0.00000001
 40
0.0
 40
0.0
 40
0.0
 40
0.0
 40
0.2499999999999996
 40
0.5000000000000014
 40
0.7499999999999993
 40
1.0
 40
1.0
 40
1.0
 40
1.0
 10
874.9265772608333
 20
342.0085287406899
 30
0.0
 10
874.9293941208771
 20
342.1343667891076
 30
0.0
 10
874.9350278409646
 20
342.3860428859432
 30
0.0
 10
874.9409799164985
 20
342.8634327381508
 30
0.0
 10
874.9449194890447
 20
343.3860278187523
 30
0.0
 10
874.9454080394316
 20
343.7532757049871
 30
0.0
 10
874.9456523146252
 20
343.9368996481045
 30
0.0
  0
SPLINE
  5
84
330
1F
100
AcDbEntity
  8
0
  6
Continuous
 62
     7
370
    25
100
AcDbSpline
210
0.0
220
0.0
230
1.0
 70
     8
 71
     3
 72
    11
 73
     7
 74
     0
 42
0.00000001
 43
0.00000001
 40
0.0
 40
0.0
 40
0.0
 40
0.0
 40
0.2780608171227345
 40
0.5629149102675405
 40
0.7918934835808975
 40
0.9999999999999999
 40
0.9999999999999999
 40
0.9999999999999999
 40
0.9999999999999999
 10
717.8775721672807
 20
263.0084297814749
 30
0.0
 10
717.7061312357076
 20
263.1228486450422
 30
0.0
 10
717.3590609163032
 20
263.3544817279928
 30
0.0
 10
716.9510107119195
 20
263.8279017862527
 30
0.0
 10
716.6758076650682
 20
264.3733578483447
 30
0.0
 10
716.6408425476417
 20
264.7551181140564
 30
0.0
 10
716.624194830859
 20
264.9368831773606
 30
0.0
  0
LINE
  5
85
330
1F
100
AcDbEntity
  8
0
  6
Continuous
 62
     7
370
    25
100
AcDbLine
 10
716.6241948137
 20
264.9368831774
 30
0.0
 11
874.9456536975
 21
264.9368996481
 31
0.0
  0
SPLINE
  5
86
330
1F
100
AcDbEntity
  8
0
  6
Continuous
 62
     7
370
    25
100
AcDbSpline
210
0.0
220
0.0
230
1.0
 70
     8
 71
     3
 72
    11
 73
     7
 74
     0
 42
0.00000001
 43
0.00000001
 40
0.0
 40
0.0
 40
0.0
 40
0.0
 40
0.2780603086446741
 40
0.562914603904799
 40
0.7918933373510878
 40
1.0
 40
1.0
 40
1.0
 40
1.0
 10
717.8775710723996
 20
421.0084307155433
 30
0.0
 10
717.7061305149681
 20
421.1228493006027
 30
0.0
 10
717.3590605072051
 20
421.3544821172459
 30
0.0
 10
716.9510107253134
 20
421.8279017906127
 30
0.0
 10
716.675807662692
 20
422.3733578465324
 30
0.0
 10
716.640842546895
 20
422.755118113257
 30
0.0
 10
716.624194830859
 20
422.9368831773605
 30
0.0
  0
LINE
  5
87
330
1F
100
AcDbEntity
  8
0
  6
Continuous
 62
     7
370
    25
100
AcDbLine
 10
716.6241948137
 20
422.9368831774
 30
0.0
 11
874.9456536975
 21
422.9368996481
 31
0.0
  0
SPLINE
  5
88
330
1F
100
AcDbEntity
  8
0
  6
Continuous
 62
     7
370
    25
100
AcDbSpline
210
0.0
220
0.0
230
1.0
 70
     8
 71
     3
 72
    11
 73
     7
 74
     0
 42
0.00000001
 43
0.00000001
 40
0.0
 40
0.0
 40
0.0
 40
0.0
 40
0.278060308644509
 40
0.5629146039047733
 40
0.7918933373562576
 40
1.0
 40
1.0
 40
1.0
 40
1.0
 10
717.8775710723996
 20
342.0084307155407
 30
0.0
 10
717.7061305149682
 20
342.1228493006003
 30
0.0
 10
717.3590605072054
 20
342.3544821172443
 30
0.0
 10
716.9510107253085
 20
342.8279017906148
 30
0.0
 10
716.6758076626967
 20
343.373357846541
 30
0.0
 10
716.6408425468962
 20
343.7551181132655
 30
0.0
 10
716.624194830859
 20
343.9368831773646
 30
0.0
  0
LINE
  5
89
330
1F
100
AcDbEntity
  8
0
  6
Continuous
 62
     7
370
    25
100
AcDbLine
 10
716.6241948137
 20
343.9368831774
 30
0.0
 11
874.9456536975
 21
343.9368996481
 31
0.0
  0
SPLINE
  5
8A
330
1F
100
AcDbEntity
  8
0
  6
Continuous
 62
     7
370
    25
100
AcDbSpline
210
0.0
220
0.0
230
1.0
 70
     8
 71
     3
 72
    11
 73
     7
 74
     0
 42
0.00000001
 43
0.00000001
 40
0.0
 40
0.0
 40
0.0
 40
0.0
 40
0.2081133139415501
 40
0.4370854110547761
 40
0.7219393651720746
 40
1.0
 40
1.0
 40
1.0
 40
1.0
 10
716.6241948299315
 20
335.4516556713861
 30
0.0
 10
716.640841010931
 20
335.6334273072613
 30
0.0
 10
716.675801786515
 20
336.0151891882282
 30
0.0
 10
716.9510167354213
 20
336.560639708733
 30
0.0
 10
717.3590601607299
 20
337.0340574374026
 30
0.0
 10
717.7061309473889
 20
337.2656902917868
 30
0.0
 10
717.8775720952361
 20
337.3801090327503
 30
0.0
  0
LINE
  5
8B
330
1F
100
AcDbEntity
  8
0
  6
Continuous
 62
     7
370
    25
100
AcDbLine
 10
874.9456536976
 20
335.4516392276
 30
0.0
 11
716.6241948128
 21
335.4516556714
 31
0.0
  0
SPLINE
  5
8C
330
1F
100
AcDbEntity
  8
0
  6
Continuous
 62
     7
370
    25
100
AcDbSpline
210
0.0
220
0.0
230
1.0
 70
     8
 71
     3
 72
    11
 73
     7
 74
     0
 42
0.00000001
 43
0.00000001
 40
0.0
 40
0.0
 40
0.0
 40
0.0
 40
0.208113313932079
 40
0.4370854110528461
 40
0.7219393651706941
 40
1.0
 40
1.0
 40
1.0
 40
1.0
 10
716.6241948299315
 20
414.4516556713882
 30
0.0
 10
716.6408410109331
 20
414.6334273072541
 30
0.0
 10
716.6758017865224
 20
415.0151891882175
 30
0.0
 10
716.9510167354144
 20
415.5606397087278
 30
0.0
 10
717.3590601607316
 20
416.0340574374007
 30
0.0
 10
717.7061309473893
 20
416.2656902917868
 30
0.0
 10
717.8775720952359
 20
416.3801090327513
 30
0.0
  0
LINE
  5
8D
330
1F
100
AcDbEntity
  8
0
  6
Continuous
 62
     7
370
    25
100
AcDbLine
 10
874.9456536976
 20
414.4516392275
 30
0.0
 11
716.6241948128
 21
414.4516556714
 31
0.0
  0
SPLINE
  5
8E
330
1F
100
AcDbEntity
  8
0
  6
Continuous
 62
     7
370
    25
100
AcDbSpline
210
0.0
220
0.0
230
1.0
 70
     8
 71
     3
 72
    11
 73
     7
 74
     0
 42
0.00000001
 43
0.00000001
 40
0.0
 40
0.0
 40
0.0
 40
0.0
 40
0.2081134606468074
 40
0.4370857183063637
 40
0.721939875128777
 40
1.0
 40
1.0
 40
1.0
 40
1.0
 10
716.6241948299315
 20
256.4516556713882
 30
0.0
 10
716.6408410101693
 20
256.6334273081076
 30
0.0
 10
716.6758017840842
 20
257.015189190094
 30
0.0
 10
716.9510167488328
 20
257.560639704389
 30
0.0
 10
717.3590597503775
 20
258.0340570470273
 30
0.0
 10
717.7061302245138
 20
258.2656896343137
 30
0.0
 10
717.8775709971428
 20
258.3801080959511
 30
0.0
  0
LINE
  5
8F
330
1F
100
AcDbEntity
  8
0
  6
Continuous
 62
     7
370
    25
100
AcDbLine
 10
874.9456536976
 20
256.4516392275
 30
0.0
 11
716.6241948128
 21
256.4516556714
 31
0.0
  0
SPLINE
  5
90
330
1F
100
AcDbEntity
  8
0
  6
Continuous
 62
     7
370
    25
100
AcDbSpline
210
0.0
220
0.0
230
1.0
 70
     8
 71
     3
 72
    14
 73
    10
 74
     0
 42
0.00000001
 43
0.00000001
 40
0.0
 40
0.0
 40
0.0
 40
0.0
 40
0.1411631657127498
 40
0.2819612268979561
 40
0.4220542088121644
 40
0.5617778448011053
 40
0.7078606054483463
 40
0.8539949046526152
 40
1.0
 40
1.0
 40
1.0
 40
1.0
 10
154.7464985513177
 20
554.0452869164294
 30
0.0
 10
154.8242236877448
 20
555.267215626059
 30
0.0
 10
154.9794729322424
 20
557.707912647902
 30
0.0
 10
156.2115139933642
 20
561.1868992514842
 30
0.0
 10
158.1092402615912
 20
564.3119443082663
 30
0.0
 10
160.6904522791623
 20
566.9819733772902
 30
0.0
 10
163.8454984109531
 20
569.0220232134808
 30
0.0
 10
167.4389276872596
 20
570.3671364075628
 30
0.0
 10
169.9682433598854
 20
570.5367203271114
 30
0.0
 10
171.2323418787178
 20
570.6214747861294
 30
0.0
  0
LWPOLYLINE
  5
91
330
1F
100
AcDbEntity
  8
0
  6
Continuous
 62
     7
370
    25
100
AcDbPolyline
 90
        9
 70
   128
 43
0.0
 10
171.2323418787
 20
570.6214747861
 10
171.2323418787
 20
570.3522761155
 10
171.2323418787
 20
570.0852494112
 10
171.2323418787
 20
569.8225491158
 10
171.2323418787
 20
569.566294765
 10
171.2323418787
 20
569.3185538871
 10
171.2323418787
 20
569.0813253213
 10
171.2323418787
 20
568.8565230907
 10
171.2323415093
 20
568.6459609643
  0
SPLINE
  5
92
330
1F
100
AcDbEntity
  8
0
  6
Continuous
 62
     7
370
    25
100
AcDbSpline
210
0.0
220
0.0
230
1.0
 70
     8
 71
     3
 72
    13
 73
     9
 74
     0
 42
0.00000001
 43
0.00000001
 40
0.0
 40
0.0
 40
0.0
 40
0.0
 40
0.1863436768393862
 40
0.3728581282611288
 40
0.5593813542593131
 40
0.7062082998230402
 40
0.853232792938276
 40
1.0
 40
1.0
 40
1.0
 40
1.0
 10
157.0242683586178
 20
554.0452869450294
 30
0.0
 10
157.0995496485112
 20
555.4630347842789
 30
0.0
 10
157.2501812198036
 20
558.2998297571742
 30
0.0
 10
159.0538793982479
 20
562.2323042490965
 30
0.0
 10
161.6609225232554
 20
565.2480799683068
 30
0.0
 10
164.7236546166905
 20
567.2587793850591
 30
0.0
 10
167.8887641529074
 20
568.4481898413455
 30
0.0
 10
170.1184666060252
 20
568.5800757560613
 30
0.0
 10
171.2323415093178
 20
568.6459609643294
 30
0.0
  0
LWPOLYLINE
  5
93
330
1F
100
AcDbEntity
  8
0
  6
Continuous
 62
     7
370
    25
100
AcDbPolyline
 90
        9
 70
   128
 43
0.0
 10
154.7464985513
 20
554.0452869164
 10
155.069186823
 20
554.045286911
 10
155.3881308111
 20
554.045286906
 10
155.6996296791
 20
554.0452869015
 10
156.0000689789
 20
554.0452868975
 10
156.2859625913
 20
554.045286894
 10
156.5539931765
 20
554.0452868911
 10
156.8010506666
 20
554.0452868889
 10
157.0242683586
 20
554.045286945
  0
SPLINE
  5
94
330
1F
100
AcDbEntity
  8
0
  6
Continuous
 62
     7
370
    25
100
AcDbSpline
210
0.0
220
0.0
230
1.0
 70
     8
 71
     3
 72
    14
 73
    10
 74
     0
 42
0.00000001
 43
0.00000001
 40
0.0
 40
0.0
 40
0.0
 40
0.0
 40
0.1394083313584374
 40
0.2789165838158232
 40
0.4183505387801528
 40
0.5580308675346002
 40
0.7047269639119628
 40
0.8521669057728035
 40
1.0
 40
1.0
 40
1.0
 40
1.0
 10
171.2323418787178
 20
108.7670640895294
 30
0.0
 10
170.0255909005667
 20
108.8442698143022
 30
0.0
 10
167.6112240039649
 20
108.9987366011493
 30
0.0
 10
164.1644429406073
 20
110.2257474198024
 30
0.0
 10
161.0580907457216
 20
112.1209275355604
 30
0.0
 10
158.3945359425793
 20
114.7077145443199
 30
0.0
 10
156.3523988030939
 20
117.8808145810846
 30
0.0
 10
155.0021915157165
 20
121.5069219030722
 30
0.0
 10
154.8318051618859
 20
124.0633406606088
 30
0.0
 10
154.7464985513178
 20
125.3432519592294
 30
0.0
  0
LWPOLYLINE
  5
95
330
1F
100
AcDbEntity
  8
0
  6
Continuous
 62
     7
370
    25
100
AcDbPolyline
 90
        9
 70
   128
 43
0.0
 10
154.7464985513
 20
125.3432519592
 10
155.0691868243
 20
125.3432519592
 10
155.3881308142
 20
125.3432519592
 10
155.699629684
 20
125.3432519592
 10
156.0000689859
 20
125.3432519592
 10
156.2859626005
 20
125.3432519592
 10
156.553993188
 20
125.3432519592
 10
156.8010506805
 20
125.3432519592
 10
157.0242683585
 20
125.3432519281
  0
SPLINE
  5
96
330
1F
100
AcDbEntity
  8
0
  6
Continuous
 62
     7
370
    25
100
AcDbSpline
210
0.0
220
0.0
230
1.0
 70
     8
 71
     3
 72
    13
 73
     9
 74
     0
 42
0.00000001
 43
0.00000001
 40
0.0
 40
0.0
 40
0.0
 40
0.0
 40
0.1866838403911739
 40
0.3733161454448605
 40
0.5598759598292801
 40
0.7066295354313752
 40
0.8535404877075433
 40
0.9999999999999999
 40
0.9999999999999999
 40
0.9999999999999999
 40
0.9999999999999999
 10
171.2323415083177
 20
110.7425779113293
 30
0.0
 10
169.8132030879079
 20
110.8536586150975
 30
0.0
 10
166.9753180098531
 20
111.0757893580539
 30
0.0
 10
163.0915422067938
 20
112.9965368423599
 30
0.0
 10
160.1545554871034
 20
115.6926791994972
 30
0.0
 10
158.2359457698557
 20
118.8118848423083
 30
0.0
 10
157.1387043162612
 20
122.0039451354343
 30
0.0
 10
157.0623745255405
 20
124.2312921482541
 30
0.0
 10
157.0242683585178
 20
125.3432519281294
 30
0.0
  0
LWPOLYLINE
  5
97
330
1F
100
AcDbEntity
  8
0
  6
Continuous
 62
     7
370
    25
100
AcDbPolyline
 90
        9
 70
   128
 43
0.0
 10
171.2323418787
 20
108.7670640895
 10
171.2323418824
 20
109.0362627596
 10
171.2323418859
 20
109.3032894631
 10
171.2323418892
 20
109.5659897577
 10
171.2323418922
 20
109.8222441075
 10
171.2323418951
 20
110.0699849844
 10
171.2323418976
 20
110.3072135491
 10
171.2323418999
 20
110.5320157786
 10
171.2323415083
 20
110.7425779113
  0
SPLINE
  5
98
330
1F
100
AcDbEntity
  8
0
  6
Continuous
 62
     7
370
    25
100
AcDbSpline
210
0.0
220
0.0
230
1.0
 70
     8
 71
     3
 72
    28
 73
    24
 74
     0
 42
0.00000001
 43
0.00000001
 40
0.0
 40
0.0
 40
0.0
 40
0.0
 40
0.0190769805508057
 40
0.0426010195071146
 40
0.0716620002380045
 40
0.1062779933308481
 40
0.1382558962185728
 40
0.1754017221529228
 40
0.2185608644637472
 40
0.2687454001036363
 40
0.3069295944053976
 40
0.3493657965793985
 40
0.3963965334179801
 40
0.4486499231689241
 40
0.5068495899773413
 40
0.5717161241677393
 40
0.6195722460960197
 40
0.6711678619445937
 40
0.7267978670416452
 40
0.7869451871460249
 40
0.8520744011277936
 40
0.9228949874942889
 40
1.0
 40
1.0
 40
1.0
 40
1.0
 10
541.3400719748378
 20
166.0948236207294
 30
0.0
 10
542.3593355366488
 20
166.093652878764
 30
0.0
 10
544.6354644431058
 20
166.0910384817336
 30
0.0
 10
548.4642926268609
 20
166.0873780404568
 30
0.0
 10
553.1233552430407
 20
166.0837476739775
 30
0.0
 10
558.2341001188021
 20
166.0809200175851
 30
0.0
 10
563.7768107613786
 20
166.0791039462281
 30
0.0
 10
569.7759737195188
 20
166.0785146591824
 30
0.0
 10
576.7478990508181
 20
166.0796290252703
 30
0.0
 10
583.7753027908617
 20
166.0827828722059
 30
0.0
 10
590.7640794360449
 20
166.0877451427953
 30
0.0
 10
597.5843504905555
 20
166.0941527666145
 30
0.0
 10
605.1563224853745
 20
166.1031140170695
 30
0.0
 10
613.5705174209291
 20
166.1152348491847
 30
0.0
 10
622.9376564572844
 20
166.1312479077887
 30
0.0
 10
632.0698494801306
 20
166.1493967871832
 30
0.0
 10
640.8491909078894
 20
166.168884506196
 30
0.0
 10
649.1350312915423
 20
166.1888472549705
 30
0.0
 10
658.077572166298
 20
166.2120636419853
 30
0.0
 10
667.7431926995754
 20
166.2389032634892
 30
0.0
 10
678.2204227113098
 20
166.2697919497448
 30
0.0
 10
689.6036764375217
 20
166.3050445889084
 30
0.0
 10
697.5071533199177
 20
166.3307493086249
 30
0.0
 10
701.6267762148177
 20
166.3441476842294
 30
0.0
  0
SPLINE
  5
99
330
1F
100
AcDbEntity
  8
0
  6
Continuous
 62
     7
370
    25
100
AcDbSpline
210
0.0
220
0.0
230
1.0
 70
     8
 71
     3
 72
     9
 73
     5
 74
     0
 42
0.00000001
 43
0.00000001
 40
0.0
 40
0.0
 40
0.0
 40
0.0
 40
0.5593956056055073
 40
0.9999999999999999
 40
0.9999999999999999
 40
0.9999999999999999
 40
0.9999999999999999
 10
541.3400719748378
 20
166.0948236207294
 30
0.0
 10
541.3406788455562
 20
166.4920383928745
 30
0.0
 10
541.3417637141404
 20
167.2021168564248
 30
0.0
 10
541.3424429942822
 20
167.7789736559307
 30
0.0
 10
541.3427422880977
 20
168.0331392967294
 30
0.0
  0
SPLINE
  5
9A
330
1F
100
AcDbEntity
  8
0
  6
Continuous
 62
     7
370
    25
100
AcDbSpline
210
0.0
220
0.0
230
1.0
 70
     8
 71
     3
 72
    27
 73
    23
 74
     0
 42
0.00000001
 43
0.00000001
 40
0.0
 40
0.0
 40
0.0
 40
0.0
 40
0.0190763500113197
 40
0.0426008404184038
 40
0.0716623423526508
 40
0.1062789043054796
 40
0.1382573223830935
 40
0.1754037208975085
 40
0.2185634887451413
 40
0.2687487194267121
 40
0.3069334193668934
 40
0.3493701509334302
 40
0.3964014453709285
 40
0.448655428571143
 40
0.5068557315267551
 40
0.5717228633425172
 40
0.6279122681919161
 40
0.6892493482478175
 40
0.756285936856321
 40
0.8297851750723306
 40
0.9106722438766645
 40
1.0
 40
1.0
 40
1.0
 40
1.0
 10
541.3427422880977
 20
168.0331392967294
 30
0.0
 10
542.3619521208727
 20
168.0334981230686
 30
0.0
 10
544.6380267060604
 20
168.0342994453134
 30
0.0
 10
548.4667979249452
 20
168.0350609662897
 30
0.0
 10
553.1258512925655
 20
168.035407104594
 30
0.0
 10
558.2365814294755
 20
168.0349451663286
 30
0.0
 10
563.7792715746516
 20
168.0335427224384
 30
0.0
 10
569.7784080943238
 20
168.0310327932737
 30
0.0
 10
576.7502974948575
 20
168.0268243307884
 30
0.0
 10
583.7776606896392
 20
168.0211309111287
 30
0.0
 10
590.7663924757006
 20
168.0141712511662
 30
0.0
 10
597.586614699906
 20
168.0062724561717
 30
0.0
 10
605.1585278757996
 20
167.9962038437344
 30
0.0
 10
613.5726532654757
 20
167.9835046620448
 30
0.0
 10
622.939706319432
 20
167.9676221655422
 30
0.0
 10
632.5170158478915
 20
167.9495590776434
 30
0.0
 10
642.261911564269
 20
167.9295347804041
 30
0.0
 10
652.1227116130627
 20
167.907818568347
 30
0.0
 10
662.9083321360351
 20
167.8825344425978
 30
0.0
 10
674.7384582698135
 20
167.8532324782101
 30
0.0
 10
687.7595442261122
 20
167.8195119497192
 30
0.0
 10
696.853728161958
 20
167.794972947458
 30
0.0
 10
701.6263033187178
 20
167.7820950209294
 30
0.0
  0
ARC
  5
9B
330
1F
100
AcDbEntity
  8
0
  6
Continuous
 62
     7
370
    25
100
AcDbCircle
 10
852.9615864494
 20
166.9332797622
 30
0.0
 40
151.3376635503637
100
AcDbArc
 50
179.6786405594
 51
180.223045518
  0
SPLINE
  5
9C
330
1F
100
AcDbEntity
  8
0
  6
Continuous
 62
     7
370
    25
100
AcDbSpline
210
0.0
220
0.0
230
1.0
 70
     8
 71
     3
 72
    19
 73
    15
 74
     0
 42
0.00000001
 43
0.00000001
 40
0.0
 40
0.0
 40
0.0
 40
0.0
 40
0.1176913467303545
 40
0.2277103772629414
 40
0.3301196093336896
 40
0.4251405047730649
 40
0.5132158729968435
 40
0.5948597693260892
 40
0.6705691078788798
 40
0.7475150867293541
 40
0.8183648033163068
 40
0.8837085174989034
 40
0.9441650323178603
 40
1.0
 40
1.0
 40
1.0
 40
1.0
 10
701.6266689266178
 20
513.0453390187294
 30
0.0
 10
695.3385736589815
 20
513.0656842521398
 30
0.0
 10
683.1723049787588
 20
513.1050484102032
 30
0.0
 10
665.5344293950118
 20
513.1573081394877
 30
0.0
 10
649.1077940066701
 20
513.2011935292355
 30
0.0
 10
633.8535684938123
 20
513.2366292031913
 30
0.0
 10
619.7087992814788
 20
513.2641836449721
 30
0.0
 10
606.5958157524767
 20
513.2845470962342
 30
0.0
 10
594.0774565715542
 20
513.2989341904278
 30
0.0
 10
582.1358141651954
 20
513.3075695438986
 30
0.0
 10
570.7479937806252
 20
513.3107664534576
 30
0.0
 10
560.241188405116
 20
513.3090693828444
 30
0.0
 10
550.5366069015759
 20
513.303633699529
 30
0.0
 10
544.3232755854006
 20
513.296933274525
 30
0.0
 10
541.3400721230678
 20
513.2937162030294
 30
0.0
  0
ARC
  5
9D
330
1F
100
AcDbEntity
  8
0
  6
Continuous
 62
     7
370
    25
100
AcDbCircle
 10
853.153291719
 20
512.3255656973
 30
0.0
 40
151.5286979113285
100
AcDbArc
 50
179.7278389121
 51
180.2721618779
  0
SPLINE
  5
9E
330
1F
100
AcDbEntity
  8
0
  6
Continuous
 62
     7
370
    25
100
AcDbSpline
210
0.0
220
0.0
230
1.0
 70
     8
 71
     3
 72
    19
 73
    15
 74
     0
 42
0.00000001
 43
0.00000001
 40
0.0
 40
0.0
 40
0.0
 40
0.0
 40
0.1174972869529248
 40
0.2277679638124577
 40
0.3301228665290156
 40
0.4251191592745556
 40
0.513215242041272
 40
0.594857522604804
 40
0.6705651609310544
 40
0.7475130596863254
 40
0.8183632570401389
 40
0.8837111044823991
 40
0.9441585828095802
 40
1.0
 40
1.0
 40
1.0
 40
1.0
 10
701.6263033187178
 20
511.6057887743294
 30
0.0
 10
695.3486951361523
 20
511.5888937870392
 30
0.0
 10
683.1795798277434
 20
511.5561429299469
 30
0.0
 10
665.5418636136427
 20
511.5115040228526
 30
0.0
 10
649.1063109030972
 20
511.472999826562
 30
0.0
 10
633.8554842190996
 20
511.4407777077765
 30
0.0
 10
619.7112767154516
 20
511.4144704842548
 30
0.0
 10
606.5976119512297
 20
511.3936531825682
 30
0.0
 10
594.0795646687596
 20
511.3773060261622
 30
0.0
 10
582.1381114281153
 20
511.3652997295874
 30
0.0
 10
570.7501581961711
 20
511.3574430564073
 30
0.0
 10
560.2437886944665
 20
511.3535158194325
 30
0.0
 10
550.5393089454902
 20
511.3527050012127
 30
0.0
 10
544.3262338004404
 20
511.3545249379139
 30
0.0
 10
541.3427423873878
 20
511.3553988635294
 30
0.0
  0
SPLINE
  5
9F
330
1F
100
AcDbEntity
  8
0
  6
Continuous
 62
     7
370
    25
100
AcDbSpline
210
0.0
220
0.0
230
1.0
 70
     8
 71
     3
 72
     9
 73
     5
 74
     0
 42
0.00000001
 43
0.00000001
 40
0.0
 40
0.0
 40
0.0
 40
0.0
 40
0.5593946979969447
 40
1.0
 40
1.0
 40
1.0
 40
1.0
 10
541.3400721230678
 20
513.2937162030294
 30
0.0
 10
541.340556634757
 20
512.8965015246665
 30
0.0
 10
541.3414227704051
 20
512.1864220766751
 30
0.0
 10
541.3423387860416
 20
511.6095651041301
 30
0.0
 10
541.3427423873878
 20
511.3553988635293
 30
0.0
  0
SPLINE
  5
A0
330
1F
100
AcDbEntity
  8
0
  6
Continuous
 62
     7
370
    25
100
AcDbSpline
210
0.0
220
0.0
230
1.0
 70
     8
 71
     3
 72
    11
 73
     7
 74
     0
 42
0.00000001
 43
0.00000001
 40
0.0
 40
0.0
 40
0.0
 40
0.0
 40
0.2796919454926072
 40
0.5610380561332103
 40
0.7819536744580556
 40
0.9999999999999999
 40
0.9999999999999999
 40
0.9999999999999999
 40
0.9999999999999999
 10
539.2342401542577
 20
165.8905894881294
 30
0.0
 10
538.1838895189209
 20
165.5588129324767
 30
0.0
 10
536.0769762230452
 20
164.8932976151652
 30
0.0
 10
533.8735096251145
 20
162.6471381094472
 30
0.0
 10
532.5810372816089
 20
160.1064068117591
 30
0.0
 10
532.4290203168426
 20
158.3922895889862
 30
0.0
 10
532.3535086670277
 20
157.5408331764294
 30
0.0
  0
LWPOLYLINE
  5
A1
330
1F
100
AcDbEntity
  8
0
  6
Continuous
 62
     7
370
    25
100
AcDbPolyline
 90
        9
 70
   128
 43
0.0
 10
532.353508667
 20
157.5408331764
 10
532.0843099847
 20
157.5408331764
 10
531.8172832692
 20
157.5408331764
 10
531.5545829631
 20
157.5408331764
 10
531.2983286025
 20
157.5408331764
 10
531.0505877161
 20
157.5408331764
 10
530.8133591432
 20
157.5408331764
 10
530.5885569073
 20
157.5408331764
 10
530.377994773
 20
157.5408293498
  0
SPLINE
  5
A2
330
1F
100
AcDbEntity
  8
0
  6
Continuous
 62
     7
370
    25
100
AcDbSpline
210
0.0
220
0.0
230
1.0
 70
     8
 71
     3
 72
    12
 73
     8
 74
     0
 42
0.00000001
 43
0.00000001
 40
0.0
 40
0.0
 40
0.0
 40
0.0
 40
0.1865904878571841
 40
0.373489500378798
 40
0.5604078072264744
 40
0.7804358382486734
 40
1.0
 40
1.0
 40
1.0
 40
1.0
 10
538.8642354292477
 20
167.7599013262294
 30
0.0
 10
538.015258880049
 20
167.4977530853851
 30
0.0
 10
536.3159020112457
 20
166.9730231453839
 30
0.0
 10
534.0963622225119
 20
165.4379950151928
 30
0.0
 10
532.1965029288702
 20
163.3416977017625
 30
0.0
 10
530.7761334659946
 20
160.6594069189774
 30
0.0
 10
530.5106142763938
 20
158.5796236588368
 30
0.0
 10
530.3779947730177
 20
157.5408293498294
 30
0.0
  0
LINE
  5
A3
330
1F
100
AcDbEntity
  8
0
  6
Continuous
 62
     7
370
    25
100
AcDbLine
 10
539.2342401543
 20
165.8905894881
 30
0.0
 11
538.8642354292
 21
167.7599013262
 31
0.0
  0
SPLINE
  5
A4
330
1F
100
AcDbEntity
  8
0
  6
Continuous
 62
     7
370
    25
100
AcDbSpline
210
0.0
220
0.0
230
1.0
 70
     8
 71
     3
 72
    11
 73
     7
 74
     0
 42
0.00000001
 43
0.00000001
 40
0.0
 40
0.0
 40
0.0
 40
0.0
 40
0.2774463463305087
 40
0.5585493605500278
 40
0.78001991811855
 40
1.0
 40
1.0
 40
1.0
 40
1.0
 10
532.3535086670277
 20
521.8477056992293
 30
0.0
 10
532.4760533801343
 20
520.7621399320784
 30
0.0
 10
532.7227579125592
 20
518.5767009342447
 30
0.0
 10
534.4937893886537
 20
515.9854558873334
 30
0.0
 10
536.7437479731028
 20
514.220368314446
 30
0.0
 10
538.4059467952302
 20
513.7382130607617
 30
0.0
 10
539.2342401542577
 20
513.4979493875294
 30
0.0
  0
LWPOLYLINE
  5
A5
330
1F
100
AcDbEntity
  8
0
  6
Continuous
 62
     7
370
    25
100
AcDbPolyline
 90
        9
 70
   128
 43
0.0
 10
539.2342401543
 20
513.4979493875
 10
539.1841874885
 20
513.2450768393
 10
539.1345050617
 20
512.9940747869
 10
539.0855603743
 20
512.7467998899
 10
539.0377154697
 20
512.5050812381
 10
538.9913242559
 20
512.2707068219
 10
538.9467298885
 20
512.0454103063
 10
538.9042622315
 20
511.8308582074
 10
538.8642354292
 20
511.6286375494
  0
SPLINE
  5
A6
330
1F
100
AcDbEntity
  8
0
  6
Continuous
 62
     7
370
    25
100
AcDbSpline
210
0.0
220
0.0
230
1.0
 70
     8
 71
     3
 72
    12
 73
     8
 74
     0
 42
0.00000001
 43
0.00000001
 40
0.0
 40
0.0
 40
0.0
 40
0.0
 40
0.1864668961185192
 40
0.3731926106980278
 40
0.5601992207211798
 40
0.7802797154036369
 40
1.0
 40
1.0
 40
1.0
 40
1.0
 10
530.3779947729078
 20
521.8477095321294
 30
0.0
 10
530.4793345038413
 20
520.9658149465276
 30
0.0
 10
530.6821546265644
 20
519.2008016942449
 30
0.0
 10
531.7817887947833
 20
516.7377358539708
 30
0.0
 10
533.4933137268858
 20
514.485238692186
 30
0.0
 10
535.8697939726834
 20
512.5947561945098
 30
0.0
 10
537.8666334342826
 20
511.9505012097098
 30
0.0
 10
538.8642354292477
 20
511.6286375494295
 30
0.0
  0
LWPOLYLINE
  5
A7
330
1F
100
AcDbEntity
  8
0
  6
Continuous
 62
     7
370
    25
100
AcDbPolyline
 90
        9
 70
   128
 43
0.0
 10
532.353508667
 20
521.8477056992
 10
532.0843099869
 20
521.8477057009
 10
531.817283274
 20
521.8477057024
 10
531.5545829709
 20
521.8477057037
 10
531.2983286138
 20
521.8477057049
 10
531.0505877311
 20
521.8477057058
 10
530.8133591621
 20
521.8477057065
 10
530.5885569303
 20
521.847705707
 10
530.3779947729
 20
521.8477095321
  0
SPLINE
  5
A8
330
1F
100
AcDbEntity
  8
0
  6
Continuous
 62
     7
370
    25
100
AcDbSpline
210
0.0
220
0.0
230
1.0
 70
     8
 71
     3
 72
    14
 73
    10
 74
     0
 42
0.00000001
 43
0.00000001
 40
0.0
 40
0.0
 40
0.0
 40
0.0
 40
0.1405407550109105
 40
0.2806535803921574
 40
0.4202735564392038
 40
0.559789668435669
 40
0.7060475285553375
 40
0.8528169524334079
 40
1.0
 40
1.0
 40
1.0
 40
1.0
 10
515.9081876393477
 20
570.6214747861294
 30
0.0
 10
517.1186534226621
 20
570.5444852401885
 30
0.0
 10
519.5358992671361
 20
570.3907405721777
 30
0.0
 10
522.982369505905
 20
569.1683076743432
 30
0.0
 10
526.0800974940505
 20
567.2835114176504
 30
0.0
 10
528.7307826720846
 20
564.7153502440445
 30
0.0
 10
530.7597834274088
 20
561.5692880236226
 30
0.0
 10
532.1000184699967
 20
557.9763397719895
 30
0.0
 10
532.2689327076697
 20
555.4440701576319
 30
0.0
 10
532.3535086670277
 20
554.1761537585295
 30
0.0
  0
LWPOLYLINE
  5
A9
330
1F
100
AcDbEntity
  8
0
  6
Continuous
 62
     7
370
    25
100
AcDbPolyline
 90
        9
 70
   128
 43
0.0
 10
532.353508667
 20
554.1761537585
 10
532.0843099968
 20
554.1761537585
 10
531.817283293
 20
554.1761537585
 10
531.554582998
 20
554.1761537585
 10
531.2983286476
 20
554.1761537585
 10
531.05058777
 20
554.1761537585
 10
530.8133592045
 20
554.1761537585
 10
530.5885569741
 20
554.1761537585
 10
530.3779948479
 20
554.1761540716
  0
SPLINE
  5
AA
330
1F
100
AcDbEntity
  8
0
  6
Continuous
 62
     7
370
    25
100
AcDbSpline
210
0.0
220
0.0
230
1.0
 70
     8
 71
     3
 72
    13
 73
     9
 74
     0
 42
0.00000001
 43
0.00000001
 40
0.0
 40
0.0
 40
0.0
 40
0.0
 40
0.186666176667553
 40
0.3731517605199822
 40
0.5595329874844457
 40
0.7062589505379852
 40
0.8532150407246307
 40
1.0
 40
1.0
 40
1.0
 40
1.0
 10
515.9081879731377
 20
568.6459609674295
 30
0.0
 10
517.3377807620585
 20
568.5610981508653
 30
0.0
 10
520.195583260272
 20
568.3914546194612
 30
0.0
 10
524.1349000027361
 20
566.527075707645
 30
0.0
 10
527.1305325101525
 20
563.8607203790444
 30
0.0
 10
529.1023830836295
 20
560.7477822744758
 30
0.0
 10
530.2427179391732
 20
557.5430685611582
 30
0.0
 10
530.3329200619999
 20
555.2980229202943
 30
0.0
 10
530.3779948479377
 20
554.1761540716294
 30
0.0
  0
LWPOLYLINE
  5
AB
330
1F
100
AcDbEntity
  8
0
  6
Continuous
 62
     7
370
    25
100
AcDbPolyline
 90
        9
 70
   128
 43
0.0
 10
515.9081876393
 20
570.6214747861
 10
515.9081876326
 20
570.3522761166
 10
515.9081876262
 20
570.0852494138
 10
515.9081876202
 20
569.82254912
 10
515.9081876147
 20
569.566294771
 10
515.9081876096
 20
569.318553895
 10
515.9081876052
 20
569.0813253313
 10
515.9081876012
 20
568.8565231028
 10
515.9081879731
 20
568.6459609674
  0
SPLINE
  5
AC
330
1F
100
AcDbEntity
  8
0
  6
Continuous
 62
     7
370
    25
100
AcDbSpline
210
0.0
220
0.0
230
1.0
 70
     8
 71
     3
 72
    14
 73
    10
 74
     0
 42
0.00000001
 43
0.00000001
 40
0.0
 40
0.0
 40
0.0
 40
0.0
 40
0.1405497899114911
 40
0.2806887708609084
 40
0.4203315137193693
 40
0.5598447816015282
 40
0.706072856490617
 40
0.8528071575998661
 40
1.0
 40
1.0
 40
1.0
 40
1.0
 10
532.3535086670277
 20
125.2123851171294
 30
0.0
 10
532.2764435986825
 20
124.0018471747726
 30
0.0
 10
532.1225387132764
 20
121.5843095367971
 30
0.0
 10
530.8997544135682
 20
118.1374308252583
 30
0.0
 10
529.0146140786114
 20
115.0394471231502
 30
0.0
 10
526.4463976000363
 20
112.3889411442159
 30
0.0
 10
523.3007836832677
 20
110.3603407268623
 30
0.0
 10
519.7082582469308
 20
109.0203549333148
 30
0.0
 10
517.1761945579145
 20
108.8515821355069
 30
0.0
 10
515.9081876393477
 20
108.7670640895294
 30
0.0
  0
LWPOLYLINE
  5
AD
330
1F
100
AcDbEntity
  8
0
  6
Continuous
 62
     7
370
    25
100
AcDbPolyline
 90
        9
 70
   128
 43
0.0
 10
515.9081876393
 20
108.7670640895
 10
515.9081876393
 20
109.0362627603
 10
515.9081876393
 20
109.3032894646
 10
515.9081876393
 20
109.5659897601
 10
515.9081876393
 20
109.822244111
 10
515.9081876393
 20
110.069984989
 10
515.9081876393
 20
110.307213555
 10
515.9081876393
 20
110.5320157858
 10
515.908187972
 20
110.7425779082
  0
SPLINE
  5
AE
330
1F
100
AcDbEntity
  8
0
  6
Continuous
 62
     7
370
    25
100
AcDbSpline
210
0.0
220
0.0
230
1.0
 70
     8
 71
     3
 72
    13
 73
     9
 74
     0
 42
0.00000001
 43
0.00000001
 40
0.0
 40
0.0
 40
0.0
 40
0.0
 40
0.1866792955376227
 40
0.3731729053324422
 40
0.5596022559835269
 40
0.706293656559534
 40
0.8532058264967464
 40
1.0
 40
1.0
 40
1.0
 40
1.0
 10
530.3779948479277
 20
125.2123848045293
 30
0.0
 10
530.2931650621123
 20
123.7826854229055
 30
0.0
 10
530.1235898687825
 20
120.9247087498305
 30
0.0
 10
528.2587490184621
 20
116.984987110573
 30
0.0
 10
525.5920094900014
 20
113.9894426034571
 30
0.0
 10
522.4791092678897
 20
112.0180069743203
 30
0.0
 10
519.2749105999229
 20
110.8779092471492
 30
0.0
 10
517.0301282344158
 20
110.7876762708457
 30
0.0
 10
515.9081879719778
 20
110.7425779082294
 30
0.0
  0
LWPOLYLINE
  5
AF
330
1F
100
AcDbEntity
  8
0
  6
Continuous
 62
     7
370
    25
100
AcDbPolyline
 90
        9
 70
   128
 43
0.0
 10
532.353508667
 20
125.2123851171
 10
532.0843099974
 20
125.2123851225
 10
531.8172832944
 20
125.2123851276
 10
531.5545830002
 20
125.2123851324
 10
531.2983286508
 20
125.2123851369
 10
531.0505877743
 20
125.212385141
 10
530.8133592099
 20
125.2123851447
 10
530.5885569807
 20
125.212385148
 10
530.3779948479
 20
125.2123848045
  0
SPLINE
  5
B0
330
1F
100
AcDbEntity
  8
0
  6
Continuous
 62
     7
370
    25
100
AcDbSpline
210
0.0
220
0.0
230
1.0
 70
     8
 71
     3
 72
     9
 73
     5
 74
     0
 42
0.00000001
 43
0.00000001
 40
0.0
 40
0.0
 40
0.0
 40
0.0
 40
0.5593910372378833
 40
1.0
 40
1.0
 40
1.0
 40
1.0
 10
538.8642354292477
 20
511.6286375494295
 30
0.0
 10
539.3221314341208
 20
511.5369606971729
 30
0.0
 10
540.1406930026686
 20
511.3730738163442
 30
0.0
 10
540.9750966581994
 20
511.360804732039
 30
0.0
 10
541.3427423873878
 20
511.3553988635293
 30
0.0
  0
SPLINE
  5
B1
330
1F
100
AcDbEntity
  8
0
  6
Continuous
 62
     7
370
    25
100
AcDbSpline
210
0.0
220
0.0
230
1.0
 70
     8
 71
     3
 72
     9
 73
     5
 74
     0
 42
0.00000001
 43
0.00000001
 40
0.0
 40
0.0
 40
0.0
 40
0.0
 40
0.5592304605834886
 40
1.0
 40
1.0
 40
1.0
 40
1.0
 10
539.2342401542577
 20
513.4979493875294
 30
0.0
 10
539.6242422629266
 20
513.4319210118977
 30
0.0
 10
540.321632938431
 20
513.3138509490425
 30
0.0
 10
541.0285046183036
 20
513.2998759548034
 30
0.0
 10
541.3400721230678
 20
513.2937162030294
 30
0.0
  0
SPLINE
  5
B2
330
1F
100
AcDbEntity
  8
0
  6
Continuous
 62
     7
370
    25
100
AcDbSpline
210
0.0
220
0.0
230
1.0
 70
     8
 71
     3
 72
     9
 73
     5
 74
     0
 42
0.00000001
 43
0.00000001
 40
0.0
 40
0.0
 40
0.0
 40
0.0
 40
0.5595089700913304
 40
1.0
 40
1.0
 40
1.0
 40
1.0
 10
541.3400719748378
 20
166.0948236207294
 30
0.0
 10
540.9444511594879
 20
166.0846839617823
 30
0.0
 10
540.2373654173502
 20
166.0665615374975
 30
0.0
 10
539.5409881110951
 20
165.9444003815344
 30
0.0
 10
539.2342401542577
 20
165.8905894881294
 30
0.0
  0
SPLINE
  5
B3
330
1F
100
AcDbEntity
  8
0
  6
Continuous
 62
     7
370
    25
100
AcDbSpline
210
0.0
220
0.0
230
1.0
 70
     8
 71
     3
 72
     9
 73
     5
 74
     0
 42
0.00000001
 43
0.00000001
 40
0.0
 40
0.0
 40
0.0
 40
0.0
 40
0.559427468981405
 40
1.0
 40
1.0
 40
1.0
 40
1.0
 10
541.3427422880977
 20
168.0331392967294
 30
0.0
 10
540.8756969577247
 20
168.0228640593992
 30
0.0
 10
540.0408338945589
 20
168.0044966428886
 30
0.0
 10
539.2240763624135
 20
167.8347062912107
 30
0.0
 10
538.8642354292477
 20
167.7599013262294
 30
0.0
  0
SPLINE
  5
B4
330
1F
100
AcDbEntity
  8
0
  6
Continuous
 62
     7
370
    25
100
AcDbSpline
210
0.0
220
0.0
230
1.0
 70
     8
 71
     3
 72
    18
 73
    14
 74
     0
 42
0.00000001
 43
0.00000001
 40
0.0
 40
0.0
 40
0.0
 40
0.0
 40
0.1239421670555158
 40
0.2411990390284225
 40
0.3517388079059581
 40
0.4552205696220246
 40
0.5516039169102291
 40
0.6412857232344342
 40
0.7203691198715495
 40
0.7949786040667804
 40
0.8660463429906422
 40
0.9343977395046947
 40
1.0
 40
1.0
 40
1.0
 40
1.0
 10
701.6267762148177
 20
166.3441476842293
 30
0.0
 10
709.0328771015879
 20
166.3749017969061
 30
0.0
 10
723.4456024820984
 20
166.4347511815024
 30
0.0
 10
744.4635805433227
 20
166.5207716629305
 30
0.0
 10
764.2589738473886
 20
166.5976587578331
 30
0.0
 10
782.8070992852263
 20
166.6643140626493
 30
0.0
 10
800.1088874398716
 20
166.7199718025681
 30
0.0
 10
815.9527791490669
 20
166.7641700311042
 30
0.0
 10
830.4955958054786
 20
166.7979956605912
 30
0.0
 10
843.9261449733342
 20
166.8229851342564
 30
0.0
 10
856.715414994632
 20
166.8401609070849
 30
0.0
 10
868.9664658982437
 20
166.8505692789318
 30
0.0
 10
876.9708673395877
 20
166.8519264608288
 30
0.0
 10
880.8909307420178
 20
166.8525911250294
 30
0.0
  0
SPLINE
  5
B5
330
1F
100
AcDbEntity
  8
0
  6
Continuous
 62
     7
370
    25
100
AcDbSpline
210
0.0
220
0.0
230
1.0
 70
     8
 71
     3
 72
    18
 73
    14
 74
     0
 42
0.00000001
 43
0.00000001
 40
0.0
 40
0.0
 40
0.0
 40
0.0
 40
0.1239463293107286
 40
0.2412006717628129
 40
0.3517400992516494
 40
0.4552221600565877
 40
0.5516051667152567
 40
0.6412866217605935
 40
0.7203698466639439
 40
0.79497915566173
 40
0.8660466958619678
 40
0.9343979085922541
 40
1.0
 40
1.0
 40
1.0
 40
1.0
 10
701.6263033187178
 20
167.7820950209294
 30
0.0
 10
709.0326724698923
 20
167.7608288870446
 30
0.0
 10
723.4455334599763
 20
167.7194447992114
 30
0.0
 10
744.4636441632147
 20
167.6599635965379
 30
0.0
 10
764.2589360489578
 20
167.6067999978398
 30
0.0
 10
782.807087571809
 20
167.5607108633994
 30
0.0
 10
800.1088979288425
 20
167.5222258094258
 30
0.0
 10
815.9527798579835
 20
167.4916646404186
 30
0.0
 10
830.4955931850053
 20
167.4682756910973
 30
0.0
 10
843.9261452030238
 20
167.4509965428125
 30
0.0
 10
856.7154156614733
 20
167.4391202356633
 30
0.0
 10
868.9664659464454
 20
167.4319232907429
 30
0.0
 10
876.9708674330219
 20
167.4309848600013
 30
0.0
 10
880.8909310803178
 20
167.4305252743293
 30
0.0
  0
LWPOLYLINE
  5
B6
330
1F
100
AcDbEntity
  8
0
  6
Continuous
 62
     7
370
    25
100
AcDbPolyline
 90
        9
 70
   128
 43
0.0
 10
880.8909307428
 20
167.4305252748
 10
880.890930076
 20
167.3718590233
 10
880.8909295949
 20
167.3079094994
 10
880.8909293043
 20
167.239327354
 10
880.890929207
 20
167.1668103724
 10
880.8909293043
 20
167.0910963746
 10
880.8909295949
 20
167.0129557087
 10
880.890930076
 20
166.9331834125
 10
880.8909307428
 20
166.852591125
  0
SPLINE
  5
B7
330
1F
100
AcDbEntity
  8
0
  6
Continuous
 62
     7
370
    25
100
AcDbSpline
210
0.0
220
0.0
230
1.0
 70
     8
 71
     3
 72
    18
 73
    14
 74
     0
 42
0.00000001
 43
0.00000001
 40
0.0
 40
0.0
 40
0.0
 40
0.0
 40
0.0694289417908686
 40
0.1420328726244933
 40
0.2178750622074551
 40
0.2979275756808765
 40
0.3832438265965785
 40
0.4748037903489429
 40
0.5673934747107015
 40
0.666310266835262
 40
0.7714778050560976
 40
0.8827077288159992
 40
1.0
 40
1.0
 40
1.0
 40
1.0
 10
880.8909307418178
 20
512.5359480074294
 30
0.0
 10
876.7422014486718
 20
512.5367174849644
 30
0.0
 10
868.2550212605908
 20
512.5382916282811
 30
0.0
 10
855.235892375302
 20
512.5501913939626
 30
0.0
 10
841.581960608635
 20
512.5696943407269
 30
0.0
 10
827.1684174262119
 20
512.5980613277399
 30
0.0
 10
811.8156765488785
 20
512.6357777207354
 30
0.0
 10
795.713798991944
 20
512.6828393035083
 30
0.0
 10
778.7992451076635
 20
512.7389839153291
 30
0.0
 10
761.0715958123479
 20
512.8038960419801
 30
0.0
 10
742.2301241563567
 20
512.877720282894
 30
0.0
 10
722.2906484367647
 20
512.9595620518409
 30
0.0
 10
708.6354129956075
 20
513.0162454548474
 30
0.0
 10
701.6266689266178
 20
513.0453390187294
 30
0.0
  0
LWPOLYLINE
  5
B8
330
1F
100
AcDbEntity
  8
0
  6
Continuous
 62
     7
370
    25
100
AcDbPolyline
 90
        9
 70
   128
 43
0.0
 10
880.8909307686
 20
511.958013425
 10
880.8909304568
 20
512.016679673
 10
880.8909302307
 20
512.0806292189
 10
880.8909300927
 20
512.1492114078
 10
880.8909300441
 20
512.2217284499
 10
880.8909300854
 20
512.2974425202
 10
880.8909302162
 20
512.3755832656
 10
880.8909304352
 20
512.4553556428
 10
880.8909307402
 20
512.5359480074
  0
SPLINE
  5
B9
330
1F
100
AcDbEntity
  8
0
  6
Continuous
 62
     7
370
    25
100
AcDbSpline
210
0.0
220
0.0
230
1.0
 70
     8
 71
     3
 72
    18
 73
    14
 74
     0
 42
0.00000001
 43
0.00000001
 40
0.0
 40
0.0
 40
0.0
 40
0.0
 40
0.0694288041495516
 40
0.1420325820877687
 40
0.2178746079434316
 40
0.2979269901785873
 40
0.3832430813095461
 40
0.4748027051110041
 40
0.5673922304275554
 40
0.6663094080518681
 40
0.7714764141164375
 40
0.8827040936865369
 40
1.0
 40
1.0
 40
1.0
 40
1.0
 10
880.8909310792177
 20
511.9580134237294
 30
0.0
 10
876.7422015414843
 20
511.957481363442
 30
0.0
 10
868.2550213884339
 20
511.956392911792
 30
0.0
 10
855.235893070035
 20
511.9481647351617
 30
0.0
 10
841.5819601917163
 20
511.9346792855194
 30
0.0
 10
827.1684147585872
 20
511.9150647348133
 30
0.0
 10
811.8156802433917
 20
511.8889854984736
 30
0.0
 10
795.7138091810596
 20
511.8564444103373
 30
0.0
 10
778.799227548979
 20
511.8176227249525
 30
0.0
 10
761.071560329564
 20
511.7727390045259
 30
0.0
 10
742.2301930736054
 20
511.7216930928943
 30
0.0
 10
722.290625340649
 20
511.6651013997744
 30
0.0
 10
708.6352789103386
 20
511.6259065765771
 30
0.0
 10
701.6263033187178
 20
511.6057887743294
 30
0.0
  0
LINE
  5
BA
330
1F
100
AcDbEntity
  8
0
  6
Continuous
 62
     7
370
    25
100
AcDbLine
 10
885.1787737627
 20
497.3522148671
 30
0.0
 11
885.7394676486
 21
499.994567492
 31
0.0
  0
ARC
  5
BB
330
1F
100
AcDbEntity
  8
0
  6
Continuous
 62
     7
370
    25
100
AcDbCircle
 10
920.0246542425
 20
554.2494672484
 30
0.0
 40
66.7198005720119
100
AcDbArc
 50
237.9125841281
 51
238.5152257232
  0
SPLINE
  5
BC
330
1F
100
AcDbEntity
  8
0
  6
Continuous
 62
     7
370
    25
100
AcDbSpline
210
0.0
220
0.0
230
1.0
 70
     8
 71
     3
 72
     9
 73
     5
 74
     0
 42
0.00000001
 43
0.00000001
 40
0.0
 40
0.0
 40
0.0
 40
0.0
 40
0.4895632728856132
 40
1.0
 40
1.0
 40
1.0
 40
1.0
 10
884.5822613947178
 20
497.7218759373293
 30
0.0
 10
884.8034694390141
 20
498.0891109382021
 30
0.0
 10
885.2553171501229
 20
498.8392386973947
 30
0.0
 10
885.5758539111164
 20
499.6041358783855
 30
0.0
 10
885.7394676463177
 20
499.9945674920294
 30
0.0
  0
SPLINE
  5
BD
330
1F
100
AcDbEntity
  8
0
  6
Continuous
 62
     7
370
    25
100
AcDbSpline
210
0.0
220
0.0
230
1.0
 70
     8
 71
     3
 72
     9
 73
     5
 74
     0
 42
0.00000001
 43
0.00000001
 40
0.0
 40
0.0
 40
0.0
 40
0.0
 40
0.627217900132302
 40
1.0
 40
1.0
 40
1.0
 40
1.0
 10
885.7394174965177
 20
179.3942694378294
 30
0.0
 10
885.5336831920871
 20
179.8741258905433
 30
0.0
 10
885.205672297648
 20
180.6391813084653
 30
0.0
 10
884.7515500438028
 20
181.3876479667668
 30
0.0
 10
884.5822613964178
 20
181.6666629393294
 30
0.0
  0
ARC
  5
BE
330
1F
100
AcDbEntity
  8
0
  6
Continuous
 62
     7
370
    25
100
AcDbCircle
 10
920.0350478576
 20
125.1223083177
 30
0.0
 40
66.7395224194202
100
AcDbArc
 50
121.484865038
 51
122.087332114
  0
LINE
  5
BF
330
1F
100
AcDbEntity
  8
0
  6
Continuous
 62
     7
370
    25
100
AcDbLine
 10
885.7394174966
 20
179.3942694378
 30
0.0
 11
885.1787737627
 21
182.0363239804
 31
0.0
  0
SPLINE
  5
C0
330
1F
100
AcDbEntity
  8
0
  6
Continuous
 62
     7
370
    25
100
AcDbSpline
210
0.0
220
0.0
230
1.0
 70
     8
 71
     3
 72
    11
 73
     7
 74
     0
 42
0.00000001
 43
0.00000001
 40
0.0
 40
0.0
 40
0.0
 40
0.0
 40
0.279595441920314
 40
0.5592278777771018
 40
0.7796226626869195
 40
0.9999999999999999
 40
0.9999999999999999
 40
0.9999999999999999
 40
0.9999999999999999
 10
880.8909307420179
 20
166.8525911250294
 30
0.0
 10
881.689084384675
 20
166.9551613825954
 30
0.0
 10
883.2854972755921
 20
167.1603154690418
 30
0.0
 10
885.0734499736717
 20
168.6171946867973
 30
0.0
 10
886.1407466616911
 20
170.4103841513422
 30
0.0
 10
886.2674255705351
 20
171.6651404436274
 30
0.0
 10
886.3307625177177
 20
172.2924937555294
 30
0.0
  0
SPLINE
  5
C1
330
1F
100
AcDbEntity
  8
0
  6
Continuous
 62
     7
370
    25
100
AcDbSpline
210
0.0
220
0.0
230
1.0
 70
     8
 71
     3
 72
    11
 73
     7
 74
     0
 42
0.00000001
 43
0.00000001
 40
0.0
 40
0.0
 40
0.0
 40
0.0
 40
0.2502413600319569
 40
0.5000658091946167
 40
0.7498580176834584
 40
1.0
 40
1.0
 40
1.0
 40
1.0
 10
880.8909310803177
 20
167.4305252748464
 30
0.0
 10
881.527420079202
 20
167.5064425311569
 30
0.0
 10
882.7993376640085
 20
167.6581505629705
 30
0.0
 10
884.4133614486143
 20
168.7708220709484
 30
0.0
 10
885.5258451709902
 20
170.3846697047868
 30
0.0
 10
885.6774668200628
 20
171.6562559193983
 30
0.0
 10
885.7533306848647
 20
172.2924938528289
 30
0.0
  0
LINE
  5
C2
330
1F
100
AcDbEntity
  8
0
  6
Continuous
 62
     7
370
    25
100
AcDbLine
 10
885.7533306829
 20
172.2924937555
 30
0.0
 11
886.3307625177
 21
172.2924937555
 31
0.0
  0
SPLINE
  5
C3
330
1F
100
AcDbEntity
  8
0
  6
Continuous
 62
     7
370
    25
100
AcDbSpline
210
0.0
220
0.0
230
1.0
 70
     8
 71
     3
 72
    11
 73
     7
 74
     0
 42
0.00000001
 43
0.00000001
 40
0.0
 40
0.0
 40
0.0
 40
0.0
 40
0.2796660019580137
 40
0.5592835697768073
 40
0.779665136925982
 40
1.0
 40
1.0
 40
1.0
 40
1.0
 10
886.3307625177177
 20
507.0960451201294
 30
0.0
 10
886.2281449171163
 20
507.8944034103675
 30
0.0
 10
886.0229274878096
 20
509.4909817266417
 30
0.0
 10
884.5658283753052
 20
511.2789095571774
 30
0.0
 10
882.772756492758
 20
512.3459887088957
 30
0.0
 10
881.5181616743744
 20
512.4726327148697
 30
0.0
 10
880.8909307418178
 20
512.5359480074294
 30
0.0
  0
LINE
  5
C4
330
1F
100
AcDbEntity
  8
0
  6
Continuous
 62
     7
370
    25
100
AcDbLine
 10
885.7533306849
 20
507.0960451201
 30
0.0
 11
886.3307625177
 21
507.0960451201
 31
0.0
  0
SPLINE
  5
C5
330
1F
100
AcDbEntity
  8
0
  6
Continuous
 62
     7
370
    25
100
AcDbSpline
210
0.0
220
0.0
230
1.0
 70
     8
 71
     3
 72
    11
 73
     7
 74
     0
 42
0.00000001
 43
0.00000001
 40
0.0
 40
0.0
 40
0.0
 40
0.0
 40
0.2501419857269198
 40
0.4999341953275271
 40
0.7497586433729838
 40
1.0
 40
1.0
 40
1.0
 40
1.0
 10
885.7533306848572
 20
507.0960450172294
 30
0.0
 10
885.6774668067617
 20
507.7322829467623
 30
0.0
 10
885.5258451318163
 20
509.0038691477494
 30
0.0
 10
884.4133613891288
 20
510.6177167370233
 30
0.0
 10
882.7993376149341
 20
511.730388185494
 30
0.0
 10
881.5274200601654
 20
511.8820961839783
 30
0.0
 10
880.8909310792172
 20
511.9580134232639
 30
0.0
  0
ARC
  5
C6
330
1F
100
AcDbEntity
  8
0
  6
Continuous
 62
     7
370
    25
100
AcDbCircle
 10
890.9263033187
 20
554.6942694378
 30
0.0
 40
30.83725830020001
100
AcDbArc
 50
0.0
 51
90.0
  0
LINE
  5
C7
330
1F
100
AcDbEntity
  8
0
  6
Continuous
 62
     7
370
    25
100
AcDbLine
 10
921.7635616189
 20
124.6942694378
 30
0.0
 11
921.7635616189
 21
554.6942694378
 31
0.0
  0
ARC
  5
C8
330
1F
100
AcDbEntity
  8
0
  6
Continuous
 62
     7
370
    25
100
AcDbCircle
 10
890.9263033187
 20
124.6942694378
 30
0.0
 40
30.83725830020001
100
AcDbArc
 50
270.0
 51
0.0
  0
LINE
  5
C9
330
1F
100
AcDbEntity
  8
0
  6
Continuous
 62
     7
370
    25
100
AcDbLine
 10
170.9263033187
 20
93.8570111376
 30
0.0
 11
890.9263033187
 21
93.8570111376
 31
0.0
  0
ARC
  5
CA
330
1F
100
AcDbEntity
  8
0
  6
Continuous
 62
     7
370
    25
100
AcDbCircle
 10
170.9263033187
 20
124.6942694378
 30
0.0
 40
30.83725830020001
100
AcDbArc
 50
180.0
 51
270.0
  0
LINE
  5
CB
330
1F
100
AcDbEntity
  8
0
  6
Continuous
 62
     7
370
    25
100
AcDbLine
 10
140.0890450185
 20
554.6942694378
 30
0.0
 11
140.0890450185
 21
124.6942694378
 31
0.0
  0
ARC
  5
CC
330
1F
100
AcDbEntity
  8
0
  6
Continuous
 62
     7
370
    25
100
AcDbCircle
 10
170.9263033187
 20
554.6942694378
 30
0.0
 40
30.83725830020001
100
AcDbArc
 50
90.0
 51
180.0
  0
LINE
  5
CD
330
1F
100
AcDbEntity
  8
0
  6
Continuous
 62
     7
370
    25
100
AcDbLine
 10
890.9263033187
 20
585.531527738
 30
0.0
 11
170.9263033187
 21
585.531527738
 31
0.0
  0
LINE
  5
CE
330
1F
100
AcDbEntity
  8
0
  6
Continuous
 62
     7
370
    25
100
AcDbLine
 10
886.3307625177
 20
172.2924937555
 30
0.0
 11
886.3307625177
 21
507.0960451201
 31
0.0
  0
LINE
  5
CF
330
1F
100
AcDbEntity
  8
0
  6
Continuous
 62
     7
370
    25
100
AcDbLine
 10
532.353508667
 20
554.1761537585
 30
0.0
 11
532.353508667
 21
521.8477056992
 31
0.0
  0
LINE
  5
D0
330
1F
100
AcDbEntity
  8
0
  6
Continuous
 62
     7
370
    25
100
AcDbLine
 10
171.2323418787
 20
570.6214747861
 30
0.0
 11
515.9081876393
 21
570.6214747861
 31
0.0
  0
LINE
  5
D1
330
1F
100
AcDbEntity
  8
0
  6
Continuous
 62
     7
370
    25
100
AcDbLine
 10
154.7464985513
 20
125.3432519592
 30
0.0
 11
154.7464985513
 21
554.0452869164
 31
0.0
  0
LINE
  5
D2
330
1F
100
AcDbEntity
  8
0
  6
Continuous
 62
     7
370
    25
100
AcDbLine
 10
515.9081876393
 20
108.7670640895
 30
0.0
 11
171.2323418787
 21
108.7670640895
 31
0.0
  0
LINE
  5
D3
330
1F
100
AcDbEntity
  8
0
  6
Continuous
 62
     7
370
    25
100
AcDbLine
 10
532.353508667
 20
157.5408331764
 30
0.0
 11
532.353508667
 21
125.2123851171
 31
0.0
  0
LINE
  5
D4
330
1F
100
AcDbEntity
  8
0
  6
Continuous
 62
     7
370
    25
100
AcDbLine
 10
885.7533306843
 20
172.2924938528
 30
0.0
 11
885.7533306844
 21
507.0960450172
 31
0.0
  0
LINE
  5
D5
330
1F
100
AcDbEntity
  8
0
  6
Continuous
 62
     7
370
    25
100
AcDbLine
 10
157.0242683585
 20
125.3432519281
 30
0.0
 11
157.0242683586
 21
554.045286945
 31
0.0
  0
LINE
  5
D6
330
1F
100
AcDbEntity
  8
0
  6
Continuous
 62
     7
370
    25
100
AcDbLine
 10
171.2323415093
 20
568.6459609643
 30
0.0
 11
515.9081879731
 21
568.6459609674
 31
0.0
  0
LINE
  5
D7
330
1F
100
AcDbEntity
  8
0
  6
Continuous
 62
     7
370
    25
100
AcDbLine
 10
515.908187972
 20
110.7425779082
 30
0.0
 11
171.2323415083
 21
110.7425779113
 31
0.0
  0
LINE
  5
D8
330
1F
100
AcDbEntity
  8
0
  6
Continuous
 62
     7
370
    25
100
AcDbLine
 10
530.377994773
 20
157.5408293498
 30
0.0
 11
530.3779948479
 21
125.2123848045
 31
0.0
  0
LINE
  5
D9
330
1F
100
AcDbEntity
  8
0
  6
Continuous
 62
     7
370
    25
100
AcDbLine
 10
530.3779948479
 20
554.1761540716
 30
0.0
 11
530.3779947729
 21
521.8477095321
 31
0.0
  0
LINE
  5
DA
330
1F
100
AcDbEntity
  8
0
  6
Continuous
 62
     7
370
    25
100
AcDbLine
 10
140.0890450185
 20
124.6942694378
 30
0.0
 11
139.0990955248
 21
124.6942694378
 31
0.0
  0
LINE
  5
DB
330
1F
100
AcDbEntity
  8
0
  6
Continuous
 62
     7
370
    25
100
AcDbLine
 10
170.9263033187
 20
93.8570111376
 30
0.0
 11
170.9263033187
 21
92.8670616439
 31
0.0
  0
ARC
  5
DC
330
1F
100
AcDbEntity
  8
0
  6
Continuous
 62
     7
370
    25
100
AcDbCircle
 10
170.9263033187
 20
124.6942694378
 30
0.0
 40
31.82720779389999
100
AcDbArc
 50
180.0
 51
270.0
  0
LINE
  5
DD
330
1F
100
AcDbEntity
  8
0
  6
Continuous
 62
     7
370
    25
100
AcDbLine
 10
921.7635616189
 20
124.6942694378
 30
0.0
 11
922.7535111126
 21
124.6942694378
 31
0.0
  0
LINE
  5
DE
330
1F
100
AcDbEntity
  8
0
  6
Continuous
 62
     7
370
    25
100
AcDbLine
 10
921.7635616189
 20
554.6942694378
 30
0.0
 11
922.7535111126
 21
554.6942694378
 31
0.0
  0
LINE
  5
DF
330
1F
100
AcDbEntity
  8
0
  6
Continuous
 62
     7
370
    25
100
AcDbLine
 10
922.7535111126
 20
124.6942694378
 30
0.0
 11
922.7535111126
 21
554.6942694378
 31
0.0
  0
LINE
  5
E0
330
1F
100
AcDbEntity
  8
0
  6
Continuous
 62
     7
370
    25
100
AcDbLine
 10
890.9263033187
 20
93.8570111376
 30
0.0
 11
890.9263033187
 21
92.8670616439
 31
0.0
  0
LINE
  5
E1
330
1F
100
AcDbEntity
  8
0
  6
Continuous
 62
     7
370
    25
100
AcDbLine
 10
170.9263033187
 20
92.8670616439
 30
0.0
 11
890.9263033187
 21
92.8670616439
 31
0.0
  0
LINE
  5
E2
330
1F
100
AcDbEntity
  8
0
  6
Continuous
 62
     7
370
    25
100
AcDbLine
 10
890.9263033187
 20
585.531527738
 30
0.0
 11
890.9263033187
 21
586.5214772317
 31
0.0
  0
LINE
  5
E3
330
1F
100
AcDbEntity
  8
0
  6
Continuous
 62
     7
370
    25
100
AcDbLine
 10
170.9263033187
 20
585.531527738
 30
0.0
 11
170.9263033187
 21
586.5214772317
 31
0.0
  0
LINE
  5
E4
330
1F
100
AcDbEntity
  8
0
  6
Continuous
 62
     7
370
    25
100
AcDbLine
 10
890.9263033187
 20
586.5214772317
 30
0.0
 11
170.9263033187
 21
586.5214772317
 31
0.0
  0
LINE
  5
E5
330
1F
100
AcDbEntity
  8
0
  6
Continuous
 62
     7
370
    25
100
AcDbLine
 10
140.0890450185
 20
554.6942694378
 30
0.0
 11
139.0990955248
 21
554.6942694378
 31
0.0
  0
ARC
  5
E6
330
1F
100
AcDbEntity
  8
0
  6
Continuous
 62
     7
370
    25
100
AcDbCircle
 10
170.9263033187
 20
554.6942694378
 30
0.0
 40
31.82720779390002
100
AcDbArc
 50
90.0
 51
180.0
  0
LINE
  5
E7
330
1F
100
AcDbEntity
  8
0
  6
Continuous
 62
     7
370
    25
100
AcDbLine
 10
139.0990955248
 20
124.6942694378
 30
0.0
 11
139.0990955248
 21
554.6942694378
 31
0.0
  0
ARC
  5
E8
330
1F
100
AcDbEntity
  8
0
  6
Continuous
 62
     7
370
    25
100
AcDbCircle
 10
890.9263033187
 20
124.6942694378
 30
0.0
 40
31.82720779389999
100
AcDbArc
 50
270.0
 51
0.0
  0
ARC
  5
E9
330
1F
100
AcDbEntity
  8
0
  6
Continuous
 62
     7
370
    25
100
AcDbCircle
 10
890.9263033187
 20
554.6942694378
 30
0.0
 40
31.82720779390002
100
AcDbArc
 50
0.0
 51
90.0
  0
LINE
  5
EA
330
1F
100
AcDbEntity
  8
0
  6
Continuous
 62
     7
370
    25
100
AcDbLine
 10
885.7394676463
 20
499.994567492
 30
0.0
 11
883.7863502767
 21
499.9942694378
 31
0.0
  0
LINE
  5
EB
330
1F
100
AcDbEntity
  8
0
  6
Continuous
 62
     7
370
    25
100
AcDbLine
 10
883.7863502778
 20
507.0960457114
 30
0.0
 11
883.7863502781
 21
499.9942694378
 31
0.0
  0
LINE
  5
EC
330
1F
100
AcDbEntity
  8
0
  6
Continuous
 62
     7
370
    25
100
AcDbLine
 10
885.7533306844
 20
507.0960450172
 30
0.0
 11
883.7863502779
 21
507.0960457114
 31
0.0
  0
LINE
  5
ED
330
1F
100
AcDbEntity
  8
0
  6
Continuous
 62
     7
370
    25
100
AcDbLine
 10
885.7533306843
 20
172.2924938528
 30
0.0
 11
883.7863502778
 21
172.2924931662
 31
0.0
  0
LINE
  5
EE
330
1F
100
AcDbEntity
  8
0
  6
Continuous
 62
     7
370
    25
100
AcDbLine
 10
883.7863502781
 20
179.3942694378
 30
0.0
 11
883.7863502779
 21
172.2924931662
 31
0.0
  0
LINE
  5
EF
330
1F
100
AcDbEntity
  8
0
  6
Continuous
 62
     7
370
    25
100
AcDbLine
 10
883.7863502767
 20
179.3942694378
 30
0.0
 11
885.7394174965
 21
179.3942694378
 31
0.0
  0
LINE
  5
F0
330
1F
100
AcDbEntity
  8
0
  6
Continuous
 62
     7
370
    25
100
AcDbLine
 10
885.7394174965
 20
179.3942694378
 30
0.0
 11
885.7394676463
 21
499.994567492
 31
0.0
  0
LINE
  5
F1
330
1F
100
AcDbEntity
  8
0
  6
Continuous
 62
     7
370
    25
100
AcDbLine
 10
701.6263033187
 20
167.7820950209
 30
0.0
 11
701.6263033187
 21
172.9816887095
 31
0.0
  0
SPLINE
  5
F2
330
1F
100
AcDbEntity
  8
0
  6
Continuous
 62
     7
370
    25
100
AcDbSpline
210
0.0
220
0.0
230
1.0
 70
     8
 71
     3
 72
     9
 73
     5
 74
     0
 42
0.00000001
 43
0.00000001
 40
0.0
 40
0.0
 40
0.0
 40
0.0
 40
0.559981774831999
 40
1.0
 40
1.0
 40
1.0
 40
1.0
 10
706.8090511579177
 20
172.9035552222294
 30
0.0
 10
705.8417446355949
 20
172.9216430361382
 30
0.0
 10
704.1143553422324
 20
172.9539437550577
 30
0.0
 10
702.3865633045834
 20
172.9732108407006
 30
0.0
 10
701.6263033187178
 20
172.9816887095294
 30
0.0
  0
LINE
  5
F3
330
1F
100
AcDbEntity
  8
0
  6
Continuous
 62
     7
370
    25
100
AcDbLine
 10
880.8879341128
 20
169.4062782008
 30
0.0
 11
706.8090511579
 21
172.9035552222
 31
0.0
  0
LINE
  5
F4
330
1F
100
AcDbEntity
  8
0
  6
Continuous
 62
     7
370
    25
100
AcDbLine
 10
880.8909310803
 20
167.4305252743
 30
0.0
 11
880.8879341128
 21
169.4062782008
 31
0.0
  0
LINE
  5
F5
330
1F
100
AcDbEntity
  8
0
  6
Continuous
 62
     7
370
    25
100
AcDbLine
 10
880.8909310792
 20
511.9580134237
 30
0.0
 11
880.8879341108
 21
509.9822606748
 31
0.0
  0
LINE
  5
F6
330
1F
100
AcDbEntity
  8
0
  6
Continuous
 62
     7
370
    25
100
AcDbLine
 10
706.8090511579
 20
506.4849836534
 30
0.0
 11
880.8879341107
 21
509.9822606748
 31
0.0
  0
SPLINE
  5
F7
330
1F
100
AcDbEntity
  8
0
  6
Continuous
 62
     7
370
    25
100
AcDbSpline
210
0.0
220
0.0
230
1.0
 70
     8
 71
     3
 72
     9
 73
     5
 74
     0
 42
0.00000001
 43
0.00000001
 40
0.0
 40
0.0
 40
0.0
 40
0.0
 40
0.560016169465636
 40
1.0
 40
1.0
 40
1.0
 40
1.0
 10
701.6263033187178
 20
506.4068501661294
 30
0.0
 10
702.5938903144266
 20
506.4179285268204
 30
0.0
 10
704.3216743472202
 20
506.437710742576
 30
0.0
 10
706.0490387508709
 20
506.4705395215186
 30
0.0
 10
706.8090511579177
 20
506.4849836534293
 30
0.0
  0
LINE
  5
F8
330
1F
100
AcDbEntity
  8
0
  6
Continuous
 62
     7
370
    25
100
AcDbLine
 10
701.6263033187
 20
506.4068501661
 30
0.0
 11
701.6263033187
 21
511.6057887743
 31
0.0
  0
SPLINE
  5
F9
330
1F
100
AcDbEntity
  8
0
  6
Continuous
 62
     7
370
    25
100
AcDbSpline
210
0.0
220
0.0
230
1.0
 70
     8
 71
     3
 72
    11
 73
     7
 74
     0
 42
0.00000001
 43
0.00000001
 40
0.0
 40
0.0
 40
0.0
 40
0.0
 40
0.2496770297149289
 40
0.4993133731365751
 40
0.749286126635935
 40
1.0
 40
1.0
 40
1.0
 40
1.0
 10
883.7863502779633
 20
172.2924931662294
 30
0.0
 10
883.7421550373858
 20
171.9141149937787
 30
0.0
 10
883.6537717580973
 20
171.1574203077546
 30
0.0
 10
882.9910814718663
 20
170.1966401016137
 30
0.0
 10
882.0270398568604
 20
169.535958875662
 30
0.0
 10
881.2680105343445
 20
169.4495477282312
 30
0.0
 10
880.8879341128173
 20
169.4062782013219
 30
0.0
  0
SPLINE
  5
FA
330
1F
100
AcDbEntity
  8
0
  6
Continuous
 62
     7
370
    25
100
AcDbSpline
210
0.0
220
0.0
230
1.0
 70
     8
 71
     3
 72
    11
 73
     7
 74
     0
 42
0.00000001
 43
0.00000001
 40
0.0
 40
0.0
 40
0.0
 40
0.0
 40
0.2507138733783401
 40
0.5006866268800361
 40
0.7503229702996626
 40
1.0
 40
1.0
 40
1.0
 40
1.0
 10
880.8879341107172
 20
509.9822606743218
 30
0.0
 10
881.2680105323021
 20
509.938991147679
 30
0.0
 10
882.0270398549148
 20
509.8525800007826
 30
0.0
 10
882.9910814704227
 20
509.1918987754771
 30
0.0
 10
883.6537717572559
 20
508.2311185697659
 30
0.0
 10
883.7421550371022
 20
507.4744238838276
 30
0.0
 10
883.7863502779572
 20
507.0960457114293
 30
0.0
  0
LINE
  5
FB
330
1F
100
AcDbEntity
  8
0
  6
Continuous
 62
     7
370
    25
100
AcDbLine
 10
880.8774947677
 20
495.6474176559
 30
0.0
 11
880.9083045413
 21
497.1155897814
 31
0.0
  0
ARC
  5
FC
330
1F
100
AcDbEntity
  8
0
  6
Continuous
 62
     7
370
    25
100
AcDbCircle
 10
880.9079875438
 20
499.9939525143
 30
0.0
 40
2.878362750329633
100
AcDbArc
 50
270.0063100517
 51
0.0063085796
  0
ARC
  5
FD
330
1F
100
AcDbEntity
  8
0
  6
Continuous
 62
     7
370
    25
100
AcDbCircle
 10
880.8773265843
 20
499.9931113524
 30
0.0
 40
4.345693699758773
100
AcDbArc
 50
270.0022174132
 51
328.4904622701
  0
LINE
  5
FE
330
1F
100
AcDbEntity
  8
0
  6
Continuous
 62
     7
370
    25
100
AcDbLine
 10
885.1787706462
 20
182.0363239804
 30
0.0
 11
885.1787706353
 21
497.3522142592
 31
0.0
  0
LINE
  5
FF
330
1F
100
AcDbEntity
  8
0
  6
Continuous
 62
     7
370
    25
100
AcDbLine
 10
880.8774947677
 20
183.7411212197
 30
0.0
 11
880.9083045414
 21
182.2729490928
 31
0.0
  0
ARC
  5
100
330
1F
100
AcDbEntity
  8
0
  6
Continuous
 62
     7
370
    25
100
AcDbCircle
 10
880.8773238935
 20
179.3954230684
 30
0.0
 40
4.345698154727497
100
AcDbArc
 50
31.5095694189
 51
89.9977471119
  0
ARC
  5
101
330
1F
100
AcDbEntity
  8
0
  6
Continuous
 62
     7
370
    25
100
AcDbCircle
 10
880.9079875467
 20
179.3945863628
 30
0.0
 40
2.878362747465341
100
AcDbArc
 50
359.9936913913
 51
89.9936900033
  0
LINE
  5
102
330
1F
100
AcDbEntity
  8
0
  6
Continuous
 62
     7
370
    25
100
AcDbLine
 10
170.9263033187
 20
92.8670616439
 30
0.0
 11
170.9263033187
 21
91.335690794
 31
0.0
  0
LINE
  5
103
330
1F
100
AcDbEntity
  8
0
  6
Continuous
 62
     7
370
    25
100
AcDbLine
 10
890.9263033187
 20
92.8670616439
 30
0.0
 11
890.9263033187
 21
91.335690794
 31
0.0
  0
LINE
  5
104
330
1F
100
AcDbEntity
  8
0
  6
Continuous
 62
     7
370
    25
100
AcDbLine
 10
170.9263033187
 20
91.335690794
 30
0.0
 11
890.9263033187
 21
91.335690794
 31
0.0
  0
LINE
  5
105
330
1F
100
AcDbEntity
  8
0
  6
Continuous
 62
     7
370
    25
100
AcDbLine
 10
922.7535111126
 20
554.6942694378
 30
0.0
 11
924.2848819625
 21
554.6942694378
 31
0.0
  0
LINE
  5
106
330
1F
100
AcDbEntity
  8
0
  6
Continuous
 62
     7
370
    25
100
AcDbLine
 10
890.9263033187
 20
586.5214772317
 30
0.0
 11
890.9263033187
 21
588.0528480816
 31
0.0
  0
ARC
  5
107
330
1F
100
AcDbEntity
  8
0
  6
Continuous
 62
     7
370
    25
100
AcDbCircle
 10
890.9263033187
 20
554.6942694378
 30
0.0
 40
33.3585786438
100
AcDbArc
 50
0.0
 51
90.0
  0
LINE
  5
108
330
1F
100
AcDbEntity
  8
0
  6
Continuous
 62
     7
370
    25
100
AcDbLine
 10
922.7535111126
 20
124.6942694378
 30
0.0
 11
924.2848819625
 21
124.6942694378
 31
0.0
  0
ARC
  5
109
330
1F
100
AcDbEntity
  8
0
  6
Continuous
 62
     7
370
    25
100
AcDbCircle
 10
890.9263033187
 20
124.6942694378
 30
0.0
 40
33.35857864380002
100
AcDbArc
 50
270.0
 51
0.0
  0
LINE
  5
10A
330
1F
100
AcDbEntity
  8
0
  6
Continuous
 62
     7
370
    25
100
AcDbLine
 10
170.9263033187
 20
586.5214772317
 30
0.0
 11
170.9263033187
 21
588.0528480816
 31
0.0
  0
LINE
  5
10B
330
1F
100
AcDbEntity
  8
0
  6
Continuous
 62
     7
370
    25
100
AcDbLine
 10
139.0990955248
 20
554.6942694378
 30
0.0
 11
137.5677246749
 21
554.6942694378
 31
0.0
  0
ARC
  5
10C
330
1F
100
AcDbEntity
  8
0
  6
Continuous
 62
     7
370
    25
100
AcDbCircle
 10
170.9263033187
 20
554.6942694378
 30
0.0
 40
33.3585786438
100
AcDbArc
 50
90.0
 51
180.0
  0
LINE
  5
10D
330
1F
100
AcDbEntity
  8
0
  6
Continuous
 62
     7
370
    25
100
AcDbLine
 10
924.2848819625
 20
124.6942694378
 30
0.0
 11
924.2848819625
 21
554.6942694378
 31
0.0
  0
LINE
  5
10E
330
1F
100
AcDbEntity
  8
0
  6
Continuous
 62
     7
370
    25
100
AcDbLine
 10
139.0990955248
 20
124.6942694378
 30
0.0
 11
137.5677246749
 21
124.6942694378
 31
0.0
  0
ARC
  5
10F
330
1F
100
AcDbEntity
  8
0
  6
Continuous
 62
     7
370
    25
100
AcDbCircle
 10
170.9263033187
 20
124.6942694378
 30
0.0
 40
33.35857864380002
100
AcDbArc
 50
180.0
 51
270.0
  0
LINE
  5
110
330
1F
100
AcDbEntity
  8
0
  6
Continuous
 62
     7
370
    25
100
AcDbLine
 10
137.5677246749
 20
554.6942694378
 30
0.0
 11
137.5677246749
 21
124.6942694378
 31
0.0
  0
LINE
  5
111
330
1F
100
AcDbEntity
  8
0
  6
Continuous
 62
     7
370
    25
100
AcDbLine
 10
890.9263033187
 20
588.0528480816
 30
0.0
 11
170.9263033187
 21
588.0528480816
 31
0.0
  0
ARC
  5
112
330
1F
100
AcDbEntity
  8
0
  6
Continuous
 62
     7
370
    25
100
AcDbCircle
 10
880.8711520383
 20
179.3956133808
 30
0.0
 40
5.052613484531959
100
AcDbArc
 50
31.5096544979
 51
89.9977736626
  0
ARC
  5
113
330
1F
100
AcDbEntity
  8
0
  6
Continuous
 62
     7
370
    25
100
AcDbCircle
 10
916.5796552767
 20
184.405035958
 30
0.0
 40
35.70833303009449
100
AcDbArc
 50
179.9306980506
 51
181.0653452909
  0
LINE
  5
114
330
1F
100
AcDbEntity
  8
0
  6
Continuous
 62
     7
370
    25
100
AcDbLine
 10
880.8713483673
 20
184.4482268615
 30
0.0
 11
728.567604764
 21
184.4482280009
 31
0.0
  0
ARC
  5
115
330
1F
100
AcDbEntity
  8
0
  6
Continuous
 62
     7
370
    25
100
AcDbCircle
 10
728.5689741285
 20
196.3930079908
 30
0.0
 40
11.94478006841191
100
AcDbArc
 50
179.9939491905
 51
269.9934315403
  0
LINE
  5
116
330
1F
100
AcDbEntity
  8
0
  6
Continuous
 62
     7
370
    25
100
AcDbLine
 10
716.6241939883
 20
196.3942694378
 30
0.0
 11
716.6241948129
 21
256.4516556714
 31
0.0
  0
LINE
  5
117
330
1F
100
AcDbEntity
  8
0
  6
Continuous
 62
     7
370
    25
100
AcDbLine
 10
716.6241948137
 20
264.9368831774
 30
0.0
 11
716.6241948129
 21
335.4516556714
 31
0.0
  0
LINE
  5
118
330
1F
100
AcDbEntity
  8
0
  6
Continuous
 62
     7
370
    25
100
AcDbLine
 10
716.6241948137
 20
343.9368831774
 30
0.0
 11
716.6241948129
 21
414.4516556714
 31
0.0
  0
LINE
  5
119
330
1F
100
AcDbEntity
  8
0
  6
Continuous
 62
     7
370
    25
100
AcDbLine
 10
716.6241948137
 20
422.9368831774
 30
0.0
 11
716.6241939884
 21
482.9942694378
 31
0.0
  0
ARC
  5
11A
330
1F
100
AcDbEntity
  8
0
  6
Continuous
 62
     7
370
    25
100
AcDbCircle
 10
728.5688658959
 20
482.9956388167
 30
0.0
 40
11.94467198607299
100
AcDbArc
 50
90.0060493527
 51
180.0065685882
  0
LINE
  5
11B
330
1F
100
AcDbEntity
  8
0
  6
Continuous
 62
     7
370
    25
100
AcDbLine
 10
728.567604764
 20
494.9403107362
 30
0.0
 11
880.8713483673
 21
494.9403108747
 31
0.0
  0
ARC
  5
11C
330
1F
100
AcDbEntity
  8
0
  6
Continuous
 62
     7
370
    25
100
AcDbCircle
 10
880.8711520386
 20
499.9929254942
 30
0.0
 40
5.052613483881413
100
AcDbArc
 50
270.0022263347
 51
328.4903181185
  0
ARC
  5
11D
330
1F
100
AcDbEntity
  8
0
  6
Continuous
 62
     7
370
    25
100
AcDbCircle
 10
916.5796758255
 20
494.9835026695
 30
0.0
 40
35.70835358001296
100
AcDbArc
 50
178.934654924
 51
180.0693033395
  0
LINE
  5
11E
330
1F
100
AcDbEntity
  8
0
  6
Continuous
 62
     7
370
    25
100
AcDbLine
 10
530.377994773
 20
157.5408293498
 30
0.0
 11
524.3573812904
 21
160.000464558
 31
0.0
  0
SPLINE
  5
11F
330
1F
100
AcDbEntity
  8
0
  6
Continuous
 62
     7
370
    25
100
AcDbSpline
210
0.0
220
0.0
230
1.0
 70
     8
 71
     3
 72
    13
 73
     9
 74
     0
 42
0.00000001
 43
0.00000001
 40
0.0
 40
0.0
 40
0.0
 40
0.0
 40
0.1836086403335919
 40
0.3688428961395393
 40
0.5556330929158045
 40
0.7038492701490798
 40
0.8522301213249304
 40
1.0
 40
1.0
 40
1.0
 40
1.0
 10
524.3573812904577
 20
160.0004645580294
 30
0.0
 10
524.4175989654105
 20
161.3977935177551
 30
0.0
 10
524.538567464431
 20
164.2048229659798
 30
0.0
 10
526.273940988249
 20
168.1345758844303
 30
0.0
 10
528.8434442421534
 20
171.1876350558261
 30
0.0
 10
531.9058738624436
 20
173.2416224801641
 30
0.0
 10
535.0927107628602
 20
174.4604291953314
 30
0.0
 10
537.3407430950118
 20
174.5918872373812
 30
0.0
 10
538.4624403643278
 20
174.6574806564294
 30
0.0
  0
LINE
  5
120
330
1F
100
AcDbEntity
  8
0
  6
Continuous
 62
     7
370
    25
100
AcDbLine
 10
538.8642354292
 20
167.7599013262
 30
0.0
 11
538.4624403643
 21
174.6574806564
 31
0.0
  0
LINE
  5
121
330
1F
100
AcDbEntity
  8
0
  6
Continuous
 62
     7
370
    25
100
AcDbLine
 10
538.8642354292
 20
511.6286375494
 30
0.0
 11
538.4623814153
 21
504.7300462467
 31
0.0
  0
SPLINE
  5
122
330
1F
100
AcDbEntity
  8
0
  6
Continuous
 62
     7
370
    25
100
AcDbSpline
210
0.0
220
0.0
230
1.0
 70
     8
 71
     3
 72
    13
 73
     9
 74
     0
 42
0.00000001
 43
0.00000001
 40
0.0
 40
0.0
 40
0.0
 40
0.0
 40
0.1879097947161953
 40
0.3765923909893979
 40
0.5639487740927897
 40
0.7103306830788184
 40
0.8557905564315618
 40
1.0
 40
1.0
 40
1.0
 40
1.0
 10
538.4623814152978
 20
504.7300462467294
 30
0.0
 10
537.0334838274255
 20
504.8414219640828
 30
0.0
 10
534.1698121390574
 20
505.0646314447785
 30
0.0
 10
530.2692513068316
 20
507.0321360953957
 30
0.0
 10
527.3510722527951
 20
509.7773020065768
 30
0.0
 10
525.4807844015633
 20
512.9169984655784
 30
0.0
 10
524.438468751821
 20
516.0933833580143
 30
0.0
 10
524.3843325464389
 20
518.2930090719183
 30
0.0
 10
524.3573812899577
 20
519.3880743126293
 30
0.0
  0
LINE
  5
123
330
1F
100
AcDbEntity
  8
0
  6
Continuous
 62
     7
370
    25
100
AcDbLine
 10
530.3779947729
 20
521.8477095321
 30
0.0
 11
524.35738129
 21
519.3880743126
 31
0.0
  0
LINE
  5
124
330
1F
100
AcDbEntity
  8
0
  6
Continuous
 62
     7
370
    25
100
AcDbLine
 10
530.3779948479
 20
554.1761540716
 30
0.0
 11
524.3573813135
 21
551.9184225077
 31
0.0
  0
SPLINE
  5
125
330
1F
100
AcDbEntity
  8
0
  6
Continuous
 62
     7
370
    25
100
AcDbSpline
210
0.0
220
0.0
230
1.0
 70
     8
 71
     3
 72
    12
 73
     8
 74
     0
 42
0.00000001
 43
0.00000001
 40
0.0
 40
0.0
 40
0.0
 40
0.0
 40
0.1867372696893757
 40
0.3734143921919365
 40
0.5604701880234575
 40
0.7801502483937341
 40
1.0
 40
1.0
 40
1.0
 40
1.0
 10
524.3573813135378
 20
551.9184225077294
 30
0.0
 10
524.2205105846564
 20
552.9434682222005
 30
0.0
 10
523.9468132123046
 20
554.9932294887911
 30
0.0
 10
522.5024410864189
 20
557.7915204189326
 30
0.0
 10
520.2917488927585
 20
560.2285101153491
 30
0.0
 10
517.2716003478536
 20
562.0896849108315
 30
0.0
 10
514.8578150045562
 20
562.4467473079391
 30
0.0
 10
513.6504563824677
 20
562.6253474328294
 30
0.0
  0
LINE
  5
126
330
1F
100
AcDbEntity
  8
0
  6
Continuous
 62
     7
370
    25
100
AcDbLine
 10
515.9081879731
 20
568.6459609674
 30
0.0
 11
513.6504563825
 21
562.6253474328
 31
0.0
  0
LINE
  5
127
330
1F
100
AcDbEntity
  8
0
  6
Continuous
 62
     7
370
    25
100
AcDbLine
 10
515.908187972
 20
110.7425779082
 30
0.0
 11
513.6504563824
 21
116.7631914428
 31
0.0
  0
SPLINE
  5
128
330
1F
100
AcDbEntity
  8
0
  6
Continuous
 62
     7
370
    25
100
AcDbSpline
210
0.0
220
0.0
230
1.0
 70
     8
 71
     3
 72
    12
 73
     8
 74
     0
 42
0.00000001
 43
0.00000001
 40
0.0
 40
0.0
 40
0.0
 40
0.0
 40
0.1867352708459446
 40
0.3734356663434398
 40
0.5605001918788346
 40
0.7801551104935887
 40
1.0
 40
1.0
 40
1.0
 40
1.0
 10
513.6504563824178
 20
116.7631914428294
 30
0.0
 10
514.6754892724556
 20
116.9000595660218
 30
0.0
 10
516.7253636137148
 20
117.1737702504253
 30
0.0
 10
519.5237489336344
 20
118.6183435907983
 30
0.0
 10
521.9607833505089
 20
120.8290455728532
 30
0.0
 10
523.8217841366019
 20
123.8491472620174
 30
0.0
 10
524.1787974823382
 20
126.2627789070419
 30
0.0
 10
524.3573813135378
 20
127.4701163677294
 30
0.0
  0
LINE
  5
129
330
1F
100
AcDbEntity
  8
0
  6
Continuous
 62
     7
370
    25
100
AcDbLine
 10
530.3779948479
 20
125.2123848045
 30
0.0
 11
524.3573813135
 21
127.4701163677
 31
0.0
  0
LINE
  5
12A
330
1F
100
AcDbEntity
  8
0
  6
Continuous
 62
     7
370
    25
100
AcDbLine
 10
541.3427422881
 20
168.0331392967
 30
0.0
 11
542.2576542082
 21
174.6240762578
 31
0.0
  0
SPLINE
  5
12B
330
1F
100
AcDbEntity
  8
0
  6
Continuous
 62
     7
370
    25
100
AcDbSpline
210
0.0
220
0.0
230
1.0
 70
     8
 71
     3
 72
    26
 73
    22
 74
     0
 42
0.00000001
 43
0.00000001
 40
0.0
 40
0.0
 40
0.0
 40
0.0
 40
0.0878300372693318
 40
0.1687529562768321
 40
0.2434906990762831
 40
0.3125175411559463
 40
0.3762472634522214
 40
0.4350441590720593
 40
0.4893922276311982
 40
0.539601465286101
 40
0.5973424115522636
 40
0.6497666735776059
 40
0.6972706891637843
 40
0.7401982494405559
 40
0.7791643634517679
 40
0.8305883341834356
 40
0.8750279308425785
 40
0.9136157743347558
 40
0.9472587579559091
 40
0.9758383923552011
 40
1.0
 40
1.0
 40
1.0
 40
1.0
 10
696.3610262906177
 20
173.0612784923294
 30
0.0
 10
691.8493898520861
 20
173.1067347919586
 30
0.0
 10
683.1809204955971
 20
173.1940726228685
 30
0.0
 10
670.6733394160539
 20
173.3203556628286
 30
0.0
 10
659.1316382384621
 20
173.4370468466662
 30
0.0
 10
648.4731145987691
 20
173.5449541656824
 30
0.0
 10
638.6334376627558
 20
173.6446837602847
 30
0.0
 10
629.5477772246833
 20
173.7368587782001
 30
0.0
 10
621.1566343346757
 20
173.8220535579348
 30
0.0
 10
612.8197333233903
 20
173.9067491877721
 30
0.0
 10
604.5816539777603
 20
173.9904839834122
 30
0.0
 10
596.4825357466781
 20
174.0728376732734
 30
0.0
 10
589.1443480728667
 20
174.1474701225067
 30
0.0
 10
582.4974753710854
 20
174.215077343829
 30
0.0
 10
575.6492429555369
 20
174.2847315342661
 30
0.0
 10
568.7233401781469
 20
174.355168039452
 30
0.0
 10
561.8168678084108
 20
174.4253891285738
 30
0.0
 10
555.823765099069
 20
174.4863058668556
 30
0.0
 10
550.6453533129273
 20
174.5389196622553
 30
0.0
 10
546.2079853615684
 20
174.5839972672386
 30
0.0
 10
543.4987831362284
 20
174.6114840996796
 30
0.0
 10
542.2576542082378
 20
174.6240762578294
 30
0.0
  0
SPLINE
  5
12C
330
1F
100
AcDbEntity
  8
0
  6
Continuous
 62
     7
370
    25
100
AcDbSpline
210
0.0
220
0.0
230
1.0
 70
     8
 71
     3
 72
     9
 73
     5
 74
     0
 42
0.00000001
 43
0.00000001
 40
0.0
 40
0.0
 40
0.0
 40
0.0
 40
0.5600083373764677
 40
1.0
 40
1.0
 40
1.0
 40
1.0
 10
701.6263033187178
 20
172.9816887095294
 30
0.0
 10
700.643513806807
 20
173.0000866945031
 30
0.0
 10
698.8885586636125
 20
173.0329397499771
 30
0.0
 10
697.13331768646
 20
173.0526195461092
 30
0.0
 10
696.3610262906177
 20
173.0612784923294
 30
0.0
  0
SPLINE
  5
12D
330
1F
100
AcDbEntity
  8
0
  6
Continuous
 62
     7
370
    25
100
AcDbSpline
210
0.0
220
0.0
230
1.0
 70
     8
 71
     3
 72
     9
 73
     5
 74
     0
 42
0.00000001
 43
0.00000001
 40
0.0
 40
0.0
 40
0.0
 40
0.0
 40
0.5599874077283453
 40
1.0
 40
1.0
 40
1.0
 40
1.0
 10
696.3610262906177
 20
506.3272603833293
 30
0.0
 10
697.3439372308112
 20
506.3385757897753
 30
0.0
 10
699.0991748069216
 20
506.358782327083
 30
0.0
 10
700.8541098160728
 20
506.392162478968
 30
0.0
 10
701.6263033187178
 20
506.4068501661294
 30
0.0
  0
SPLINE
  5
12E
330
1F
100
AcDbEntity
  8
0
  6
Continuous
 62
     7
370
    25
100
AcDbSpline
210
0.0
220
0.0
230
1.0
 70
     8
 71
     3
 72
    25
 73
    21
 74
     0
 42
0.00000001
 43
0.00000001
 40
0.0
 40
0.0
 40
0.0
 40
0.0
 40
0.0258840712328113
 40
0.0569015257615052
 40
0.0936721733852674
 40
0.1362255764297941
 40
0.1745223958055947
 40
0.2178092922911687
 40
0.2666385024945097
 40
0.3217863164122566
 40
0.3712206324448812
 40
0.4256453329517836
 40
0.4857028549409222
 40
0.552087638673506
 40
0.6254715181766711
 40
0.6886636460664689
 40
0.7571841262883775
 40
0.8314973760715303
 40
0.9122044976994294
 40
1.0
 40
1.0
 40
1.0
 40
1.0
 10
542.2576595486078
 20
504.7644241512294
 30
0.0
 10
543.5872674729733
 20
504.7779273977605
 30
0.0
 10
546.5101739539706
 20
504.8076118829964
 30
0.0
 10
551.3219076426508
 20
504.8564893623223
 30
0.0
 10
556.9899079032334
 20
504.9140846068262
 30
0.0
 10
563.0318326579677
 20
504.9755015392582
 30
0.0
 10
569.4084823130337
 20
505.0403390160241
 30
0.0
 10
576.1075059095463
 20
505.1084679893019
 30
0.0
 10
583.6721273788022
 20
505.1854093170398
 30
0.0
 10
591.5525277512323
 20
505.2655626031125
 30
0.0
 10
599.7203557353963
 20
505.3486269056524
 30
0.0
 10
608.1403843175074
 20
505.4342321612996
 30
0.0
 10
617.4311206821839
 20
505.5286466448072
 30
0.0
 10
627.6957480343799
 20
505.6328878296955
 30
0.0
 10
638.1213934459122
 20
505.7386665073429
 30
0.0
 10
648.6567453892619
 20
505.8454445322911
 30
0.0
 10
659.239837710831
 20
505.9525863817859
 30
0.0
 10
670.7226375335578
 20
506.0686810501099
 30
0.0
 10
683.1955539249694
 20
506.1946137225666
 30
0.0
 10
691.8511639815448
 20
506.2818219699413
 30
0.0
 10
696.3610262906177
 20
506.3272603833293
 30
0.0
  0
LINE
  5
12F
330
1F
100
AcDbEntity
  8
0
  6
Continuous
 62
     7
370
    25
100
AcDbLine
 10
541.3427423874
 20
511.3553988635
 30
0.0
 11
542.2576595486
 21
504.7644241512
 31
0.0
  0
ARC
  5
130
330
1F
100
AcDbEntity
  8
0
  6
Continuous
 62
     7
370
    25
100
AcDbCircle
 10
764.2759334134
 20
494.9835026456
 30
0.0
 40
35.70835477131335
100
AcDbArc
 50
178.9346549212
 51
180.0693035211
  0
LINE
  5
131
330
1F
100
AcDbEntity
  8
0
  6
Continuous
 62
     7
370
    25
100
AcDbLine
 10
728.5737511645
 20
495.6474176559
 30
0.0
 11
880.8774947677
 21
495.6474176559
 31
0.0
  0
LINE
  5
132
330
1F
100
AcDbEntity
  8
0
  6
Continuous
 62
     7
370
    25
100
AcDbLine
 10
880.8774947677
 20
183.7411212197
 30
0.0
 11
728.5737511645
 21
183.7411212197
 31
0.0
  0
ARC
  5
133
330
1F
100
AcDbEntity
  8
0
  6
Continuous
 62
     7
370
    25
100
AcDbCircle
 10
764.2759309164
 20
184.4050361999
 30
0.0
 40
35.70835227420463
100
AcDbArc
 50
179.9306966478
 51
181.0653451049
  0
SPLINE
  5
134
330
1F
100
AcDbEntity
  8
0
  6
Continuous
 62
     7
370
    25
100
AcDbSpline
210
0.0
220
0.0
230
1.0
 70
     8
 71
     3
 72
     9
 73
     5
 74
     0
 42
0.00000001
 43
0.00000001
 40
0.0
 40
0.0
 40
0.0
 40
0.0
 40
0.531437536720125
 40
1.0
 40
1.0
 40
1.0
 40
1.0
 10
542.2576595486078
 20
504.7644241512295
 30
0.0
 10
541.5853265757456
 20
504.758248364008
 30
0.0
 10
540.3202052276913
 20
504.7466274550681
 30
0.0
 10
539.0551423796022
 20
504.7353366800733
 30
0.0
 10
538.4623814152978
 20
504.7300462467294
 30
0.0
  0
SPLINE
  5
135
330
1F
100
AcDbEntity
  8
0
  6
Continuous
 62
     7
370
    25
100
AcDbSpline
210
0.0
220
0.0
230
1.0
 70
     8
 71
     3
 72
     9
 73
     5
 74
     0
 42
0.00000001
 43
0.00000001
 40
0.0
 40
0.0
 40
0.0
 40
0.0
 40
0.5894779661214292
 40
1.0
 40
1.0
 40
1.0
 40
1.0
 10
538.4624403643278
 20
174.6574806564294
 30
0.0
 10
539.2081594117708
 20
174.6511142549034
 30
0.0
 10
540.4732093208447
 20
174.6403141879088
 30
0.0
 10
541.7383046859177
 20
174.6288021876072
 30
0.0
 10
542.2576542082378
 20
174.6240762578294
 30
0.0
  0
LINE
  5
136
330
1F
100
AcDbEntity
  8
0
  6
Continuous
 62
     7
370
    25
100
AcDbLine
 10
157.0242683585
 20
125.3432519281
 30
0.0
 11
160.92901658
 21
127.2956267936
 31
0.0
  0
SPLINE
  5
137
330
1F
100
AcDbEntity
  8
0
  6
Continuous
 62
     7
370
    25
100
AcDbSpline
210
0.0
220
0.0
230
1.0
 70
     8
 71
     3
 72
    12
 73
     8
 74
     0
 42
0.00000001
 43
0.00000001
 40
0.0
 40
0.0
 40
0.0
 40
0.0
 40
0.1853805996348609
 40
0.3716675411374096
 40
0.5589961650026868
 40
0.7794180073569197
 40
1.0
 40
1.0
 40
1.0
 40
1.0
 10
160.9290165800177
 20
127.2956267936294
 30
0.0
 10
161.0761253365359
 20
126.2681256618254
 30
0.0
 10
161.371062077072
 20
124.2080998558583
 30
0.0
 10
162.8767605201091
 20
121.408113456229
 30
0.0
 10
165.1695024523319
 20
118.9885435401764
 30
0.0
 10
168.2877304566645
 20
117.1813956834813
 30
0.0
 10
170.7522251675546
 20
116.9026266138557
 30
0.0
 10
171.9849200129178
 20
116.7631914616294
 30
0.0
  0
LINE
  5
138
330
1F
100
AcDbEntity
  8
0
  6
Continuous
 62
     7
370
    25
100
AcDbLine
 10
171.2323415083
 20
110.7425779113
 30
0.0
 11
171.9849200129
 21
116.7631914616
 31
0.0
  0
LINE
  5
139
330
1F
100
AcDbEntity
  8
0
  6
Continuous
 62
     7
370
    25
100
AcDbLine
 10
171.2323415093
 20
568.6459609643
 30
0.0
 11
171.9849200238
 21
562.625347414
 31
0.0
  0
SPLINE
  5
13A
330
1F
100
AcDbEntity
  8
0
  6
Continuous
 62
     7
370
    25
100
AcDbSpline
210
0.0
220
0.0
230
1.0
 70
     8
 71
     3
 72
    12
 73
     8
 74
     0
 42
0.00000001
 43
0.00000001
 40
0.0
 40
0.0
 40
0.0
 40
0.0
 40
0.1874160217857317
 40
0.3748750586098525
 40
0.5622513855310944
 40
0.7816861138056418
 40
1.0
 40
1.0
 40
1.0
 40
1.0
 10
171.9849200238177
 20
562.6253474140294
 30
0.0
 10
170.9385706006064
 20
562.5222221830284
 30
0.0
 10
168.8456315998993
 20
562.315948052101
 30
0.0
 10
165.9620193415018
 20
560.9286896673747
 30
0.0
 10
163.440092816257
 20
558.7466455327075
 30
0.0
 10
161.5038429440179
 20
555.7306071288053
 30
0.0
 10
161.1202980164245
 20
553.303405509123
 30
0.0
 10
160.9290165802177
 20
552.0929120874293
 30
0.0
  0
LINE
  5
13B
330
1F
100
AcDbEntity
  8
0
  6
Continuous
 62
     7
370
    25
100
AcDbLine
 10
157.0242683586
 20
554.045286945
 30
0.0
 11
160.9290165802
 21
552.0929120874
 31
0.0
  0
LWPOLYLINE
  5
13C
330
1F
100
AcDbEntity
  8
0
  6
Continuous
 62
     7
370
    25
100
AcDbPolyline
 90
        6
 70
   128
 43
0.0
 10
524.3573813135
 20
127.4701163677
 10
524.3573812903
 20
134.8644477554
 10
524.3573813124
 20
141.3535512783
 10
524.3573815431
 20
148.5914405256
 10
524.3573876266
 20
154.7341290874
 10
524.3573812905
 20
160.000464558
  0
LWPOLYLINE
  5
13D
330
1F
100
AcDbEntity
  8
0
  6
Continuous
 62
     7
370
    25
100
AcDbPolyline
 90
        8
 70
   128
 43
0.0
 10
524.35738129
 20
519.3880743126
 10
524.357381129
 20
523.3921816265
 10
524.3573789773
 20
527.8894713106
 10
524.3573811881
 20
534.6042452995
 10
524.3573813307
 20
538.402799188
 10
524.3573812724
 20
542.5350754193
 10
524.3573812844
 20
547.0274490748
 10
524.3573813135
 20
551.9184225077
  0
LINE
  5
13E
330
1F
100
AcDbEntity
  8
0
  6
Continuous
 62
     7
370
    25
100
AcDbLine
 10
513.6504563825
 20
562.6253474328
 30
0.0
 11
171.9849200238
 21
562.625347414
 31
0.0
  0
LINE
  5
13F
330
1F
100
AcDbEntity
  8
0
  6
Continuous
 62
     7
370
    25
100
AcDbLine
 10
171.9849200129
 20
116.7631914616
 30
0.0
 11
513.6504563824
 21
116.7631914428
 31
0.0
  0
LINE
  5
140
330
1F
100
AcDbEntity
  8
0
  6
Continuous
 62
     7
370
    25
100
AcDbLine
 10
728.5737511645
 20
495.6474176559
 30
0.0
 11
728.604560938
 21
497.1155897776
 31
0.0
  0
LINE
  5
141
330
1F
100
AcDbEntity
  8
0
  6
Continuous
 62
     7
370
    25
100
AcDbLine
 10
880.9083045413
 20
497.1155897814
 30
0.0
 11
728.604560938
 21
497.1155897776
 31
0.0
  0
LINE
  5
142
330
1F
100
AcDbEntity
  8
0
  6
Continuous
 62
     7
370
    25
100
AcDbLine
 10
728.5737511645
 20
183.7411212197
 30
0.0
 11
728.6045609381
 21
182.2729490942
 31
0.0
  0
LINE
  5
143
330
1F
100
AcDbEntity
  8
0
  6
Continuous
 62
     7
370
    25
100
AcDbLine
 10
728.6045609381
 20
182.2729490942
 30
0.0
 11
880.9083045414
 21
182.2729490928
 31
0.0
  0
LINE
  5
144
330
1F
100
AcDbEntity
  8
0
  6
Continuous
 62
     7
370
    25
100
AcDbLine
 10
160.9290165802
 20
552.0929120874
 30
0.0
 11
160.92901658
 21
127.2956267936
 31
0.0
  0
ARC
  5
145
330
1F
100
AcDbEntity
  8
0
  6
Continuous
 62
     7
370
    25
100
AcDbCircle
 10
718.568970077
 20
259.7260865467
 30
0.0
 40
1.5131814098923
100
AcDbArc
 50
202.316761569
 51
242.8113027017
  0
SPLINE
  5
146
330
1F
100
AcDbEntity
  8
0
  6
Continuous
 62
     7
370
    25
100
AcDbSpline
210
0.0
220
0.0
230
1.0
 70
     8
 71
     3
 72
    15
 73
    11
 74
     0
 42
0.00000001
 43
0.00000001
 40
0.0
 40
0.0
 40
0.0
 40
0.0
 40
0.1482009628038065
 40
0.2779236220447993
 40
0.3931526638665596
 40
0.4999837550001454
 40
0.6068188350266884
 40
0.7220537666006999
 40
0.8517944389679135
 40
1.0
 40
1.0
 40
1.0
 40
1.0
 10
717.1691279519176
 20
259.1514910061493
 30
0.0
 10
717.2799970519757
 20
259.2576687450974
 30
0.0
 10
717.4879116382103
 20
259.4567855472467
 30
0.0
 10
717.7159773405996
 20
259.8523865726837
 30
0.0
 10
717.8512921233603
 20
260.2680693123849
 30
0.0
 10
717.8952546473181
 20
260.6942101311578
 30
0.0
 10
717.8513164062362
 20
261.1203647958363
 30
0.0
 10
717.7160082607011
 20
261.5360934720883
 30
0.0
 10
717.4879313737241
 20
261.9317325495688
 30
0.0
 10
717.2800002750596
 20
262.1308663894012
 30
0.0
 10
717.1691279500177
 20
262.2370478695094
 30
0.0
  0
ARC
  5
147
330
1F
100
AcDbEntity
  8
0
  6
Continuous
 62
     7
370
    25
100
AcDbCircle
 10
718.5689697044
 20
261.6624505398
 30
0.0
 40
1.513181865517314
100
AcDbArc
 50
117.1886639184
 51
157.6831686526
  0
ARC
  5
148
330
1F
100
AcDbEntity
  8
0
  6
Continuous
 62
     7
370
    25
100
AcDbCircle
 10
718.5689700791
 20
338.7260865482
 30
0.0
 40
1.51318141243493
100
AcDbArc
 50
202.3167615917
 51
242.8113022985
  0
SPLINE
  5
149
330
1F
100
AcDbEntity
  8
0
  6
Continuous
 62
     7
370
    25
100
AcDbSpline
210
0.0
220
0.0
230
1.0
 70
     8
 71
     3
 72
    15
 73
    11
 74
     0
 42
0.00000001
 43
0.00000001
 40
0.0
 40
0.0
 40
0.0
 40
0.0
 40
0.1482055606611276
 40
0.2779462332040472
 40
0.3931811650534443
 40
0.50001624513391
 40
0.6068473362146606
 40
0.7220763777423082
 40
0.8517990367757381
 40
1.0
 40
1.0
 40
1.0
 40
1.0
 10
717.1691279519176
 20
338.1514910061494
 30
0.0
 10
717.2800002750474
 20
338.2576724871037
 30
0.0
 10
717.4879313705003
 20
338.4568063288815
 30
0.0
 10
717.7160082638035
 20
338.852445399934
 30
0.0
 10
717.8513164058392
 20
339.2681740798898
 30
0.0
 10
717.8952546473563
 20
339.6943287440962
 30
0.0
 10
717.8512921237036
 20
340.1204695633179
 30
0.0
 10
717.7159773372149
 20
340.5361522990409
 30
0.0
 10
717.4879116416224
 20
340.9317533312658
 30
0.0
 10
717.2799970520729
 20
341.1308701314105
 30
0.0
 10
717.1691279500177
 20
341.2370478695094
 30
0.0
  0
ARC
  5
14A
330
1F
100
AcDbEntity
  8
0
  6
Continuous
 62
     7
370
    25
100
AcDbCircle
 10
718.5689696952
 20
340.6624506667
 30
0.0
 40
1.513181784910473
100
AcDbArc
 50
117.1886658139
 51
157.6831732566
  0
ARC
  5
14B
330
1F
100
AcDbEntity
  8
0
  6
Continuous
 62
     7
370
    25
100
AcDbCircle
 10
718.5689700791
 20
417.7260865483
 30
0.0
 40
1.513181412434556
100
AcDbArc
 50
202.3167615918
 51
242.8113022985
  0
SPLINE
  5
14C
330
1F
100
AcDbEntity
  8
0
  6
Continuous
 62
     7
370
    25
100
AcDbSpline
210
0.0
220
0.0
230
1.0
 70
     8
 71
     3
 72
    15
 73
    11
 74
     0
 42
0.00000001
 43
0.00000001
 40
0.0
 40
0.0
 40
0.0
 40
0.0
 40
0.1482055606610753
 40
0.2779462332046541
 40
0.3931811650530618
 40
0.5000162451343481
 40
0.6068473362141796
 40
0.7220763777423697
 40
0.8517990367759566
 40
0.9999999999999999
 40
0.9999999999999999
 40
0.9999999999999999
 40
0.9999999999999999
 10
717.1691279519176
 20
417.1514910061494
 30
0.0
 10
717.2800002750475
 20
417.2576724871034
 30
0.0
 10
717.4879313705014
 20
417.456806328881
 30
0.0
 10
717.7160082638019
 20
417.8524453999359
 30
0.0
 10
717.8513164058402
 20
418.2681740798906
 30
0.0
 10
717.8952546473563
 20
418.6943287440961
 30
0.0
 10
717.851292123703
 20
419.120469563318
 30
0.0
 10
717.7159773372152
 20
419.5361522990412
 30
0.0
 10
717.4879116416229
 20
419.9317533312673
 30
0.0
 10
717.2799970520729
 20
420.130870131411
 30
0.0
 10
717.1691279500177
 20
420.2370478695094
 30
0.0
  0
ARC
  5
14D
330
1F
100
AcDbEntity
  8
0
  6
Continuous
 62
     7
370
    25
100
AcDbCircle
 10
718.5689696952
 20
419.6624506667
 30
0.0
 40
1.513181784910363
100
AcDbArc
 50
117.1886658139
 51
157.6831732566
  0
LINE
  5
14E
330
1F
100
AcDbEntity
  8
0
  6
Continuous
 62
     7
370
    25
100
AcDbLine
 10
890.9263033187
 20
588.0528480816
 30
0.0
 11
890.9263033187
 21
588.1942694378
 31
0.0
  0
LINE
  5
14F
330
1F
100
AcDbEntity
  8
0
  6
Continuous
 62
     7
370
    25
100
AcDbLine
 10
170.9263033187
 20
588.0528480816
 30
0.0
 11
170.9263033187
 21
588.1942694378
 31
0.0
  0
LINE
  5
150
330
1F
100
AcDbEntity
  8
0
  6
Continuous
 62
     7
370
    25
100
AcDbLine
 10
890.9263033187
 20
588.1942694378
 30
0.0
 11
170.9263033187
 21
588.1942694378
 31
0.0
  0
LINE
  5
151
330
1F
100
AcDbEntity
  8
0
  6
Continuous
 62
     7
370
    25
100
AcDbLine
 10
137.5677246749
 20
124.6942694378
 30
0.0
 11
137.4263033187
 21
124.6942694378
 31
0.0
  0
LINE
  5
152
330
1F
100
AcDbEntity
  8
0
  6
Continuous
 62
     7
370
    25
100
AcDbLine
 10
137.4263033187
 20
124.6942694378
 30
0.0
 11
137.4263033187
 21
554.6942694378
 31
0.0
  0
LINE
  5
153
330
1F
100
AcDbEntity
  8
0
  6
Continuous
 62
     7
370
    25
100
AcDbLine
 10
137.5677246749
 20
554.6942694378
 30
0.0
 11
137.4263033187
 21
554.6942694378
 31
0.0
  0
LINE
  5
154
330
1F
100
AcDbEntity
  8
0
  6
Continuous
 62
     7
370
    25
100
AcDbLine
 10
170.9263033187
 20
91.335690794
 30
0.0
 11
170.9263033187
 21
91.1942694378
 31
0.0
  0
LINE
  5
155
330
1F
100
AcDbEntity
  8
0
  6
Continuous
 62
     7
370
    25
100
AcDbLine
 10
890.9263033187
 20
91.335690794
 30
0.0
 11
890.9263033187
 21
91.1942694378
 31
0.0
  0
LINE
  5
156
330
1F
100
AcDbEntity
  8
0
  6
Continuous
 62
     7
370
    25
100
AcDbLine
 10
170.9263033187
 20
91.1942694378
 30
0.0
 11
890.9263033187
 21
91.1942694378
 31
0.0
  0
ARC
  5
157
330
1F
100
AcDbEntity
  8
0
  6
Continuous
 62
     7
370
    25
100
AcDbCircle
 10
170.9263033187
 20
554.6942694378
 30
0.0
 40
33.5
100
AcDbArc
 50
90.0
 51
180.0
  0
LINE
  5
158
330
1F
100
AcDbEntity
  8
0
  6
Continuous
 62
     7
370
    25
100
AcDbLine
 10
924.2848819625
 20
554.6942694378
 30
0.0
 11
924.4263033187
 21
554.6942694378
 31
0.0
  0
ARC
  5
159
330
1F
100
AcDbEntity
  8
0
  6
Continuous
 62
     7
370
    25
100
AcDbCircle
 10
890.9263033187
 20
554.6942694378
 30
0.0
 40
33.5
100
AcDbArc
 50
0.0
 51
90.0
  0
LINE
  5
15A
330
1F
100
AcDbEntity
  8
0
  6
Continuous
 62
     7
370
    25
100
AcDbLine
 10
924.2848819625
 20
124.6942694378
 30
0.0
 11
924.4263033187
 21
124.6942694378
 31
0.0
  0
LINE
  5
15B
330
1F
100
AcDbEntity
  8
0
  6
Continuous
 62
     7
370
    25
100
AcDbLine
 10
924.4263033187
 20
124.6942694378
 30
0.0
 11
924.4263033187
 21
554.6942694378
 31
0.0
  0
ARC
  5
15C
330
1F
100
AcDbEntity
  8
0
  6
Continuous
 62
     7
370
    25
100
AcDbCircle
 10
890.9263033187
 20
124.6942694378
 30
0.0
 40
33.5
100
AcDbArc
 50
270.0
 51
0.0
  0
ARC
  5
15D
330
1F
100
AcDbEntity
  8
0
  6
Continuous
 62
     7
370
    25
100
AcDbCircle
 10
170.9263033187
 20
124.6942694378
 30
0.0
 40
33.5
100
AcDbArc
 50
180.0
 51
270.0
  0
ARC
  5
15E
330
1F
100
AcDbEntity
  8
0
  6
Continuous
 62
     7
370
    25
100
AcDbCircle
 10
170.9263033187
 20
124.6942694378
 30
0.0
 40
34.0
100
AcDbArc
 50
180.0
 51
270.0
  0
LINE
  5
15F
330
1F
100
AcDbEntity
  8
0
  6
Continuous
 62
     7
370
    25
100
AcDbLine
 10
170.9263033187
 20
90.6942694378
 30
0.0
 11
890.9263033187
 21
90.6942694378
 31
0.0
  0
LINE
  5
160
330
1F
100
AcDbEntity
  8
0
  6
Continuous
 62
     7
370
    25
100
AcDbLine
 10
890.9263033187
 20
588.6942694378
 30
0.0
 11
170.9263033187
 21
588.6942694378
 31
0.0
  0
ARC
  5
161
330
1F
100
AcDbEntity
  8
0
  6
Continuous
 62
     7
370
    25
100
AcDbCircle
 10
170.9263033187
 20
554.6942694378
 30
0.0
 40
34.00000000000011
100
AcDbArc
 50
90.0
 51
180.0
  0
ARC
  5
162
330
1F
100
AcDbEntity
  8
0
  6
Continuous
 62
     7
370
    25
100
AcDbCircle
 10
890.9263033187
 20
554.6942694378
 30
0.0
 40
34.00000000000011
100
AcDbArc
 50
0.0
 51
90.0
  0
LINE
  5
163
330
1F
100
AcDbEntity
  8
0
  6
Continuous
 62
     7
370
    25
100
AcDbLine
 10
924.9263033187
 20
124.6942694378
 30
0.0
 11
924.9263033187
 21
554.6942694378
 31
0.0
  0
LINE
  5
164
330
1F
100
AcDbEntity
  8
0
  6
Continuous
 62
     7
370
    25
100
AcDbLine
 10
136.9263033187
 20
554.6942694378
 30
0.0
 11
136.9263033187
 21
124.6942694378
 31
0.0
  0
ARC
  5
165
330
1F
100
AcDbEntity
  8
0
  6
Continuous
 62
     7
370
    25
100
AcDbCircle
 10
890.9263033187
 20
124.6942694378
 30
0.0
 40
34.0
100
AcDbArc
 50
270.0
 51
0.0
  0
ARC
  5
166
330
1F
100
AcDbEntity
  8
0
  6
Continuous
 62
     7
370
    25
100
AcDbCircle
 10
775.6010009864
 20
173.5492427186
 30
0.0
 40
105.3684127791328
100
AcDbArc
 50
357.7466151377
 51
358.9256119642
  0
SPLINE
  5
167
330
1F
100
AcDbEntity
  8
0
  6
Continuous
 62
     7
370
    25
100
AcDbSpline
210
0.0
220
0.0
230
1.0
 70
     8
 71
     3
 72
    11
 73
     7
 74
     0
 42
0.00000001
 43
0.00000001
 40
0.0
 40
0.0
 40
0.0
 40
0.0
 40
0.2813234950347609
 40
0.5616544393513899
 40
0.7814399110232608
 40
1.0
 40
1.0
 40
1.0
 40
1.0
 10
881.6839362759176
 20
172.2924937555294
 30
0.0
 10
881.6698619297284
 20
172.1849879862777
 30
0.0
 10
881.6417628937158
 20
171.9703557439595
 30
0.0
 10
881.4433257669668
 20
171.7324743507049
 30
0.0
 10
881.2015608047427
 20
171.5939159360382
 30
0.0
 10
881.0342906276998
 20
171.5803134802714
 30
0.0
 10
880.9508893387177
 20
171.5735312650294
 30
0.0
  0
LINE
  5
168
330
1F
100
AcDbEntity
  8
0
  6
Continuous
 62
     7
370
    25
100
AcDbLine
 10
881.6839362759
 20
172.2924937555
 30
0.0
 11
883.7863502782
 21
172.2924937555
 31
0.0
  0
LINE
  5
169
330
1F
100
AcDbEntity
  8
0
  6
Continuous
 62
     7
370
    25
100
AcDbLine
 10
881.6839362759
 20
507.0960451201
 30
0.0
 11
883.7863502778
 21
507.0960451201
 31
0.0
  0
SPLINE
  5
16A
330
1F
100
AcDbEntity
  8
0
  6
Continuous
 62
     7
370
    25
100
AcDbSpline
210
0.0
220
0.0
230
1.0
 70
     8
 71
     3
 72
    11
 73
     7
 74
     0
 42
0.00000001
 43
0.00000001
 40
0.0
 40
0.0
 40
0.0
 40
0.0
 40
0.2775130529375903
 40
0.5569240890916006
 40
0.7782154200259057
 40
1.0
 40
1.0
 40
1.0
 40
1.0
 10
880.9508893387177
 20
507.8150076106294
 30
0.0
 10
881.0571498143704
 20
507.8034223706081
 30
0.0
 10
881.2703975084262
 20
507.7801726561262
 30
0.0
 10
881.5122614268965
 20
507.5889132901447
 30
0.0
 10
881.6578756667499
 20
507.3493915893897
 30
0.0
 10
881.6752429615498
 20
507.1805565944061
 30
0.0
 10
881.6839362759177
 20
507.0960451201294
 30
0.0
  0
ARC
  5
16B
330
1F
100
AcDbEntity
  8
0
  6
Continuous
 62
     7
370
    25
100
AcDbCircle
 10
775.6010010311
 20
505.8392961551
 30
0.0
 40
105.3684127344673
100
AcDbArc
 50
1.0743880374
 51
2.253384864
  0
LINE
  5
16C
330
1F
100
AcDbEntity
  8
0
  6
Continuous
 62
     7
370
    25
100
AcDbLine
 10
881.6839362755
 20
179.3942694378
 30
0.0
 11
883.7863502767
 21
179.3942694378
 31
0.0
  0
LINE
  5
16D
330
1F
100
AcDbEntity
  8
0
  6
Continuous
 62
     7
370
    25
100
AcDbLine
 10
881.6839362755
 20
179.3942694378
 30
0.0
 11
881.6839362759
 21
172.2924937555
 31
0.0
  0
LINE
  5
16E
330
1F
100
AcDbEntity
  8
0
  6
Continuous
 62
     7
370
    25
100
AcDbLine
 10
881.6839362755
 20
499.9942694378
 30
0.0
 11
883.7863502767
 21
499.9942694378
 31
0.0
  0
LINE
  5
16F
330
1F
100
AcDbEntity
  8
0
  6
Continuous
 62
     7
370
    25
100
AcDbLine
 10
881.6839362759
 20
507.0960451201
 30
0.0
 11
881.6839362755
 21
499.9942694378
 31
0.0
  0
ARC
  5
170
330
1F
100
AcDbEntity
  8
0
  6
Continuous
 62
     7
370
    25
100
AcDbCircle
 10
601.5370579056
 20
177.0461578127
 30
0.0
 40
105.3534703725341
100
AcDbArc
 50
357.7464923552
 51
358.9256564146
  0
LINE
  5
171
330
1F
100
AcDbEntity
  8
0
  6
Continuous
 62
     7
370
    25
100
AcDbLine
 10
880.9508893387
 20
171.573531265
 30
0.0
 11
706.8720080108
 21
175.0708082563
 31
0.0
  0
LINE
  5
172
330
1F
100
AcDbEntity
  8
0
  6
Continuous
 62
     7
370
    25
100
AcDbLine
 10
706.8720080108
 20
504.3177306193
 30
0.0
 11
880.9508893387
 21
507.8150076106
 31
0.0
  0
ARC
  5
173
330
1F
100
AcDbEntity
  8
0
  6
Continuous
 62
     7
370
    25
100
AcDbCircle
 10
601.5370584551
 20
502.3423810789
 30
0.0
 40
105.3534698228573
100
AcDbArc
 50
1.0743435823
 51
2.2535076479
  0
ARC
  5
174
330
1F
100
AcDbEntity
  8
0
  6
Continuous
 62
     7
370
    25
100
AcDbCircle
 10
773.8017629089
 20
499.1073347324
 30
0.0
 40
107.1250591991189
100
AcDbArc
 50
358.9346549131
 51
0.0693033449
  0
ARC
  5
175
330
1F
100
AcDbEntity
  8
0
  6
Continuous
 62
     7
370
    25
100
AcDbCircle
 10
880.9266603428
 20
499.9941860576
 30
0.0
 40
0.757275937308153
100
AcDbArc
 50
270.0063100613
 51
0.0063085758
  0
ARC
  5
176
330
1F
100
AcDbEntity
  8
0
  6
Continuous
 62
     7
370
    25
100
AcDbCircle
 10
880.9266603436
 20
179.3943528183
 30
0.0
 40
0.7572759365352533
100
AcDbArc
 50
359.9936914035
 51
89.9936899972
  0
ARC
  5
177
330
1F
100
AcDbEntity
  8
0
  6
Continuous
 62
     7
370
    25
100
AcDbCircle
 10
773.8017619199
 20
180.2812041383
 30
0.0
 40
107.1250601881064
100
AcDbArc
 50
359.9306966581
 51
1.0653450789
  0
LINE
  5
178
330
1F
100
AcDbEntity
  8
0
  6
Continuous
 62
     7
370
    25
100
AcDbLine
 10
715.9233893209
 20
482.9942694378
 30
0.0
 11
714.4863502781
 21
482.9942694378
 31
0.0
  0
LINE
  5
179
330
1F
100
AcDbEntity
  8
0
  6
Continuous
 62
     7
370
    25
100
AcDbLine
 10
715.9233902257
 20
422.9369101249
 30
0.0
 11
715.9233893209
 21
482.9942694378
 31
0.0
  0
SPLINE
  5
17A
330
1F
100
AcDbEntity
  8
0
  6
Continuous
 62
     7
370
    25
100
AcDbSpline
210
0.0
220
0.0
230
1.0
 70
     8
 71
     3
 72
    11
 73
     7
 74
     0
 42
0.00000001
 43
0.00000001
 40
0.0
 40
0.0
 40
0.0
 40
0.0
 40
0.2949883022355495
 40
0.6029621328659319
 40
0.8133792217858301
 40
1.0
 40
1.0
 40
1.0
 40
1.0
 10
717.1691279500177
 20
420.2370478695094
 30
0.0
 10
716.975955360776
 20
420.4218470547286
 30
0.0
 10
716.5811066310544
 20
420.7995803750918
 30
0.0
 10
716.1790376018739
 20
421.5328783943086
 30
0.0
 10
715.9579614391102
 20
422.2757624017804
 30
0.0
 10
715.9344441299108
 20
422.7255127549018
 30
0.0
 10
715.9233902257178
 20
422.9369101248994
 30
0.0
  0
SPLINE
  5
17B
330
1F
100
AcDbEntity
  8
0
  6
Continuous
 62
     7
370
    25
100
AcDbSpline
210
0.0
220
0.0
230
1.0
 70
     8
 71
     3
 72
    10
 73
     6
 74
     0
 42
0.00000001
 43
0.00000001
 40
0.0
 40
0.0
 40
0.0
 40
0.0
 40
0.2413273258110629
 40
0.5254906001000347
 40
1.0
 40
1.0
 40
1.0
 40
1.0
 10
715.9233902247178
 20
414.4516287507594
 30
0.0
 10
715.9423560693339
 20
414.7240076256531
 30
0.0
 10
715.9836542233461
 20
415.3171130186765
 30
0.0
 10
716.3773818777755
 20
416.3349694839168
 30
0.0
 10
716.8644763011938
 20
416.8373061459728
 30
0.0
 10
717.1691279519176
 20
417.1514910061494
 30
0.0
  0
LINE
  5
17C
330
1F
100
AcDbEntity
  8
0
  6
Continuous
 62
     7
370
    25
100
AcDbLine
 10
715.9233902257
 20
343.9369101249
 30
0.0
 11
715.9233902247
 21
414.4516287508
 31
0.0
  0
SPLINE
  5
17D
330
1F
100
AcDbEntity
  8
0
  6
Continuous
 62
     7
370
    25
100
AcDbSpline
210
0.0
220
0.0
230
1.0
 70
     8
 71
     3
 72
    11
 73
     7
 74
     0
 42
0.00000001
 43
0.00000001
 40
0.0
 40
0.0
 40
0.0
 40
0.0
 40
0.2949883022353123
 40
0.6029621328656216
 40
0.8133792217843638
 40
1.0
 40
1.0
 40
1.0
 40
1.0
 10
717.1691279500177
 20
341.2370478695094
 30
0.0
 10
716.975955360776
 20
341.4218470547287
 30
0.0
 10
716.581106631054
 20
341.7995803750919
 30
0.0
 10
716.1790376018749
 20
342.5328783943086
 30
0.0
 10
715.9579614391093
 20
343.2757624017796
 30
0.0
 10
715.9344441299106
 20
343.7255127549018
 30
0.0
 10
715.9233902257179
 20
343.9369101249014
 30
0.0
  0
SPLINE
  5
17E
330
1F
100
AcDbEntity
  8
0
  6
Continuous
 62
     7
370
    25
100
AcDbSpline
210
0.0
220
0.0
230
1.0
 70
     8
 71
     3
 72
    10
 73
     6
 74
     0
 42
0.00000001
 43
0.00000001
 40
0.0
 40
0.0
 40
0.0
 40
0.0
 40
0.2413273258123853
 40
0.5254906000997545
 40
1.0
 40
1.0
 40
1.0
 40
1.0
 10
715.9233902247178
 20
335.4516287507574
 30
0.0
 10
715.9423560693334
 20
335.7240076256529
 30
0.0
 10
715.9836542233448
 20
336.3171130186767
 30
0.0
 10
716.3773818777777
 20
337.334969483915
 30
0.0
 10
716.8644763011943
 20
337.8373061459716
 30
0.0
 10
717.1691279519176
 20
338.1514910061494
 30
0.0
  0
LINE
  5
17F
330
1F
100
AcDbEntity
  8
0
  6
Continuous
 62
     7
370
    25
100
AcDbLine
 10
715.9233902257
 20
264.9369101249
 30
0.0
 11
715.9233902247
 21
335.4516287508
 31
0.0
  0
SPLINE
  5
180
330
1F
100
AcDbEntity
  8
0
  6
Continuous
 62
     7
370
    25
100
AcDbSpline
210
0.0
220
0.0
230
1.0
 70
     8
 71
     3
 72
    11
 73
     7
 74
     0
 42
0.00000001
 43
0.00000001
 40
0.0
 40
0.0
 40
0.0
 40
0.0
 40
0.2949883022354691
 40
0.6029621328659249
 40
0.8133792217858268
 40
1.0
 40
1.0
 40
1.0
 40
1.0
 10
717.1691279500177
 20
262.2370478695094
 30
0.0
 10
716.975955360776
 20
262.4218470547287
 30
0.0
 10
716.5811066310541
 20
262.799580375092
 30
0.0
 10
716.179037601874
 20
263.5328783943085
 30
0.0
 10
715.9579614391102
 20
264.2757624017803
 30
0.0
 10
715.9344441299108
 20
264.7255127549017
 30
0.0
 10
715.9233902257178
 20
264.9369101248994
 30
0.0
  0
SPLINE
  5
181
330
1F
100
AcDbEntity
  8
0
  6
Continuous
 62
     7
370
    25
100
AcDbSpline
210
0.0
220
0.0
230
1.0
 70
     8
 71
     3
 72
    10
 73
     6
 74
     0
 42
0.00000001
 43
0.00000001
 40
0.0
 40
0.0
 40
0.0
 40
0.0
 40
0.2413273258110563
 40
0.5254906001000162
 40
1.0
 40
1.0
 40
1.0
 40
1.0
 10
715.9233902247178
 20
256.4516287507594
 30
0.0
 10
715.9423560693339
 20
256.7240076256531
 30
0.0
 10
715.9836542233461
 20
257.3171130186764
 30
0.0
 10
716.3773818777755
 20
258.334969483917
 30
0.0
 10
716.8644763011938
 20
258.8373061459728
 30
0.0
 10
717.1691279519176
 20
259.1514910061493
 30
0.0
  0
LINE
  5
182
330
1F
100
AcDbEntity
  8
0
  6
Continuous
 62
     7
370
    25
100
AcDbLine
 10
715.9233893209
 20
196.3942694378
 30
0.0
 11
715.9233902247
 21
256.4516287508
 31
0.0
  0
LINE
  5
183
330
1F
100
AcDbEntity
  8
0
  6
Continuous
 62
     7
370
    25
100
AcDbLine
 10
715.9233893209
 20
196.3942694378
 30
0.0
 11
714.4863502818
 21
196.3942694378
 31
0.0
  0
LINE
  5
184
330
1F
100
AcDbEntity
  8
0
  6
Continuous
 62
     7
370
    25
100
AcDbLine
 10
714.4863502781
 20
482.9942694378
 30
0.0
 11
714.4863502818
 21
196.3942694378
 31
0.0
  0
ARC
  5
185
330
1F
100
AcDbEntity
  8
0
  6
Continuous
 62
     7
370
    25
100
AcDbCircle
 10
621.4980196906
 20
499.10733473
 30
0.0
 40
107.1250588141384
100
AcDbArc
 50
358.9346549086
 51
0.069303341
  0
LINE
  5
186
330
1F
100
AcDbEntity
  8
0
  6
Continuous
 62
     7
370
    25
100
AcDbLine
 10
880.9267437426
 20
499.2369101249
 30
0.0
 11
728.6230001394
 21
499.2369101146
 31
0.0
  0
LINE
  5
187
330
1F
100
AcDbEntity
  8
0
  6
Continuous
 62
     7
370
    25
100
AcDbLine
 10
728.6230001394
 20
180.1516287507
 30
0.0
 11
880.9267437426
 21
180.1516287502
 31
0.0
  0
ARC
  5
188
330
1F
100
AcDbEntity
  8
0
  6
Continuous
 62
     7
370
    25
100
AcDbCircle
 10
621.4980190905
 20
180.2812041413
 30
0.0
 40
107.1250594143006
100
AcDbArc
 50
359.9306966562
 51
1.0653450858
  0
LWPOLYLINE
  5
189
330
1F
100
AcDbEntity
  8
0
  6
Continuous
 62
     7
370
    25
100
AcDbPolyline
 90
        9
 70
   128
 43
0.0
 10
716.6241947623
 20
264.9369113331
 10
716.5263000694
 20
264.9369112438
 10
716.4295502978
 20
264.9369111471
 10
716.3348772072
 20
264.9369110439
 10
716.2431925574
 20
264.936910935
 10
716.155379328
 20
264.9369108216
 10
716.0722832143
 20
264.9369107048
 10
715.9947044827
 20
264.9369105857
 10
715.9233902642
 20
264.9369104655
  0
LINE
  5
18A
330
1F
100
AcDbEntity
  8
0
  6
Continuous
 62
     7
370
    25
100
AcDbLine
 10
716.6241948299
 20
414.4516287507
 30
0.0
 11
715.9233893209
 21
414.4516287507
 31
0.0
  0
LINE
  5
18B
330
1F
100
AcDbEntity
  8
0
  6
Continuous
 62
     7
370
    25
100
AcDbLine
 10
716.6241948299
 20
335.4516287507
 30
0.0
 11
715.9233893209
 21
335.4516287507
 31
0.0
  0
LWPOLYLINE
  5
18C
330
1F
100
AcDbEntity
  8
0
  6
Continuous
 62
     7
370
    25
100
AcDbPolyline
 90
        9
 70
   128
 43
0.0
 10
716.6241947623
 20
343.9369113331
 10
716.5263000694
 20
343.9369112438
 10
716.4295502978
 20
343.9369111471
 10
716.3348772072
 20
343.9369110439
 10
716.2431925574
 20
343.936910935
 10
716.155379328
 20
343.9369108216
 10
716.0722832143
 20
343.9369107048
 10
715.9947044827
 20
343.9369105857
 10
715.9233902642
 20
343.9369104655
  0
LWPOLYLINE
  5
18D
330
1F
100
AcDbEntity
  8
0
  6
Continuous
 62
     7
370
    25
100
AcDbPolyline
 90
        9
 70
   128
 43
0.0
 10
716.6241947623
 20
422.9369113331
 10
716.5263000694
 20
422.9369112438
 10
716.4295502978
 20
422.9369111471
 10
716.3348772072
 20
422.9369110439
 10
716.2431925574
 20
422.936910935
 10
716.155379328
 20
422.9369108216
 10
716.0722832143
 20
422.9369107048
 10
715.9947044827
 20
422.9369105857
 10
715.9233902642
 20
422.9369104655
  0
LINE
  5
18E
330
1F
100
AcDbEntity
  8
0
  6
Continuous
 62
     7
370
    25
100
AcDbLine
 10
716.6241948299
 20
256.4516287507
 30
0.0
 11
715.9233893209
 21
256.4516287507
 31
0.0
  0
LINE
  5
18F
330
1F
100
AcDbEntity
  8
0
  6
Continuous
 62
     7
370
    25
100
AcDbLine
 10
706.8720080108
 20
175.0708082563
 30
0.0
 11
706.8720080108
 21
504.3177306193
 31
0.0
  0
ARC
  5
190
330
1F
100
AcDbEntity
  8
0
  6
Continuous
 62
     7
370
    25
100
AcDbCircle
 10
728.6247887605
 20
482.9960576301
 30
0.0
 40
16.24085258298786
100
AcDbArc
 50
90.0063100405
 51
180.0063085279
  0
LINE
  5
191
330
1F
100
AcDbEntity
  8
0
  6
Continuous
 62
     7
370
    25
100
AcDbLine
 10
712.3839362759
 20
482.9942694378
 30
0.0
 11
712.3839362863
 21
196.3942694378
 31
0.0
  0
ARC
  5
192
330
1F
100
AcDbEntity
  8
0
  6
Continuous
 62
     7
370
    25
100
AcDbCircle
 10
728.6247887708
 20
196.3924812352
 30
0.0
 40
16.24085258293168
100
AcDbArc
 50
179.9936914355
 51
269.993689923
  0
ARC
  5
193
330
1F
100
AcDbEntity
  8
0
  6
Continuous
 62
     7
370
    25
100
AcDbCircle
 10
728.5752017498
 20
196.3929336359
 30
0.0
 40
12.65181249936391
100
AcDbArc
 50
179.993950605
 51
269.99343079
  0
LINE
  5
194
330
1F
100
AcDbEntity
  8
0
  6
Continuous
 62
     7
370
    25
100
AcDbLine
 10
716.6241941267
 20
196.3942694378
 30
0.0
 11
715.9233893209
 21
196.3942694378
 31
0.0
  0
LINE
  5
195
330
1F
100
AcDbEntity
  8
0
  6
Continuous
 62
     7
370
    25
100
AcDbLine
 10
716.6241939883
 20
482.9942694378
 30
0.0
 11
715.9233893209
 21
482.9942694378
 31
0.0
  0
ARC
  5
196
330
1F
100
AcDbEntity
  8
0
  6
Continuous
 62
     7
370
    25
100
AcDbCircle
 10
728.5750872581
 20
482.9957197062
 30
0.0
 40
12.65169802030276
100
AcDbArc
 50
90.0060507707
 51
180.0065678343
  0
ARC
  5
197
330
1F
100
AcDbEntity
  8
0
  6
Continuous
 62
     7
370
    25
100
AcDbCircle
 10
728.6061798439
 20
482.995760226
 30
0.0
 40
14.11982964444259
100
AcDbArc
 50
90.0065692345
 51
180.0060493556
  0
ARC
  5
198
330
1F
100
AcDbEntity
  8
0
  6
Continuous
 62
     7
370
    25
100
AcDbCircle
 10
728.6060520706
 20
196.392650897
 30
0.0
 40
14.11970188155378
100
AcDbArc
 50
179.9934321874
 51
269.9939491925
  0
LINE
  5
199
330
1F
100
AcDbEntity
  8
0
  6
Continuous
 62
     7
370
    25
100
AcDbLine
 10
712.3839362759
 20
482.9942694378
 30
0.0
 11
714.4863502781
 21
482.9942694378
 31
0.0
  0
LINE
  5
19A
330
1F
100
AcDbEntity
  8
0
  6
Continuous
 62
     7
370
    25
100
AcDbLine
 10
712.3839362863
 20
196.3942694378
 30
0.0
 11
714.4863502818
 21
196.3942694378
 31
0.0
  0
LWPOLYLINE
  5
19B
330
1F
100
AcDbEntity
  8
0
  6
Continuous
 62
     7
370
    25
100
AcDbPolyline
 90
        9
 70
   128
 43
0.0
 10
160.92901658
 20
127.2956267936
 10
161.2266401636
 20
127.2956267898
 10
161.5560501527
 20
127.2956267778
 10
161.9134242691
 20
127.2956267577
 10
162.2946157557
 20
127.2956267297
 10
162.6952014926
 20
127.2956266941
 10
163.1105333206
 20
127.2956266515
 10
163.5357919757
 20
127.2956266022
 10
163.9660430086
 20
127.2956260784
  0
SPLINE
  5
19C
330
1F
100
AcDbEntity
  8
0
  6
Continuous
 62
     7
370
    25
100
AcDbSpline
210
0.0
220
0.0
230
1.0
 70
     8
 71
     3
 72
    12
 73
     8
 74
     0
 42
0.00000001
 43
0.00000001
 40
0.0
 40
0.0
 40
0.0
 40
0.0
 40
0.1796580868195775
 40
0.3642100245670858
 40
0.552495784757146
 40
0.7760653334105396
 40
1.0
 40
1.0
 40
1.0
 40
1.0
 10
163.9660430086177
 20
127.2956260784294
 30
0.0
 10
164.0306353537833
 20
126.5484597316681
 30
0.0
 10
164.161579526885
 20
125.0337743739034
 30
0.0
 10
165.1847889815191
 20
122.9256954833871
 30
0.0
 10
166.8485716051055
 20
121.070460293474
 30
0.0
 10
169.1883372691148
 20
119.6820209458938
 30
0.0
 10
171.0522178926288
 20
119.4921985420441
 30
0.0
 10
171.9849185729178
 20
119.3972099022294
 30
0.0
  0
LWPOLYLINE
  5
19D
330
1F
100
AcDbEntity
  8
0
  6
Continuous
 62
     7
370
    25
100
AcDbPolyline
 90
        9
 70
   128
 43
0.0
 10
171.9849200129
 20
116.7631914616
 10
171.9849200071
 20
117.0439409698
 10
171.9849199897
 20
117.3436772774
 10
171.9849199609
 20
117.6599820323
 10
171.9849199209
 20
117.9903032035
 10
171.98491987
 20
118.331975672
 10
171.9849198087
 20
118.6822427335
 10
171.9849197373
 20
119.0382783402
 10
171.9849185729
 20
119.3972099022
  0
LWPOLYLINE
  5
19E
330
1F
100
AcDbEntity
  8
0
  6
Continuous
 62
     7
370
    25
100
AcDbPolyline
 90
        9
 70
   128
 43
0.0
 10
171.9849200238
 20
562.625347414
 10
171.9849200172
 20
562.3445979063
 10
171.984919999
 20
562.0448615991
 10
171.9849199692
 20
561.7285568445
 10
171.9849199282
 20
561.3982356734
 10
171.9849198761
 20
561.0565632048
 10
171.9849198136
 20
560.7062961431
 10
171.984919741
 20
560.350260536
 10
171.9849185729
 20
559.9913289734
  0
SPLINE
  5
19F
330
1F
100
AcDbEntity
  8
0
  6
Continuous
 62
     7
370
    25
100
AcDbSpline
210
0.0
220
0.0
230
1.0
 70
     8
 71
     3
 72
    12
 73
     8
 74
     0
 42
0.00000001
 43
0.00000001
 40
0.0
 40
0.0
 40
0.0
 40
0.0
 40
0.1901895838699765
 40
0.3806813437020672
 40
0.5697630973410438
 40
0.7879509723009757
 40
1.0
 40
1.0
 40
1.0
 40
1.0
 10
171.9849185729177
 20
559.9913289734294
 30
0.0
 10
171.1937661392577
 20
559.9228997478634
 30
0.0
 10
169.6102042775066
 20
559.7859325753881
 30
0.0
 10
167.4387847802187
 20
558.7240520520697
 30
0.0
 10
165.5857734580795
 20
557.0494432183494
 30
0.0
 10
164.2389333233855
 20
554.7673645970079
 30
0.0
 10
164.0561370355609
 20
552.9758760959191
 30
0.0
 10
163.9660430086177
 20
552.0929127972294
 30
0.0
  0
LWPOLYLINE
  5
1A0
330
1F
100
AcDbEntity
  8
0
  6
Continuous
 62
     7
370
    25
100
AcDbPolyline
 90
        9
 70
   128
 43
0.0
 10
160.9290165802
 20
552.0929120874
 10
161.2266401643
 20
552.0929120915
 10
161.5560501537
 20
552.0929121039
 10
161.9134242703
 20
552.0929121242
 10
162.294615757
 20
552.0929121524
 10
162.6952014938
 20
552.092912188
 10
163.1105333216
 20
552.0929122307
 10
163.5357919763
 20
552.09291228
 10
163.9660430086
 20
552.0929127972
  0
LINE
  5
1A1
330
1F
100
AcDbEntity
  8
0
  6
Continuous
 62
     7
370
    25
100
AcDbLine
 10
163.9660430086
 20
552.0929127972
 30
0.0
 11
163.9660430086
 21
127.2956260784
 31
0.0
  0
SPLINE
  5
1A2
330
1F
100
AcDbEntity
  8
0
  6
Continuous
 62
     7
370
    25
100
AcDbSpline
210
0.0
220
0.0
230
1.0
 70
     8
 71
     3
 72
     9
 73
     5
 74
     0
 42
0.00000001
 43
0.00000001
 40
0.0
 40
0.0
 40
0.0
 40
0.0
 40
0.5599810805731004
 40
1.0
 40
1.0
 40
1.0
 40
1.0
 10
706.8720080108177
 20
175.0708082563294
 30
0.0
 10
705.9005903983799
 20
175.0888597526847
 30
0.0
 10
704.1658574830399
 20
175.121095656685
 30
0.0
 10
702.4307253876807
 20
175.1404460142869
 30
0.0
 10
701.6672344380177
 20
175.1489605377294
 30
0.0
  0
SPLINE
  5
1A3
330
1F
100
AcDbEntity
  8
0
  6
Continuous
 62
     7
370
    25
100
AcDbSpline
210
0.0
220
0.0
230
1.0
 70
     8
 71
     3
 72
     9
 73
     5
 74
     0
 42
0.00000001
 43
0.00000001
 40
0.0
 40
0.0
 40
0.0
 40
0.0
 40
0.5591672484631033
 40
0.9999999999999999
 40
0.9999999999999999
 40
0.9999999999999999
 40
0.9999999999999999
 10
701.6263033187178
 20
172.9816887095294
 30
0.0
 10
701.6343165503185
 20
173.3376838716245
 30
0.0
 10
701.6486472029503
 20
173.9743362561725
 30
0.0
 10
701.6615475448169
 20
174.789576109864
 30
0.0
 10
701.6672344380177
 20
175.1489605377294
 30
0.0
  0
SPLINE
  5
1A4
330
1F
100
AcDbEntity
  8
0
  6
Continuous
 62
     7
370
    25
100
AcDbSpline
210
0.0
220
0.0
230
1.0
 70
     8
 71
     3
 72
     9
 73
     5
 74
     0
 42
0.00000001
 43
0.00000001
 40
0.0
 40
0.0
 40
0.0
 40
0.0
 40
0.5600179108119796
 40
1.0
 40
1.0
 40
1.0
 40
1.0
 10
701.6672344380177
 20
504.2395783379294
 30
0.0
 10
702.6389348767564
 20
504.2507036553049
 30
0.0
 10
704.3740587361516
 20
504.2705696580892
 30
0.0
 10
706.1087673088635
 20
504.303320732977
 30
0.0
 10
706.8720080108177
 20
504.3177306193294
 30
0.0
  0
SPLINE
  5
1A5
330
1F
100
AcDbEntity
  8
0
  6
Continuous
 62
     7
370
    25
100
AcDbSpline
210
0.0
220
0.0
230
1.0
 70
     8
 71
     3
 72
     9
 73
     5
 74
     0
 42
0.00000001
 43
0.00000001
 40
0.0
 40
0.0
 40
0.0
 40
0.0
 40
0.5591645944734803
 40
1.0
 40
1.0
 40
1.0
 40
1.0
 10
701.6263033187178
 20
506.4068501661294
 30
0.0
 10
701.6347138434897
 20
506.0508627795846
 30
0.0
 10
701.64975507617
 20
505.4142212789185
 30
0.0
 10
701.6618864839496
 20
504.5989699764564
 30
0.0
 10
701.6672344380177
 20
504.2395783379294
 30
0.0
  0
SPLINE
  5
1A6
330
1F
100
AcDbEntity
  8
0
  6
Continuous
 62
     7
370
    25
100
AcDbSpline
210
0.0
220
0.0
230
1.0
 70
     8
 71
     3
 72
     9
 73
     5
 74
     0
 42
0.00000001
 43
0.00000001
 40
0.0
 40
0.0
 40
0.0
 40
0.0
 40
0.5000000000321194
 40
1.0
 40
1.0
 40
1.0
 40
1.0
 10
524.3573814480316
 20
519.3880780578829
 30
0.0
 10
523.9633271309772
 20
519.3880742190464
 30
0.0
 10
523.1752184969191
 20
519.3880665413735
 30
0.0
 10
522.2073148833351
 20
519.3880747006481
 30
0.0
 10
521.7233630765743
 20
519.3880787802854
 30
0.0
  0
LWPOLYLINE
  5
1A7
330
1F
100
AcDbEntity
  8
0
  6
Continuous
 62
     7
370
    25
100
AcDbPolyline
 90
        8
 70
   128
 43
0.0
 10
521.7233628543
 20
519.388074085
 10
521.7233630625
 20
523.3921816266
 10
521.7233659217
 20
527.8894713106
 10
521.7233629841
 20
534.6042452994
 10
521.7233627944
 20
538.4027991881
 10
521.7233628734
 20
542.5350754189
 10
521.7233628519
 20
547.0274490761
 10
521.7233628543
 20
551.9184236753
  0
LWPOLYLINE
  5
1A8
330
1F
100
AcDbEntity
  8
0
  6
Continuous
 62
     7
370
    25
100
AcDbPolyline
 90
        9
 70
   128
 43
0.0
 10
524.3573813135
 20
551.9184225077
 10
524.0766318047
 20
551.9184225124
 10
523.7768954958
 20
551.9184225265
 10
523.4605907392
 20
551.9184225499
 10
523.1302695658
 20
551.9184225824
 10
522.7885970946
 20
551.9184226236
 10
522.43833003
 20
551.9184226734
 10
522.0822944199
 20
551.9184227312
 10
521.7233628543
 20
551.9184236753
  0
LWPOLYLINE
  5
1A9
330
1F
100
AcDbEntity
  8
0
  6
Continuous
 62
     7
370
    25
100
AcDbPolyline
 90
        9
 70
   128
 43
0.0
 10
524.3573813135
 20
127.4701163677
 10
524.0766318042
 20
127.470116363
 10
523.776895495
 20
127.4701163489
 10
523.4605907382
 20
127.4701163256
 10
523.1302695646
 20
127.4701162931
 10
522.7885970935
 20
127.4701162519
 10
522.4383300291
 20
127.4701162021
 10
522.0822944194
 20
127.4701161443
 10
521.7233628543
 20
127.4701152003
  0
LWPOLYLINE
  5
1AA
330
1F
100
AcDbEntity
  8
0
  6
Continuous
 62
     7
370
    25
100
AcDbPolyline
 90
        6
 70
   128
 43
0.0
 10
521.7233628543
 20
127.4701152003
 10
521.723362847
 20
134.8644477551
 10
521.7233628187
 20
141.3535512783
 10
521.7233625124
 20
148.5914405256
 10
521.723354429
 20
154.7341290875
 10
521.7233628543
 20
160.0004647906
  0
SPLINE
  5
1AB
330
1F
100
AcDbEntity
  8
0
  6
Continuous
 62
     7
370
    25
100
AcDbSpline
210
0.0
220
0.0
230
1.0
 70
    24
 71
     3
 72
     9
 73
     5
 74
     0
 42
0.00000001
 43
0.00000001
 40
0.0
 40
0.0
 40
0.0
 40
0.0
 40
0.4999999999638642
 40
1.0
 40
1.0
 40
1.0
 40
1.0
 10
524.3573812897575
 20
160.0004688533729
 30
0.0
 10
523.9633241168838
 20
160.0004688533729
 30
0.0
 10
523.1752097710793
 20
160.0004688533729
 30
0.0
 10
522.2073118267607
 20
160.0004688533729
 30
0.0
 10
521.7233628545664
 20
160.0004688533729
 30
0.0
  0
SPLINE
  5
1AC
330
1F
100
AcDbEntity
  8
0
  6
Continuous
 62
     7
370
    25
100
AcDbSpline
210
0.0
220
0.0
230
1.0
 70
     8
 71
     3
 72
    14
 73
    10
 74
     0
 42
0.00000001
 43
0.00000001
 40
0.0
 40
0.0
 40
0.0
 40
0.0
 40
0.1404108392727284
 40
0.2809029083327313
 40
0.421198238727811
 40
0.5613647401459084
 40
0.7083110624803058
 40
0.8546702638075522
 40
1.0
 40
1.0
 40
1.0
 40
1.0
 10
521.7233628542978
 20
160.0004647906294
 30
0.0
 10
521.801886901855
 20
161.2265797052282
 30
0.0
 10
521.9589804243146
 20
163.6795188603883
 30
0.0
 10
523.2126457794087
 20
167.1780751964657
 30
0.0
 10
525.1463462283041
 20
170.3225349265032
 30
0.0
 10
527.7801737069196
 20
173.0058146892147
 30
0.0
 10
530.9940293526081
 20
175.0412031103182
 30
0.0
 10
534.635912451181
 20
176.3603070217634
 30
0.0
 10
537.1841120643315
 20
176.5133937548319
 30
0.0
 10
538.4537151582778
 20
176.5896669749294
 30
0.0
  0
ARC
  5
1AD
330
1F
100
AcDbEntity
  8
0
  6
Continuous
 62
     7
370
    25
100
AcDbCircle
 10
631.6224022801
 20
176.0442775129
 30
0.0
 40
93.17028340451562
100
AcDbArc
 50
179.6646066569
 51
180.852852844
  0
ARC
  5
1AE
330
1F
100
AcDbEntity
  8
0
  6
Continuous
 62
     7
370
    25
100
AcDbCircle
 10
634.3014663432
 20
503.3340364207
 30
0.0
 40
95.84925165727815
100
AcDbArc
 50
179.1654781029
 51
180.319124972
  0
SPLINE
  5
1AF
330
1F
100
AcDbEntity
  8
0
  6
Continuous
 62
     7
370
    25
100
AcDbSpline
210
0.0
220
0.0
230
1.0
 70
     8
 71
     3
 72
    14
 73
    10
 74
     0
 42
0.00000001
 43
0.00000001
 40
0.0
 40
0.0
 40
0.0
 40
0.0
 40
0.1386814848081987
 40
0.2782877983123742
 40
0.418604092665388
 40
0.5588038143754084
 40
0.7057684320058601
 40
0.8529369896917036
 40
1.0
 40
1.0
 40
1.0
 40
1.0
 10
538.4537014221877
 20
502.8001797936294
 30
0.0
 10
537.242541687964
 20
502.8695229734807
 30
0.0
 10
534.8121453282201
 20
503.0086717637863
 30
0.0
 10
531.3209564060567
 20
504.2091841297034
 30
0.0
 10
528.1572559604024
 20
506.0970992438856
 30
0.0
 10
525.438653333513
 20
508.6950022162743
 30
0.0
 10
523.3569394116678
 20
511.8873665300742
 30
0.0
 10
521.9822121661119
 20
515.5340505973294
 30
0.0
 10
521.8096253213284
 20
518.103706853326
 30
0.0
 10
521.7233628542978
 20
519.3880740850294
 30
0.0
  0
SPLINE
  5
1B0
330
1F
100
AcDbEntity
  8
0
  6
Continuous
 62
     7
370
    25
100
AcDbSpline
210
0.0
220
0.0
230
1.0
 70
     8
 71
     3
 72
    12
 73
     8
 74
     0
 42
0.00000001
 43
0.00000001
 40
0.0
 40
0.0
 40
0.0
 40
0.0
 40
0.1846755449751715
 40
0.3722396137490076
 40
0.5611680256986284
 40
0.7821939229044498
 40
1.0
 40
1.0
 40
1.0
 40
1.0
 10
521.7233628542978
 20
551.9184236753294
 30
0.0
 10
521.6553519744546
 20
552.6971897770942
 30
0.0
 10
521.5182664515881
 20
554.2669027185705
 30
0.0
 10
520.4580131106686
 20
556.4349814239855
 30
0.0
 10
518.7646299684611
 20
558.3157869857127
 30
0.0
 10
516.4229018690246
 20
559.7063078399445
 30
0.0
 10
514.5700741066759
 20
559.8967877953152
 30
0.0
 10
513.6504575561878
 20
559.9913289734293
 30
0.0
  0
LWPOLYLINE
  5
1B1
330
1F
100
AcDbEntity
  8
0
  6
Continuous
 62
     7
370
    25
100
AcDbPolyline
 90
        9
 70
   128
 43
0.0
 10
513.6504563825
 20
562.6253474328
 10
513.6504563872
 20
562.3445979235
 10
513.6504564014
 20
562.0448616143
 10
513.6504564249
 20
561.7285568574
 10
513.6504564575
 20
561.3982356838
 10
513.6504564989
 20
561.0565632127
 10
513.6504565489
 20
560.7062961483
 10
513.6504566071
 20
560.3502605385
 10
513.6504575562
 20
559.9913289734
  0
LWPOLYLINE
  5
1B2
330
1F
100
AcDbEntity
  8
0
  6
Continuous
 62
     7
370
    25
100
AcDbPolyline
 90
        9
 70
   128
 43
0.0
 10
513.6504563824
 20
116.7631914428
 10
513.6504563872
 20
117.0439409517
 10
513.6504564014
 20
117.3436772606
 10
513.650456425
 20
117.6599820172
 10
513.6504564577
 20
117.9903031907
 10
513.6504564992
 20
118.3319756619
 10
513.6504565493
 20
118.6822427265
 10
513.6504566075
 20
119.0382783366
 10
513.6504575562
 20
119.3972099022
  0
SPLINE
  5
1B3
330
1F
100
AcDbEntity
  8
0
  6
Continuous
 62
     7
370
    25
100
AcDbSpline
210
0.0
220
0.0
230
1.0
 70
     8
 71
     3
 72
    12
 73
     8
 74
     0
 42
0.00000001
 43
0.00000001
 40
0.0
 40
0.0
 40
0.0
 40
0.0
 40
0.1846946322889133
 40
0.3722547421958451
 40
0.5611821187644757
 40
0.782214851336955
 40
1.0
 40
1.0
 40
1.0
 40
1.0
 10
513.6504575561878
 20
119.3972099022294
 30
0.0
 10
514.4293190424731
 20
119.4651048255477
 30
0.0
 10
515.999125799661
 20
119.6019480400094
 30
0.0
 10
518.167315433862
 20
120.662272746687
 30
0.0
 10
520.0476815954619
 20
122.3561859135077
 30
0.0
 10
521.4378950709078
 20
124.6978986410358
 30
0.0
 10
521.6286775713899
 20
126.5506135105714
 30
0.0
 10
521.7233628542978
 20
127.4701152003294
 30
0.0
  0
LINE
  5
1B4
330
1F
100
AcDbEntity
  8
0
  6
Continuous
 62
     7
370
    25
100
AcDbLine
 10
171.9849185729
 20
119.3972099022
 30
0.0
 11
513.6504575562
 21
119.3972099022
 31
0.0
  0
LINE
  5
1B5
330
1F
100
AcDbEntity
  8
0
  6
Continuous
 62
     7
370
    25
100
AcDbLine
 10
513.6504575562
 20
559.9913289734
 30
0.0
 11
171.9849185729
 21
559.9913289734
 31
0.0
  0
LWPOLYLINE
  5
1B6
330
1F
100
AcDbEntity
  8
0
  6
Continuous
 62
     7
370
    25
100
AcDbPolyline
 90
        9
 70
   128
 43
0.0
 10
696.3794435399
 20
175.2204072397
 10
696.3768778686
 20
174.9196412563
 10
696.3743380637
 20
174.6219061667
 10
696.3718497195
 20
174.3302023219
 10
696.3694379118
 20
174.0474692944
 10
696.3671269448
 20
173.7765562555
 10
696.3649401068
 20
173.5201932638
 10
696.3628994351
 20
173.280963753
 10
696.3610262906
 20
173.0612784923
  0
SPLINE
  5
1B7
330
1F
100
AcDbEntity
  8
0
  6
Continuous
 62
     7
370
    25
100
AcDbSpline
210
0.0
220
0.0
230
1.0
 70
     8
 71
     3
 72
     9
 73
     5
 74
     0
 42
0.00000001
 43
0.00000001
 40
0.0
 40
0.0
 40
0.0
 40
0.0
 40
0.5600007379976657
 40
0.9999999999999999
 40
0.9999999999999999
 40
0.9999999999999999
 40
0.9999999999999999
 10
701.6672344380177
 20
175.1489605377294
 30
0.0
 10
700.6802445903601
 20
175.1658607031483
 30
0.0
 10
698.9177650422316
 20
175.1960395301965
 30
0.0
 10
697.1550408733426
 20
175.212961559378
 30
0.0
 10
696.3794435399178
 20
175.2204072397294
 30
0.0
  0
SPLINE
  5
1B8
330
1F
100
AcDbEntity
  8
0
  6
Continuous
 62
     7
370
    25
100
AcDbSpline
210
0.0
220
0.0
230
1.0
 70
     8
 71
     3
 72
     9
 73
     5
 74
     0
 42
0.00000001
 43
0.00000001
 40
0.0
 40
0.0
 40
0.0
 40
0.0
 40
0.5599985903802673
 40
1.0
 40
1.0
 40
1.0
 40
1.0
 10
696.3794435401177
 20
504.1681316359295
 30
0.0
 10
697.3665655907768
 20
504.1779083244336
 30
0.0
 10
699.1292879754683
 20
504.1953667407088
 30
0.0
 10
700.8917490714055
 20
504.2260692087239
 30
0.0
 10
701.6672344380177
 20
504.2395783379294
 30
0.0
  0
LWPOLYLINE
  5
1B9
330
1F
100
AcDbEntity
  8
0
  6
Continuous
 62
     7
370
    25
100
AcDbPolyline
 90
        9
 70
   128
 43
0.0
 10
696.3794435401
 20
504.1681316359
 10
696.3768778688
 20
504.4688976193
 10
696.3743380639
 20
504.7666327089
 10
696.3718497198
 20
505.0583365537
 10
696.369437912
 20
505.3410695811
 10
696.3671269451
 20
505.6119826199
 10
696.3649401071
 20
505.8683456116
 10
696.3628994354
 20
506.1075751223
 10
696.3610262906
 20
506.3272603833
  0
LWPOLYLINE
  5
1BA
330
1F
100
AcDbEntity
  8
0
  6
Continuous
 62
     7
370
    25
100
AcDbPolyline
 90
        9
 70
   128
 43
0.0
 10
542.2577902037
 20
174.6240750882
 10
542.25952223
 20
174.8322737958
 10
542.2614148053
 20
175.0537754148
 10
542.2634533677
 20
175.2868756366
 10
542.2656222316
 20
175.5297809087
 10
542.2679047091
 20
175.7806222353
 10
542.2702832381
 20
176.0374695581
 10
542.2727395173
 20
176.2983466064
 10
542.2752546473
 20
176.5612461034
  0
SPLINE
  5
1BB
330
1F
100
AcDbEntity
  8
0
  6
Continuous
 62
     7
370
    25
100
AcDbSpline
210
0.0
220
0.0
230
1.0
 70
     8
 71
     3
 72
    26
 73
    22
 74
     0
 42
0.00000001
 43
0.00000001
 40
0.0
 40
0.0
 40
0.0
 40
0.0
 40
0.0878310405027099
 40
0.1687534173195513
 40
0.243491748439972
 40
0.3125185434478572
 40
0.3762483598065535
 40
0.435045239894774
 40
0.489393286523127
 40
0.5396024793452657
 40
0.5973433590761643
 40
0.6497675493601236
 40
0.6972714998073056
 40
0.7401990009841408
 40
0.7791650622680764
 40
0.8305889736366817
 40
0.8750285302382581
 40
0.913616345486887
 40
0.9472593260984035
 40
0.975839007352881
 40
1.0
 40
1.0
 40
1.0
 40
1.0
 10
696.3794435399178
 20
175.2204072397294
 30
0.0
 10
691.8677279006031
 20
175.2588871643437
 30
0.0
 10
683.1991817038298
 20
175.3328202378871
 30
0.0
 10
670.691468129285
 20
175.4395397679516
 30
0.0
 10
659.1496946382362
 20
175.5381731061221
 30
0.0
 10
648.4910723107723
 20
175.6294627636909
 30
0.0
 10
638.6513341217429
 20
175.7139699606207
 30
0.0
 10
629.5656173446507
 20
175.792239964921
 30
0.0
 10
621.1744311182936
 20
175.8647605495644
 30
0.0
 10
612.8374916566946
 20
175.9370505186873
 30
0.0
 10
604.5993792444277
 20
176.0087463427944
 30
0.0
 10
596.5002323262593
 20
176.0795172613572
 30
0.0
 10
589.1620216344222
 20
176.1438855063718
 30
0.0
 10
582.5151301583821
 20
176.2024002141947
 30
0.0
 10
575.6668799119278
 20
176.2628897546559
 30
0.0
 10
568.7409604593474
 20
176.324295660795
 30
0.0
 10
561.8344729646128
 20
176.3857798028644
 30
0.0
 10
555.8413571882902
 20
176.439319338935
 30
0.0
 10
550.6629319380751
 20
176.4857356170166
 30
0.0
 10
546.2255833696407
 20
176.5255884164733
 30
0.0
 10
543.5164058092848
 20
176.5500428165746
 30
0.0
 10
542.2753064020678
 20
176.5612456044294
 30
0.0
  0
SPLINE
  5
1BC
330
1F
100
AcDbEntity
  8
0
  6
Continuous
 62
     7
370
    25
100
AcDbSpline
210
0.0
220
0.0
230
1.0
 70
     8
 71
     3
 72
    25
 73
    21
 74
     0
 42
0.00000001
 43
0.00000001
 40
0.0
 40
0.0
 40
0.0
 40
0.0
 40
0.0258834961712113
 40
0.0569009645275312
 40
0.0936715981068071
 40
0.1362249679397364
 40
0.1745217510855194
 40
0.2178085968997063
 40
0.2666377404379753
 40
0.3217854784322277
 40
0.3712197257561445
 40
0.4256443550920744
 40
0.4857018131799188
 40
0.5520865634829525
 40
0.6254704282072269
 40
0.6886626208126496
 40
0.7571831458415371
 40
0.8314967377801031
 40
0.9122038434036999
 40
0.9999999999999999
 40
0.9999999999999999
 40
0.9999999999999999
 40
0.9999999999999999
 10
542.2753109991777
 20
502.8273437583294
 30
0.0
 10
543.6048919180536
 20
502.8393263858141
 30
0.0
 10
546.527775140668
 20
502.8656683860193
 30
0.0
 10
551.3394900750283
 20
502.9088803452186
 30
0.0
 10
557.0075028502185
 20
502.9596547614727
 30
0.0
 10
563.0494406440826
 20
503.0135886819771
 30
0.0
 10
569.4261045842541
 20
503.0703162185816
 30
0.0
 10
576.1251440231364
 20
503.1297057481711
 30
0.0
 10
583.6897850859484
 20
503.1965121878251
 30
0.0
 10
591.5702083750214
 20
503.2658132806635
 30
0.0
 10
599.7380631796634
 20
503.3373473344525
 30
0.0
 10
608.1581230974471
 20
503.4108021298982
 30
0.0
 10
617.4488999042602
 20
503.491523276806
 30
0.0
 10
627.7135788717028
 20
503.5803363391756
 30
0.0
 10
638.1392862714255
 20
503.6701741298395
 30
0.0
 10
648.6747069626298
 20
503.7606502293005
 30
0.0
 10
659.2578880762833
 20
503.8512907959995
 30
0.0
 10
670.7407789386039
 20
503.9494199088853
 30
0.0
 10
683.2138240543242
 20
504.0558435049276
 30
0.0
 10
691.8695199694718
 20
504.1296669902471
 30
0.0
 10
696.3794435401177
 20
504.1681316359295
 30
0.0
  0
LWPOLYLINE
  5
1BD
330
1F
100
AcDbEntity
  8
0
  6
Continuous
 62
     7
370
    25
100
AcDbPolyline
 90
        9
 70
   128
 43
0.0
 10
542.2575652943
 20
504.7644232903
 10
542.2594711903
 20
504.5562356588
 10
542.2614993232
 20
504.3347454136
 10
542.2636340879
 20
504.1016567675
 10
542.2658590589
 20
503.858763175
 10
542.2681571167
 20
503.607933533
 10
542.2705105791
 20
503.3510978004
 10
542.2729013381
 20
503.0902321491
 10
542.2753109983
 20
502.8273437583
  0
SPLINE
  5
1BE
330
1F
100
AcDbEntity
  8
0
  6
Continuous
 62
     7
370
    25
100
AcDbSpline
210
0.0
220
0.0
230
1.0
 70
     8
 71
     3
 72
     9
 73
     5
 74
     0
 42
0.00000001
 43
0.00000001
 40
0.0
 40
0.0
 40
0.0
 40
0.0
 40
0.5893187877486314
 40
0.9999999999999999
 40
0.9999999999999999
 40
0.9999999999999999
 40
0.9999999999999999
 10
538.4537151582778
 20
176.5896669749294
 30
0.0
 10
539.2044354296804
 20
176.5851898906065
 30
0.0
 10
540.4783134851735
 20
176.5775928405618
 30
0.0
 10
541.7521611137432
 20
176.5660046546623
 30
0.0
 10
542.2753064020678
 20
176.5612456044294
 30
0.0
  0
SPLINE
  5
1BF
330
1F
100
AcDbEntity
  8
0
  6
Continuous
 62
     7
370
    25
100
AcDbSpline
210
0.0
220
0.0
230
1.0
 70
     8
 71
     3
 72
     9
 73
     5
 74
     0
 42
0.00000001
 43
0.00000001
 40
0.0
 40
0.0
 40
0.0
 40
0.0
 40
0.5316310391233412
 40
1.0
 40
1.0
 40
1.0
 40
1.0
 10
542.2753109991777
 20
502.8273437583294
 30
0.0
 10
541.5980902734785
 20
502.8213884833502
 30
0.0
 10
540.3242355210998
 20
502.810186588538
 30
0.0
 10
539.0503499046432
 20
502.8033716835822
 30
0.0
 10
538.4537014221877
 20
502.8001797936295
 30
0.0
  0
SPLINE
  5
1C0
330
1F
100
AcDbEntity
  8
0
  6
Continuous
 62
     7
370
    25
100
AcDbSpline
210
0.0
220
0.0
230
1.0
 70
     8
 71
     3
 72
    11
 73
     7
 74
     0
 42
0.00000001
 43
0.00000001
 40
0.0
 40
0.0
 40
0.0
 40
0.0
 40
0.2792295852683137
 40
0.5603968929298707
 40
0.7810405982087453
 40
1.0
 40
1.0
 40
1.0
 40
1.0
 10
696.3794446874177
 20
458.1630031764294
 30
0.0
 10
697.1383531493325
 20
456.1677923432721
 30
0.0
 10
698.6614365420415
 20
452.1635248493137
 30
0.0
 10
700.0171972789857
 20
446.3385861576003
 30
0.0
 10
700.8296030887959
 20
440.8868495022301
 30
0.0
 10
700.9721583691911
 20
437.5302703204715
 30
0.0
 10
701.0431629149177
 20
435.8584109594194
 30
0.0
  0
LINE
  5
1C1
330
1F
100
AcDbEntity
  8
0
  6
Continuous
 62
     7
370
    25
100
AcDbLine
 10
696.3794435401
 20
504.1681316359
 30
0.0
 11
696.3794446874
 21
458.1630031764
 31
0.0
  0
LINE
  5
1C2
330
1F
100
AcDbEntity
  8
0
  6
Continuous
 62
     7
370
    25
100
AcDbLine
 10
696.3794446874
 20
221.2255356992
 30
0.0
 11
696.3794435399
 21
175.2204072397
 31
0.0
  0
SPLINE
  5
1C3
330
1F
100
AcDbEntity
  8
0
  6
Continuous
 62
     7
370
    25
100
AcDbSpline
210
0.0
220
0.0
230
1.0
 70
     8
 71
     3
 72
    11
 73
     7
 74
     0
 42
0.00000001
 43
0.00000001
 40
0.0
 40
0.0
 40
0.0
 40
0.0
 40
0.2789998042785283
 40
0.5601117971541106
 40
0.780852612494226
 40
1.0
 40
1.0
 40
1.0
 40
1.0
 10
701.0431629151177
 20
243.5301279162594
 30
0.0
 10
700.9389761455817
 20
241.399773361204
 30
0.0
 10
700.7298138528861
 20
237.1229362448012
 30
0.0
 10
699.639820180822
 20
231.2439903460167
 30
0.0
 10
698.2003549150784
 20
225.9214590540793
 30
0.0
 10
696.9849472203863
 20
222.7870588555032
 30
0.0
 10
696.3794446874177
 20
221.2255356992294
 30
0.0
  0
SPLINE
  5
1C4
330
1F
100
AcDbEntity
  8
0
  6
Continuous
 62
     7
370
    25
100
AcDbSpline
210
0.0
220
0.0
230
1.0
 70
     8
 71
     3
 72
    11
 73
     7
 74
     0
 42
0.00000001
 43
0.00000001
 40
0.0
 40
0.0
 40
0.0
 40
0.0
 40
0.2800067112472928
 40
0.559997273289235
 40
0.7799920489635236
 40
0.9999999999999999
 40
0.9999999999999999
 40
0.9999999999999999
 40
0.9999999999999999
 10
701.0431629149177
 20
435.8584109594194
 30
0.0
 10
701.3296363899277
 20
417.908433439042
 30
0.0
 10
701.9025668177763
 20
382.0095136515918
 30
0.0
 10
702.0166025195629
 20
332.0006517474701
 30
0.0
 10
701.7459663814548
 20
285.8398706229396
 30
0.0
 10
701.2774354137656
 20
257.6336570190749
 30
0.0
 10
701.0431629151177
 20
243.5301279162594
 30
0.0
  0
LINE
  5
1C5
330
1F
100
AcDbEntity
  8
0
  6
Continuous
 62
     7
370
    25
100
AcDbLine
 10
696.3794446874
 20
221.2255356992
 30
0.0
 11
690.8612077973
 21
223.5437002452
 31
0.0
  0
SPLINE
  5
1C6
330
1F
100
AcDbEntity
  8
0
  6
Continuous
 62
     7
370
    25
100
AcDbSpline
210
0.0
220
0.0
230
1.0
 70
     8
 71
     3
 72
    14
 73
    10
 74
     0
 42
0.00000001
 43
0.00000001
 40
0.0
 40
0.0
 40
0.0
 40
0.0
 40
0.1221781001266846
 40
0.2608189374502561
 40
0.4159208215690276
 40
0.6002405929377955
 40
0.7320993831220919
 40
0.8665803869301069
 40
1.0
 40
1.0
 40
1.0
 40
1.0
 10
695.1148487722846
 20
243.6451624176576
 30
0.0
 10
695.0873086517446
 20
242.8037781841903
 30
0.0
 10
695.0285175511378
 20
241.0076384379282
 30
0.0
 10
694.7580092212423
 20
238.1532048747151
 30
0.0
 10
694.2765449841191
 20
234.8937404409253
 30
0.0
 10
693.5939250359078
 20
231.7164329082606
 30
0.0
 10
692.7592030526268
 20
228.7252629127838
 30
0.0
 10
691.8949585425638
 20
226.1084933078061
 30
0.0
 10
691.2048800424768
 20
224.396370189289
 30
0.0
 10
690.8612077973644
 20
223.5437002452528
 30
0.0
  0
LWPOLYLINE
  5
1C7
330
1F
100
AcDbEntity
  8
0
  6
Continuous
 62
     7
370
    25
100
AcDbPolyline
 90
        9
 70
   128
 43
0.0
 10
701.0431629159
 20
243.5301279172
 10
699.9330716076
 20
243.5514925804
 10
698.8633321338
 20
243.5721179107
 10
697.8709632812
 20
243.59129016
 10
696.9903063932
 20
243.6083458644
 10
696.2518369737
 20
243.622694804
 10
695.681110069
 20
243.6338404278
 10
695.2978759248
 20
243.6413970368
 10
695.1153965206
 20
243.6451031311
  0
LWPOLYLINE
  5
1C8
330
1F
100
AcDbEntity
  8
0
  6
Continuous
 62
     7
370
    25
100
AcDbPolyline
 90
        9
 70
   128
 43
0.0
 10
701.0431629147
 20
435.8584109594
 10
699.9321150589
 20
435.8370278704
 10
698.8615224676
 20
435.8163860403
 10
697.8684979459
 20
435.7972010321
 10
696.9874653502
 20
435.7801379068
 10
696.2489662621
 20
435.7657881689
 10
695.6786012443
 20
435.7546492618
 10
695.2961423799
 20
435.747107323
 10
695.1148478602
 20
435.7434237989
  0
SPLINE
  5
1C9
330
1F
100
AcDbEntity
  8
0
  6
Continuous
 62
     7
370
    25
100
AcDbSpline
210
0.0
220
0.0
230
1.0
 70
     8
 71
     3
 72
    11
 73
     7
 74
     0
 42
0.00000001
 43
0.00000001
 40
0.0
 40
0.0
 40
0.0
 40
0.0
 40
0.249408351039187
 40
0.5003954242031927
 40
0.7753977729186744
 40
1.0
 40
1.0
 40
1.0
 40
1.0
 10
690.8612077973652
 20
455.844838630426
 30
0.0
 10
691.4840220503497
 20
454.2424218388286
 30
0.0
 10
692.7335928887901
 20
451.0274451676757
 30
0.0
 10
694.0542141388293
 20
445.8423150032157
 30
0.0
 10
694.8958819846412
 20
440.7297200990689
 30
0.0
 10
695.0469393268885
 20
437.2898224434294
 30
0.0
 10
695.114848663851
 20
435.7433820947672
 30
0.0
  0
LINE
  5
1CA
330
1F
100
AcDbEntity
  8
0
  6
Continuous
 62
     7
370
    25
100
AcDbLine
 10
696.3794446926
 20
458.1630031641
 30
0.0
 11
690.861206717
 21
455.8448381923
 31
0.0
  0
ARC
  5
1CB
330
1F
100
AcDbEntity
  8
0
  6
Continuous
 62
     7
370
    25
100
AcDbCircle
 10
-4303.5736966813
 20
339.6942694378
 30
0.0
 40
4999.611789761001
100
AcDbArc
 50
358.8992055488
 51
1.1007950585
  0
ARC
  5
1CC
330
1F
100
AcDbEntity
  8
0
  6
Continuous
 62
     7
370
    25
100
AcDbCircle
 10
640.5136811873
 20
244.6942694378
 30
0.0
 40
60.59509051681202
100
AcDbArc
 50
270.0
 51
337.2131367905
  0
ARC
  5
1CD
330
1F
100
AcDbEntity
  8
0
  6
Continuous
 62
     7
370
    25
100
AcDbCircle
 10
640.5136811873
 20
434.6942694378
 30
0.0
 40
60.59509051680425
100
AcDbArc
 50
22.7868632094
 51
90.0
  0
LINE
  5
1CE
330
1F
100
AcDbEntity
  8
0
  6
Continuous
 62
     7
370
    25
100
AcDbLine
 10
604.3389254501
 20
495.2893599435
 30
0.0
 11
640.5136811873
 21
495.2893599546
 31
0.0
  0
ARC
  5
1CF
330
1F
100
AcDbEntity
  8
0
  6
Continuous
 62
     7
370
    25
100
AcDbCircle
 10
604.3389254501
 20
434.6942694378
 30
0.0
 40
60.59509051729215
100
AcDbArc
 50
90.0
 51
178.8992044635
  0
ARC
  5
1D0
330
1F
100
AcDbEntity
  8
0
  6
Continuous
 62
     7
370
    25
100
AcDbCircle
 10
5548.4263033187
 20
339.6942694378
 30
0.0
 40
5005.595090517313
100
AcDbArc
 50
178.8992044635
 51
181.1007955365
  0
ARC
  5
1D1
330
1F
100
AcDbEntity
  8
0
  6
Continuous
 62
     7
370
    25
100
AcDbCircle
 10
604.3389254501
 20
244.6942694378
 30
0.0
 40
60.59509051681002
100
AcDbArc
 50
181.1007955365
 51
270.0
  0
LINE
  5
1D2
330
1F
100
AcDbEntity
  8
0
  6
Continuous
 62
     7
370
    25
100
AcDbLine
 10
640.5136811873
 20
184.0991789584
 30
0.0
 11
604.3389254501
 21
184.099178921
 31
0.0
  0
ARC
  5
1D3
330
1F
100
AcDbEntity
  8
0
  6
Continuous
 62
     7
370
    25
100
AcDbCircle
 10
431.7294068726
 20
210.4867558333
 30
0.0
 40
85.59509051390033
100
AcDbArc
 50
271.0283875642
 51
358.4951430028
  0
ARC
  5
1D4
330
1F
100
AcDbEntity
  8
0
  6
Continuous
 62
     7
370
    25
100
AcDbCircle
 10
-4486.5736966813
 20
339.6942694378
 30
0.0
 40
5005.595090513878
100
AcDbArc
 50
358.4951430028
 51
1.5048569972
  0
ARC
  5
1D5
330
1F
100
AcDbEntity
  8
0
  6
Continuous
 62
     7
370
    25
100
AcDbCircle
 10
431.7294068726
 20
468.9017830423
 30
0.0
 40
85.59509051819366
100
AcDbArc
 50
1.5048569972
 51
88.9716124359
  0
ARC
  5
1D6
330
1F
100
AcDbEntity
  8
0
  6
Continuous
 62
     7
370
    25
100
AcDbCircle
 10
343.4263033187
 20
-4450.3057305622
 30
0.0
 40
5005.595090518215
100
AcDbArc
 50
88.9716124359
 51
91.0283875641
  0
ARC
  5
1D7
330
1F
100
AcDbEntity
  8
0
  6
Continuous
 62
     7
370
    25
100
AcDbCircle
 10
255.1231997648
 20
468.9017830423
 30
0.0
 40
85.59509051741178
100
AcDbArc
 50
91.0283875642
 51
178.4951430028
  0
ARC
  5
1D8
330
1F
100
AcDbEntity
  8
0
  6
Continuous
 62
     7
370
    25
100
AcDbCircle
 10
5173.4263033187
 20
339.6942694378
 30
0.0
 40
5005.59509051739
100
AcDbArc
 50
178.4951430028
 51
181.5048569972
  0
ARC
  5
1D9
330
1F
100
AcDbEntity
  8
0
  6
Continuous
 62
     7
370
    25
100
AcDbCircle
 10
255.1231997648
 20
210.4867558333
 30
0.0
 40
85.59509051819538
100
AcDbArc
 50
181.5048569972
 51
268.9716124358
  0
ARC
  5
1DA
330
1F
100
AcDbEntity
  8
0
  6
Continuous
 62
     7
370
    25
100
AcDbCircle
 10
343.4263033187
 20
5129.6942694378
 30
0.0
 40
5005.595090518217
100
AcDbArc
 50
268.9716124359
 51
271.0283875641
  0
LINE
  5
1DB
330
1F
100
AcDbEntity
  8
0
  6
Continuous
 62
     7
370
    25
100
AcDbLine
 10
640.5136811873
 20
184.0991789584
 30
0.0
 11
640.5136811873
 21
190.0845632227
 31
0.0
  0
ARC
  5
1DC
330
1F
100
AcDbEntity
  8
0
  6
Continuous
 62
     7
370
    25
100
AcDbCircle
 10
640.5136811873
 20
244.6942694378
 30
0.0
 40
54.60970621509
100
AcDbArc
 50
270.0
 51
337.2131367906
  0
ARC
  5
1DD
330
1F
100
AcDbEntity
  8
0
  6
Continuous
 62
     7
370
    25
100
AcDbCircle
 10
640.5136811873
 20
434.6942694378
 30
0.0
 40
54.60970621510995
100
AcDbArc
 50
22.7868632094
 51
90.0
  0
LINE
  5
1DE
330
1F
100
AcDbEntity
  8
0
  6
Continuous
 62
     7
370
    25
100
AcDbLine
 10
640.5136811873
 20
495.2893599546
 30
0.0
 11
640.5136811873
 21
489.3039756531
 31
0.0
  0
LINE
  5
1DF
330
1F
100
AcDbEntity
  8
0
  6
Continuous
 62
     7
370
    25
100
AcDbLine
 10
433.1582247856
 20
548.4986661663
 30
0.0
 11
433.2656491778
 21
554.4830863766
 31
0.0
  0
ARC
  5
1E0
330
1F
100
AcDbEntity
  8
0
  6
Continuous
 62
     7
370
    25
100
AcDbCircle
 10
343.4263033187
 20
-4450.3057305622
 30
0.0
 40
4999.609706215309
100
AcDbArc
 50
88.9716124359
 51
91.0283875641
  0
LINE
  5
1E1
330
1F
100
AcDbEntity
  8
0
  6
Continuous
 62
     7
370
    25
100
AcDbLine
 10
253.6943818518
 20
548.4986661662
 30
0.0
 11
253.5869574596
 21
554.4830863723
 31
0.0
  0
LINE
  5
1E2
330
1F
100
AcDbEntity
  8
0
  6
Continuous
 62
     7
370
    25
100
AcDbLine
 10
511.3116558871
 20
470.9924684485
 30
0.0
 11
517.2949758408
 21
471.1496547541
 31
0.0
  0
ARC
  5
1E3
330
1F
100
AcDbEntity
  8
0
  6
Continuous
 62
     7
370
    25
100
AcDbCircle
 10
431.7294068726
 20
468.9017830423
 30
0.0
 40
79.6097062152865
100
AcDbArc
 50
1.5048569971
 51
88.9716124359
  0
ARC
  5
1E4
330
1F
100
AcDbEntity
  8
0
  6
Continuous
 62
     7
370
    25
100
AcDbCircle
 10
255.1231997648
 20
468.9017830423
 30
0.0
 40
79.60970621531973
100
AcDbArc
 50
91.0283875642
 51
178.4951430029
  0
LINE
  5
1E5
330
1F
100
AcDbEntity
  8
0
  6
Continuous
 62
     7
370
    25
100
AcDbLine
 10
175.5409507502
 20
470.9924684485
 30
0.0
 11
169.5576307931
 21
471.1496547542
 31
0.0
  0
LINE
  5
1E6
330
1F
100
AcDbEntity
  8
0
  6
Continuous
 62
     7
370
    25
100
AcDbLine
 10
604.3389254501
 20
495.2893599435
 30
0.0
 11
604.3389254501
 21
489.303975653
 31
0.0
  0
ARC
  5
1E7
330
1F
100
AcDbEntity
  8
0
  6
Continuous
 62
     7
370
    25
100
AcDbCircle
 10
604.3389254501
 20
434.6942694378
 30
0.0
 40
54.60970621526882
100
AcDbArc
 50
90.0
 51
178.8992044635
  0
LINE
  5
1E8
330
1F
100
AcDbEntity
  8
0
  6
Continuous
 62
     7
370
    25
100
AcDbLine
 10
543.755018031
 20
435.8583813891
 30
0.0
 11
549.7392977032
 21
435.7433942286
 31
0.0
  0
ARC
  5
1E9
330
1F
100
AcDbEntity
  8
0
  6
Continuous
 62
     7
370
    25
100
AcDbCircle
 10
5173.4263033187
 20
339.6942694378
 30
0.0
 40
4999.609706215301
100
AcDbArc
 50
178.4951430028
 51
181.5048569972
  0
LINE
  5
1EA
330
1F
100
AcDbEntity
  8
0
  6
Continuous
 62
     7
370
    25
100
AcDbLine
 10
175.5409507502
 20
208.396070427
 30
0.0
 11
169.5576307966
 21
208.2388841215
 31
0.0
  0
ARC
  5
1EB
330
1F
100
AcDbEntity
  8
0
  6
Continuous
 62
     7
370
    25
100
AcDbCircle
 10
5548.4263033187
 20
339.6942694378
 30
0.0
 40
4999.609706215289
100
AcDbArc
 50
178.8992044635
 51
181.1007955365
  0
LINE
  5
1EC
330
1F
100
AcDbEntity
  8
0
  6
Continuous
 62
     7
370
    25
100
AcDbLine
 10
543.7550180426
 20
243.5301574868
 30
0.0
 11
549.7392977033
 21
243.645144647
 31
0.0
  0
LINE
  5
1ED
330
1F
100
AcDbEntity
  8
0
  6
Continuous
 62
     7
370
    25
100
AcDbLine
 10
511.3116558871
 20
208.396070427
 30
0.0
 11
517.2949758408
 21
208.2388841215
 31
0.0
  0
ARC
  5
1EE
330
1F
100
AcDbEntity
  8
0
  6
Continuous
 62
     7
370
    25
100
AcDbCircle
 10
-4486.5736966813
 20
339.6942694378
 30
0.0
 40
4999.609706215229
100
AcDbArc
 50
358.4951430028
 51
1.5048569972
  0
LINE
  5
1EF
330
1F
100
AcDbEntity
  8
0
  6
Continuous
 62
     7
370
    25
100
AcDbLine
 10
604.3389254501
 20
489.303975653
 30
0.0
 11
640.5136811873
 21
489.3039756531
 31
0.0
  0
ARC
  5
1F0
330
1F
100
AcDbEntity
  8
0
  6
Continuous
 62
     7
370
    25
100
AcDbCircle
 10
255.1231997648
 20
210.4867558333
 30
0.0
 40
79.60970621532236
100
AcDbArc
 50
181.5048569972
 51
268.9716124359
  0
LINE
  5
1F1
330
1F
100
AcDbEntity
  8
0
  6
Continuous
 62
     7
370
    25
100
AcDbLine
 10
253.6943818518
 20
130.8898727093
 30
0.0
 11
253.5869574595
 21
124.905452499
 31
0.0
  0
ARC
  5
1F2
330
1F
100
AcDbEntity
  8
0
  6
Continuous
 62
     7
370
    25
100
AcDbCircle
 10
604.3389254501
 20
244.6942694378
 30
0.0
 40
54.60970621531001
100
AcDbArc
 50
181.1007955365
 51
270.0
  0
LINE
  5
1F3
330
1F
100
AcDbEntity
  8
0
  6
Continuous
 62
     7
370
    25
100
AcDbLine
 10
604.3389254501
 20
184.099178921
 30
0.0
 11
604.3389254501
 21
190.0845632225
 31
0.0
  0
LINE
  5
1F4
330
1F
100
AcDbEntity
  8
0
  6
Continuous
 62
     7
370
    25
100
AcDbLine
 10
640.5136811873
 20
190.0845632227
 30
0.0
 11
604.3389254501
 21
190.0845632225
 31
0.0
  0
LINE
  5
1F5
330
1F
100
AcDbEntity
  8
0
  6
Continuous
 62
     7
370
    25
100
AcDbLine
 10
433.1582247856
 20
130.8898727094
 30
0.0
 11
433.2656491778
 21
124.9054525033
 31
0.0
  0
ARC
  5
1F6
330
1F
100
AcDbEntity
  8
0
  6
Continuous
 62
     7
370
    25
100
AcDbCircle
 10
431.7294068726
 20
210.4867558333
 30
0.0
 40
79.6097062152523
100
AcDbArc
 50
271.0283875642
 51
358.4951430028
  0
ARC
  5
1F7
330
1F
100
AcDbEntity
  8
0
  6
Continuous
 62
     7
370
    25
100
AcDbCircle
 10
343.4263033187
 20
5129.6942694378
 30
0.0
 40
4999.609706215309
100
AcDbArc
 50
268.9716124359
 51
271.0283875641
  0
SPLINE
  5
1F8
330
1F
100
AcDbEntity
  8
0
  6
Continuous
 62
     7
370
    25
100
AcDbSpline
210
0.0
220
0.0
230
1.0
 70
     8
 71
     3
 72
    17
 73
    13
 74
     0
 42
0.00000001
 43
0.00000001
 40
0.0
 40
0.0
 40
0.0
 40
0.0
 40
0.1113808271174703
 40
0.2125143366505938
 40
0.3053650619902962
 40
0.3915436684603721
 40
0.4723950860875978
 40
0.5490604334452641
 40
0.6225193890236609
 40
0.7515675158007364
 40
0.8766055985689756
 40
0.9999999999999999
 40
0.9999999999999999
 40
0.9999999999999999
 40
0.9999999999999999
 10
691.9700511580178
 20
243.7055141515594
 30
0.0
 10
691.9746338737444
 20
247.2009919715797
 30
0.0
 10
691.9833776837692
 20
253.8703548181586
 30
0.0
 10
691.9962151513677
 20
263.5321001146224
 30
0.0
 10
692.007648021049
 20
272.4358037901031
 30
0.0
 10
692.0177129852614
 20
280.7287592008955
 30
0.0
 10
692.0264534104926
 20
288.5298715212778
 30
0.0
 10
692.0339524015764
 20
295.9430433496817
 30
0.0
 10
692.0419742029127
 20
304.9217091050346
 30
0.0
 10
692.0494404389385
 20
315.481339766344
 30
0.0
 10
692.055209867534
 20
327.6736977930929
 30
0.0
 10
692.0558633320759
 20
335.7051247571081
 30
0.0
 10
692.0561879026177
 20
339.6942694378286
 30
0.0
  0
SPLINE
  5
1F9
330
1F
100
AcDbEntity
  8
0
  6
Continuous
 62
     7
370
    25
100
AcDbSpline
210
0.0
220
0.0
230
1.0
 70
     8
 71
     3
 72
    17
 73
    13
 74
     0
 42
0.00000001
 43
0.00000001
 40
0.0
 40
0.0
 40
0.0
 40
0.0
 40
0.1177849886144023
 40
0.2369904073679038
 40
0.3595768545679821
 40
0.4888880467139114
 40
0.5608041424762044
 40
0.6366137814250263
 40
0.7172471432874655
 40
0.8037897189473575
 40
0.8975259587542335
 40
1.0
 40
1.0
 40
1.0
 40
1.0
 10
692.0561879026177
 20
339.6942694378286
 30
0.0
 10
692.0557349448941
 20
343.5019494100567
 30
0.0
 10
692.0548235669952
 20
351.1632281380204
 30
0.0
 10
692.0491916509551
 20
362.7781369087006
 30
0.0
 10
692.0407531387082
 20
374.7447735754483
 30
0.0
 10
692.0310137717022
 20
385.1579777811344
 30
0.0
 10
692.0214141583685
 20
394.0393676780812
 30
0.0
 10
692.0128440916756
 20
401.3413134615859
 30
0.0
 10
692.0031453016775
 20
409.0867763776498
 30
0.0
 10
691.9922923003186
 20
417.3709306821904
 30
0.0
 10
691.9802639882031
 20
426.3107240425825
 30
0.0
 10
691.9720921567721
 20
432.4675028967231
 30
0.0
 10
691.9678242836178
 20
435.6829817536694
 30
0.0
  0
LINE
  5
1FA
330
1F
100
AcDbEntity
  8
0
  6
Continuous
 62
     7
370
    25
100
AcDbLine
 10
695.1148485661
 20
435.7433820929
 30
0.0
 11
691.9678242836
 21
435.6829817537
 31
0.0
  0
LINE
  5
1FB
330
1F
100
AcDbEntity
  8
0
  6
Continuous
 62
     7
370
    25
100
AcDbLine
 10
695.1153928528
 20
243.6451519762
 30
0.0
 11
691.970051158
 21
243.7055141516
 31
0.0
  0
SPLINE
  5
1FC
330
1F
100
AcDbEntity
  8
0
  6
Continuous
 62
     7
370
    25
100
AcDbSpline
210
0.0
220
0.0
230
1.0
 70
     8
 71
     3
 72
    18
 73
    14
 74
     0
 42
0.00000001
 43
0.00000001
 40
0.0
 40
0.0
 40
0.0
 40
0.0
 40
0.0916396724304931
 40
0.1836485020365554
 40
0.2760460397685313
 40
0.368842454202794
 40
0.4620357308431469
 40
0.5556079305564302
 40
0.6441548956803396
 40
0.7329533271725902
 40
0.8219294281131593
 40
0.9109857064063451
 40
1.0
 40
1.0
 40
1.0
 40
1.0
 10
640.5136817797777
 20
192.5277623116294
 30
0.0
 10
642.9916614730091
 20
192.636786928622
 30
0.0
 10
647.9576030425201
 20
192.8552753525193
 30
0.0
 10
655.252452218841
 20
194.5388771629431
 30
0.0
 10
662.2553694674059
 20
197.1865578264623
 30
0.0
 10
668.8152232876502
 20
200.8481679557929
 30
0.0
 10
674.789431247729
 20
205.4261344766631
 30
0.0
 10
679.9464788161541
 20
210.7327161765498
 30
0.0
 10
684.2218160020481
 20
216.6066698107385
 30
0.0
 10
687.5918556287097
 20
222.8962260956774
 30
0.0
 10
690.047732591907
 20
229.5964953802968
 30
0.0
 10
691.6288733022994
 20
236.5756284725565
 30
0.0
 10
691.8563430833879
 20
241.3292591886352
 30
0.0
 10
691.9700511580178
 20
243.7055141515594
 30
0.0
  0
LINE
  5
1FD
330
1F
100
AcDbEntity
  8
0
  6
Continuous
 62
     7
370
    25
100
AcDbLine
 10
640.5136811873
 20
190.0845632227
 30
0.0
 11
640.5136817798
 21
192.5277623116
 31
0.0
  0
SPLINE
  5
1FE
330
1F
100
AcDbEntity
  8
0
  6
Continuous
 62
     7
370
    25
100
AcDbSpline
210
0.0
220
0.0
230
1.0
 70
     8
 71
     3
 72
    18
 73
    14
 74
     0
 42
0.00000001
 43
0.00000001
 40
0.0
 40
0.0
 40
0.0
 40
0.0
 40
0.0943961645017043
 40
0.1888369148399015
 40
0.2831745757133088
 40
0.3772964301707747
 40
0.4711195831411411
 40
0.5645884226525226
 40
0.652371039167153
 40
0.7397984514243939
 40
0.8268711841952047
 40
0.9135989628494375
 40
1.0
 40
1.0
 40
1.0
 40
1.0
 10
691.9678242836178
 20
435.6829817536694
 30
0.0
 10
691.8411208889149
 20
438.2030284689874
 30
0.0
 10
691.5876542541026
 20
443.2443121851758
 30
0.0
 10
689.8140795288299
 20
450.6266742225259
 30
0.0
 10
687.0621053052756
 20
457.6773326851829
 30
0.0
 10
683.294291629141
 20
464.2404981744598
 30
0.0
 10
678.6238644486207
 20
470.1756310786118
 30
0.0
 10
673.252301335056
 20
475.2608828676205
 30
0.0
 10
667.3497449307044
 20
479.4430009993455
 30
0.0
 10
661.0721654055055
 20
482.711541987561
 30
0.0
 10
654.4234201985204
 20
485.0700353061957
 30
0.0
 10
647.5308344570174
 20
486.5679729439618
 30
0.0
 10
642.8497877920379
 20
486.7627966416365
 30
0.0
 10
640.5136816682577
 20
486.8600246476294
 30
0.0
  0
LINE
  5
1FF
330
1F
100
AcDbEntity
  8
0
  6
Continuous
 62
     7
370
    25
100
AcDbLine
 10
640.5136811873
 20
489.3039756531
 30
0.0
 11
640.5136816683
 21
486.8600246476
 31
0.0
  0
SPLINE
  5
200
330
1F
100
AcDbEntity
  8
0
  6
Continuous
 62
     7
370
    25
100
AcDbSpline
210
0.0
220
0.0
230
1.0
 70
     8
 71
     3
 72
    19
 73
    15
 74
     0
 42
0.00000001
 43
0.00000001
 40
0.0
 40
0.0
 40
0.0
 40
0.0
 40
0.0799648469217183
 40
0.1599777913363571
 40
0.2399833953282035
 40
0.3199870050990669
 40
0.3999940186726179
 40
0.4799903993785734
 40
0.5600118706609774
 40
0.6480248035313813
 40
0.7360187012423703
 40
0.8240115352668863
 40
0.9120058574846371
 40
1.0
 40
1.0
 40
1.0
 40
1.0
 10
253.8219209317177
 20
137.9933746756294
 30
0.0
 10
250.8734591252571
 20
138.1483661469543
 30
0.0
 10
244.9747620627975
 20
138.4584423143333
 30
0.0
 10
236.2815057292022
 20
140.2869254413113
 30
0.0
 10
227.8658326658975
 20
143.0850841539216
 30
0.0
 10
219.8566181552488
 20
146.9091330868969
 30
0.0
 10
212.3730224942092
 20
151.6755021295293
 30
0.0
 10
205.5260667294505
 20
157.3207839711372
 30
0.0
 10
199.2146097843831
 20
163.9727260427401
 30
0.0
 10
193.6306308043036
 20
171.6215359543037
 30
0.0
 10
188.9757811330778
 20
180.2086853955709
 30
0.0
 10
185.5394542456142
 20
189.3416861492722
 30
0.0
 10
183.264438518425
 20
198.8530508409503
 30
0.0
 10
182.8454887029564
 20
205.3393465181288
 30
0.0
 10
182.6360140091177
 20
208.5824910451294
 30
0.0
  0
LINE
  5
201
330
1F
100
AcDbEntity
  8
0
  6
Continuous
 62
     7
370
    25
100
AcDbLine
 10
253.8219209317
 20
137.9933746756
 30
0.0
 11
253.6943818518
 21
130.8898727093
 31
0.0
  0
LINE
  5
202
330
1F
100
AcDbEntity
  8
0
  6
Continuous
 62
     7
370
    25
100
AcDbLine
 10
182.6360140091
 20
208.5824910451
 30
0.0
 11
175.5409507502
 21
208.3960704271
 31
0.0
  0
SPLINE
  5
203
330
1F
100
AcDbEntity
  8
0
  6
Continuous
 62
     7
370
    25
100
AcDbSpline
210
0.0
220
0.0
230
1.0
 70
     8
 71
     3
 72
    20
 73
    16
 74
     0
 42
0.00000001
 43
0.00000001
 40
0.0
 40
0.0
 40
0.0
 40
0.0
 40
0.1730695657960299
 40
0.3443263772310589
 40
0.3984436454347779
 40
0.4534059612333569
 40
0.50921351361134
 40
0.5628049215411638
 40
0.6062830214803782
 40
0.6727111407775092
 40
0.7412071352923502
 40
0.8074225042611054
 40
0.8694750555870752
 40
0.9336675168588827
 40
1.0
 40
1.0
 40
1.0
 40
1.0
 10
433.0282451325014
 20
138.1292534661889
 30
0.0
 10
422.6897120349053
 20
137.9647841307515
 30
0.0
 10
402.1209330528508
 20
137.6375681342459
 30
0.0
 10
378.3169696339517
 20
137.4335863883144
 30
0.0
 10
361.5693350980682
 20
137.3463008601759
 30
0.0
 10
351.7188386313246
 20
137.313542454051
 30
0.0
 10
341.8998992070263
 20
137.2990764541811
 30
0.0
 10
332.7672011437967
 20
137.3025397872525
 30
0.0
 10
323.0002530078648
 20
137.3223087984658
 30
0.0
 10
312.3432266611373
 20
137.363809746131
 30
0.0
 10
300.3284380071616
 20
137.4383627965854
 30
0.0
 10
288.5755364266674
 20
137.5383423362712
 30
0.0
 10
277.0802405929892
 20
137.6620533445366
 30
0.0
 10
265.5784710115959
 20
137.8091101257729
 30
0.0
 10
257.7833724734876
 20
137.9312854282825
 30
0.0
 10
253.8219209311171
 20
137.9933746421904
 30
0.0
  0
LINE
  5
204
330
1F
100
AcDbEntity
  8
0
  6
Continuous
 62
     7
370
    25
100
AcDbLine
 10
433.0282451318
 20
138.1292535043
 30
0.0
 11
433.1582247855
 21
130.8898727094
 31
0.0
  0
SPLINE
  5
205
330
1F
100
AcDbEntity
  8
0
  6
Continuous
 62
     7
370
    25
100
AcDbSpline
210
0.0
220
0.0
230
1.0
 70
     8
 71
     3
 72
    19
 73
    15
 74
     0
 42
0.00000001
 43
0.00000001
 40
0.0
 40
0.0
 40
0.0
 40
0.0
 40
0.0799983818099826
 40
0.159995005244986
 40
0.2400158512791663
 40
0.32002998844227
 40
0.40003399247759
 40
0.4800298109211341
 40
0.5600440306431387
 40
0.6480336251325635
 40
0.7360300251862272
 40
0.8240195304963687
 40
0.9120096777140638
 40
0.9999999999999999
 40
0.9999999999999999
 40
0.9999999999999999
 40
0.9999999999999999
 10
433.0282466463177
 20
541.2592853492293
 30
0.0
 10
435.9712760024594
 20
541.1029196089967
 30
0.0
 10
441.8572700265697
 20
540.7901915654711
 30
0.0
 10
450.5311385929051
 20
538.9607478834942
 30
0.0
 10
458.9266603579784
 20
536.1643197899419
 30
0.0
 10
466.9164197954215
 20
532.3443442010528
 30
0.0
 10
474.380694131054
 20
527.5848860271144
 30
0.0
 10
481.2088330050155
 20
521.9494397668557
 30
0.0
 10
487.5017963134895
 20
515.3107117881332
 30
0.0
 10
493.0689170057872
 20
507.6780875434841
 30
0.0
 10
497.7090319555413
 20
499.1098281868818
 30
0.0
 10
501.1336988312597
 20
489.9969869943549
 30
0.0
 10
503.3996906155731
 20
480.5074258602347
 30
0.0
 10
503.8152817650638
 20
474.0364535201741
 30
0.0
 10
504.0230775465278
 20
470.8009641314293
 30
0.0
  0
LINE
  5
206
330
1F
100
AcDbEntity
  8
0
  6
Continuous
 62
     7
370
    25
100
AcDbLine
 10
433.0282466463
 20
541.2592853492
 30
0.0
 11
433.1582247856
 21
548.4986661663
 31
0.0
  0
LINE
  5
207
330
1F
100
AcDbEntity
  8
0
  6
Continuous
 62
     7
370
    25
100
AcDbLine
 10
504.0230775465
 20
470.8009641314
 30
0.0
 11
511.3116558872
 21
470.9924684486
 31
0.0
  0
SPLINE
  5
208
330
1F
100
AcDbEntity
  8
0
  6
Continuous
 62
     7
370
    25
100
AcDbSpline
210
0.0
220
0.0
230
1.0
 70
     8
 71
     3
 72
    20
 73
    16
 74
     0
 42
0.00000001
 43
0.00000001
 40
0.0
 40
0.0
 40
0.0
 40
0.0
 40
0.0708090102839835
 40
0.1391800817983861
 40
0.2051133518452849
 40
0.2779142458856044
 40
0.323824921034329
 40
0.3688045748154802
 40
0.4128532744540763
 40
0.4590211698818715
 40
0.515284357128151
 40
0.637840252528331
 40
0.7573599918755349
 40
0.8785662630718545
 40
1.0
 40
1.0
 40
1.0
 40
1.0
 10
253.8219224454367
 20
541.3951642587924
 30
0.0
 10
258.0507240288328
 20
541.461254233462
 30
0.0
 10
266.3627304800701
 20
541.5911587193979
 30
0.0
 10
278.6132834833542
 20
541.744891977374
 30
0.0
 10
290.9833920637804
 20
541.8735130645258
 30
0.0
 10
302.0125376736742
 20
541.9613119563775
 30
0.0
 10
311.79045117202
 20
542.0193634319368
 30
0.0
 10
319.8510984340191
 20
542.0546653800048
 30
0.0
 10
327.9272993885384
 20
542.0777783917825
 30
0.0
 10
336.6777294145954
 20
542.0894105206721
 30
0.0
 10
350.1183098849489
 20
542.0839314774606
 30
0.0
 10
367.9414170082583
 20
542.0232344429674
 30
0.0
 10
389.6444517306883
 20
541.8595459737718
 30
0.0
 10
411.2801043098237
 20
541.6158831152029
 30
0.0
 10
425.7743366049917
 20
541.3782255583732
 30
0.0
 10
433.028246646917
 20
541.2592853825213
 30
0.0
  0
LINE
  5
209
330
1F
100
AcDbEntity
  8
0
  6
Continuous
 62
     7
370
    25
100
AcDbLine
 10
253.8219224461
 20
541.3951642207
 30
0.0
 11
253.6943818518
 21
548.4986661663
 31
0.0
  0
SPLINE
  5
20A
330
1F
100
AcDbEntity
  8
0
  6
Continuous
 62
     7
370
    25
100
AcDbSpline
210
0.0
220
0.0
230
1.0
 70
     8
 71
     3
 72
    17
 73
    13
 74
     0
 42
0.00000001
 43
0.00000001
 40
0.0
 40
0.0
 40
0.0
 40
0.0
 40
0.111295920089142
 40
0.2123823764781273
 40
0.3052106416656091
 40
0.3913827727721693
 40
0.472238101078006
 40
0.5489141139944679
 40
0.6223881770189525
 40
0.7514713975528292
 40
0.8765524175549234
 40
1.0
 40
1.0
 40
1.0
 40
1.0
 10
552.8825554610778
 20
435.6830247244594
 30
0.0
 10
552.8779813968827
 20
432.1902123527107
 30
0.0
 10
552.8692528592765
 20
425.5249923562362
 30
0.0
 10
552.8564805449478
 20
415.8683045383862
 30
0.0
 10
552.8451154092587
 20
406.967187186297
 30
0.0
 10
552.8351144521531
 20
398.6751767595488
 30
0.0
 10
552.8264270912631
 20
390.8739068773551
 30
0.0
 10
552.8189663080318
 20
383.4598373273618
 30
0.0
 10
552.8109705367859
 20
374.4792289003913
 30
0.0
 10
552.8034906499322
 20
363.9165324410426
 30
0.0
 10
552.7976292322703
 20
351.7197835982327
 30
0.0
 10
552.796820462086
 20
343.6851718424838
 30
0.0
 10
552.7964187347878
 20
339.6942694378288
 30
0.0
  0
SPLINE
  5
20B
330
1F
100
AcDbEntity
  8
0
  6
Continuous
 62
     7
370
    25
100
AcDbSpline
210
0.0
220
0.0
230
1.0
 70
     8
 71
     3
 72
    17
 73
    13
 74
     0
 42
0.00000001
 43
0.00000001
 40
0.0
 40
0.0
 40
0.0
 40
0.0
 40
0.1177339798086571
 40
0.2368978612518398
 40
0.3594499082468474
 40
0.4887356786911755
 40
0.5606444711301011
 40
0.6364535770891028
 40
0.7170964607920006
 40
0.8036634943092371
 40
0.8974463685433972
 40
1.0
 40
1.0
 40
1.0
 40
1.0
 10
552.7964187347878
 20
339.6942694378288
 30
0.0
 10
552.7967974925776
 20
335.8882741605281
 30
0.0
 10
552.7975596082429
 20
328.2300590675493
 30
0.0
 10
552.8030967770725
 20
316.6193967983715
 30
0.0
 10
552.811511277756
 20
304.6561097474006
 30
0.0
 10
552.8212864473
 20
294.2450427184533
 30
0.0
 10
552.8309387775032
 20
285.3646294795181
 30
0.0
 10
552.8395614946036
 20
278.0625213130886
 30
0.0
 10
552.8493206493216
 20
270.3158489737152
 30
0.0
 10
552.8602353590381
 20
262.028977181164
 30
0.0
 10
552.8723213330677
 20
253.0842702796782
 30
0.0
 10
552.8805067811635
 20
246.9235324684883
 30
0.0
 10
552.8847823356477
 20
243.7055571216894
 30
0.0
  0
LINE
  5
20C
330
1F
100
AcDbEntity
  8
0
  6
Continuous
 62
     7
370
    25
100
AcDbLine
 10
549.7392977033
 20
243.6451446471
 30
0.0
 11
552.8847823356
 21
243.7055571217
 31
0.0
  0
LINE
  5
20D
330
1F
100
AcDbEntity
  8
0
  6
Continuous
 62
     7
370
    25
100
AcDbLine
 10
549.7392977032
 20
435.7433942286
 30
0.0
 11
552.8825554611
 21
435.6830247245
 31
0.0
  0
SPLINE
  5
20E
330
1F
100
AcDbEntity
  8
0
  6
Continuous
 62
     7
370
    25
100
AcDbSpline
210
0.0
220
0.0
230
1.0
 70
     8
 71
     3
 72
    19
 73
    15
 74
     0
 42
0.00000001
 43
0.00000001
 40
0.0
 40
0.0
 40
0.0
 40
0.0
 40
0.0800052228211451
 40
0.1600096074163307
 40
0.24001602927903
 40
0.3200134054903797
 40
0.4000347037615122
 40
0.4800563786241606
 40
0.5600625222857113
 40
0.6480532226001012
 40
0.7360473284763052
 40
0.8240404612067929
 40
0.9120419385107087
 40
1.0
 40
1.0
 40
1.0
 40
1.0
 10
182.6360140428177
 20
470.8060493486294
 30
0.0
 10
182.815988456551
 20
473.7546341956529
 30
0.0
 10
183.1759353984003
 20
479.6517729969623
 30
0.0
 10
185.0783642674458
 20
488.3305015562804
 30
0.0
 10
187.9475948812164
 20
496.7217682182129
 30
0.0
 10
191.8394971754292
 20
504.6986748794171
 30
0.0
 10
196.6698035056272
 20
512.142701777832
 30
0.0
 10
202.3737224442731
 20
518.9421063122317
 30
0.0
 10
209.078782623738
 20
525.1964111375211
 30
0.0
 10
216.7735091251381
 20
530.714483414329
 30
0.0
 10
225.3989926436963
 20
535.2960426047321
 30
0.0
 10
234.5609294162171
 20
538.6549851575325
 30
0.0
 10
244.0900812638859
 20
540.8490372570584
 30
0.0
 10
250.578509031497
 20
541.2131518464121
 30
0.0
 10
253.8219224461177
 20
541.3951642207293
 30
0.0
  0
LINE
  5
20F
330
1F
100
AcDbEntity
  8
0
  6
Continuous
 62
     7
370
    25
100
AcDbLine
 10
182.6360140428
 20
470.8060493486
 30
0.0
 11
175.5409507502
 21
470.9924684486
 31
0.0
  0
SPLINE
  5
210
330
1F
100
AcDbEntity
  8
0
  6
Continuous
 62
     7
370
    25
100
AcDbSpline
210
0.0
220
0.0
230
1.0
 70
     8
 71
     3
 72
    18
 73
    14
 74
     0
 42
0.00000001
 43
0.00000001
 40
0.0
 40
0.0
 40
0.0
 40
0.0
 40
0.0916396728892068
 40
0.1836485028110381
 40
0.2760460408167702
 40
0.3688424550213953
 40
0.4620357315881047
 40
0.5556079311587193
 40
0.6441548960287935
 40
0.7329533272624907
 40
0.8219294280087844
 40
0.9109857062523183
 40
1.0
 40
1.0
 40
1.0
 40
1.0
 10
604.3389248576177
 20
486.8607765750294
 30
0.0
 10
601.8609451514133
 20
486.751751956596
 30
0.0
 10
596.8950035598192
 20
486.5332635299836
 30
0.0
 10
589.6001543534572
 20
484.8496617066246
 30
0.0
 10
582.59723709256
 20
482.2019810296435
 30
0.0
 10
576.0373832719232
 20
478.5403708894883
 30
0.0
 10
570.0631753152771
 20
473.9624043638468
 30
0.0
 10
564.9061277549331
 20
468.6558226608884
 30
0.0
 10
560.6307905789146
 20
462.7818690297958
 30
0.0
 10
557.2607509635646
 20
456.4923127537336
 30
0.0
 10
554.8048740095546
 20
449.7920434792939
 30
0.0
 10
553.223733307016
 20
442.8129103932862
 30
0.0
 10
552.9962635325348
 20
438.0592796858048
 30
0.0
 10
552.8825554610778
 20
435.6830247244594
 30
0.0
  0
LINE
  5
211
330
1F
100
AcDbEntity
  8
0
  6
Continuous
 62
     7
370
    25
100
AcDbLine
 10
604.3389254501
 20
489.303975653
 30
0.0
 11
604.3389248576
 21
486.860776575
 31
0.0
  0
SPLINE
  5
212
330
1F
100
AcDbEntity
  8
0
  6
Continuous
 62
     7
370
    25
100
AcDbSpline
210
0.0
220
0.0
230
1.0
 70
     8
 71
     3
 72
    12
 73
     8
 74
     0
 42
0.00000001
 43
0.00000001
 40
0.0
 40
0.0
 40
0.0
 40
0.0
 40
0.2736885740125013
 40
0.5495250982793899
 40
0.6961417064961511
 40
0.8458847851096928
 40
1.0
 40
1.0
 40
1.0
 40
1.0
 10
181.0125016448177
 20
339.6942694378296
 30
0.0
 10
181.0357264789058
 20
351.6576552484563
 30
0.0
 10
181.0823584191714
 20
375.6783173716714
 30
0.0
 10
181.4029997716885
 20
406.1052509823467
 30
0.0
 10
181.7878107571266
 20
431.1115521862042
 30
0.0
 10
182.1602848692907
 20
450.7965364767996
 30
0.0
 10
182.4759237702062
 20
464.0725367773338
 30
0.0
 10
182.6360140428177
 20
470.8060493486294
 30
0.0
  0
SPLINE
  5
213
330
1F
100
AcDbEntity
  8
0
  6
Continuous
 62
     7
370
    25
100
AcDbSpline
210
0.0
220
0.0
230
1.0
 70
     8
 71
     3
 72
    12
 73
     8
 74
     0
 42
0.00000001
 43
0.00000001
 40
0.0
 40
0.0
 40
0.0
 40
0.0
 40
0.1953451133113051
 40
0.3841273928393167
 40
0.5690969160013524
 40
0.7851873784469601
 40
1.0
 40
1.0
 40
1.0
 40
1.0
 10
182.6360140091177
 20
208.5824910451294
 30
0.0
 10
182.4356592931828
 20
217.1174956478179
 30
0.0
 10
182.0416809982021
 20
233.9007619928408
 30
0.0
 10
181.6105096389711
 20
258.7705228407288
 30
0.0
 10
181.2773755930172
 20
284.5495863265635
 30
0.0
 10
181.0556434892367
 20
311.4689725065226
 30
0.0
 10
181.0268538010665
 20
330.3044559706989
 30
0.0
 10
181.0125016448177
 20
339.6942694378296
 30
0.0
  0
SPLINE
  5
214
330
1F
100
AcDbEntity
  8
0
  6
Continuous
 62
     7
370
    25
100
AcDbSpline
210
0.0
220
0.0
230
1.0
 70
     8
 71
     3
 72
    19
 73
    15
 74
     0
 42
0.00000001
 43
0.00000001
 40
0.0
 40
0.0
 40
0.0
 40
0.0
 40
0.0800017791523973
 40
0.1600038491958389
 40
0.2400033907020032
 40
0.3200109966893133
 40
0.4000117490872631
 40
0.4800225883501569
 40
0.5600271545637573
 40
0.6480118622466702
 40
0.7360155634355119
 40
0.8240240839269984
 40
0.9120140559272272
 40
1.0
 40
1.0
 40
1.0
 40
1.0
 10
504.0230775138378
 20
208.5875732286294
 30
0.0
 10
503.8446038299928
 20
205.6459506329926
 30
0.0
 10
503.4876558133622
 20
199.762694745811
 30
0.0
 10
501.5930346262742
 20
191.1040183712684
 30
0.0
 10
498.7337648106655
 20
182.7312065004064
 30
0.0
 10
494.8543523391351
 20
174.7719190826145
 30
0.0
 10
490.0387888387459
 20
167.3438430434467
 30
0.0
 10
484.3519243843843
 20
160.5585212979437
 30
0.0
 10
477.6657697465498
 20
154.3158909279639
 30
0.0
 10
469.9913750339215
 20
148.8065508247024
 30
0.0
 10
461.3872785417832
 20
144.23059921206
 30
0.0
 10
452.2473414054559
 20
140.8742827510436
 30
0.0
 10
442.7396897986692
 20
138.6796864885612
 30
0.0
 10
436.2653439568205
 20
138.3127283659616
 30
0.0
 10
433.0282451318178
 20
138.1292535043294
 30
0.0
  0
LINE
  5
215
330
1F
100
AcDbEntity
  8
0
  6
Continuous
 62
     7
370
    25
100
AcDbLine
 10
504.0230775138
 20
208.5875732286
 30
0.0
 11
511.3116558872
 21
208.3960704271
 31
0.0
  0
SPLINE
  5
216
330
1F
100
AcDbEntity
  8
0
  6
Continuous
 62
     7
370
    25
100
AcDbSpline
210
0.0
220
0.0
230
1.0
 70
     8
 71
     3
 72
    19
 73
    15
 74
     0
 42
0.00000001
 43
0.00000001
 40
0.0
 40
0.0
 40
0.0
 40
0.0
 40
0.0802812014185942
 40
0.1609037613065569
 40
0.2426026005462891
 40
0.3271103958238704
 40
0.4169725307665326
 40
0.5135994545469147
 40
0.5870893965683602
 40
0.662905490999938
 40
0.7399818510337032
 40
0.8165370848975084
 40
0.9024946660710713
 40
1.0
 40
1.0
 40
1.0
 40
1.0
 10
505.5463599274578
 20
339.6942694378287
 30
0.0
 10
505.544632889239
 20
336.1845183814597
 30
0.0
 10
505.5411714693748
 20
329.1500926847781
 30
0.0
 10
505.5128257823953
 20
318.5443147310391
 30
0.0
 10
505.4660573851022
 20
307.7544313309637
 30
0.0
 10
505.3960524304263
 20
296.561509805952
 30
0.0
 10
505.2978628181583
 20
284.7170661034788
 30
0.0
 10
505.1780909924539
 20
273.3551573200702
 30
0.0
 10
505.0422453178159
 20
262.6078983323328
 30
0.0
 10
504.8987154019863
 20
252.7156052363892
 30
0.0
 10
504.7340044605369
 20
242.6899712820739
 30
0.0
 10
504.5411012526491
 20
232.2218466375997
 30
0.0
 10
504.3100295954472
 20
220.861792187769
 30
0.0
 10
504.1226594368322
 20
212.847135732412
 30
0.0
 10
504.0230775138378
 20
208.5875732286294
 30
0.0
  0
SPLINE
  5
217
330
1F
100
AcDbEntity
  8
0
  6
Continuous
 62
     7
370
    25
100
AcDbSpline
210
0.0
220
0.0
230
1.0
 70
     8
 71
     3
 72
    20
 73
    16
 74
     0
 42
0.00000001
 43
0.00000001
 40
0.0
 40
0.0
 40
0.0
 40
0.0
 40
0.0838739493753181
 40
0.160045664578803
 40
0.2269518445186686
 40
0.2923149054514971
 40
0.3584515320232151
 40
0.4215501613661271
 40
0.4832583527053264
 40
0.5470561592836324
 40
0.6097664371881052
 40
0.7126824942075596
 40
0.8101621574168033
 40
0.9053509524565768
 40
1.0
 40
1.0
 40
1.0
 40
1.0
 10
504.0230775465278
 20
470.8009641314293
 30
0.0
 10
504.1090992259141
 20
467.1369063992756
 30
0.0
 10
504.2732431221787
 20
460.1452652620069
 30
0.0
 10
504.4798364645058
 20
450.2300097592998
 30
0.0
 10
504.6541848553254
 20
441.1230105185695
 30
0.0
 10
504.805204782639
 20
432.4540019786241
 30
0.0
 10
504.9392153910377
 20
423.9509232204014
 30
0.0
 10
505.0571230164506
 20
415.6071145851839
 30
0.0
 10
505.160755558137
 20
407.3650823865249
 30
0.0
 10
505.2514217672108
 20
399.1395752098031
 30
0.0
 10
505.346510157234
 20
389.1126161709776
 30
0.0
 10
505.4328743918541
 20
377.6126873551748
 30
0.0
 10
505.4994815159222
 20
364.6919360356571
 30
0.0
 10
505.5391486310632
 20
352.1315344154887
 30
0.0
 10
505.543960722577
 20
343.8321588275884
 30
0.0
 10
505.5463599274578
 20
339.6942694378287
 30
0.0
  0
SPLINE
  5
218
330
1F
100
AcDbEntity
  8
0
  6
Continuous
 62
     7
370
    25
100
AcDbSpline
210
0.0
220
0.0
230
1.0
 70
     8
 71
     3
 72
    15
 73
    11
 74
     0
 42
0.00000001
 43
0.00000001
 40
0.0
 40
0.0
 40
0.0
 40
0.0
 40
0.0744113425044406
 40
0.2164935015741012
 40
0.3582396520576364
 40
0.499816751243185
 40
0.6414295360330136
 40
0.7832618489318541
 40
0.9254298584929298
 40
1.0
 40
1.0
 40
1.0
 40
1.0
 10
512.1394101460567
 20
358.999729332445
 30
0.0
 10
512.1530982614515
 20
359.0272325369066
 30
0.0
 10
512.1929226743976
 20
359.1072507819484
 30
0.0
 10
512.246601239044
 20
359.704592574134
 30
0.0
 10
512.288040471028
 20
360.65270773202
 30
0.0
 10
512.2988775652141
 20
361.7938590203139
 30
0.0
 10
512.2779715784678
 20
362.9351532568537
 30
0.0
 10
512.2281538873966
 20
363.8836115459198
 30
0.0
 10
512.1691620570971
 20
364.4813615366248
 30
0.0
 10
512.1285871178658
 20
364.5614464915042
 30
0.0
 10
512.1146270515591
 20
364.5890002303755
 30
0.0
  0
LWPOLYLINE
  5
219
330
1F
100
AcDbEntity
  8
0
  6
Continuous
 62
     7
370
    25
100
AcDbPolyline
 90
        3
 70
   128
 43
0.0
 10
512.0771335003
 20
364.6942695079
 10
511.4035900222
 20
364.6942696526
 10
510.874377289
 20
364.6942695079
  0
LINE
  5
21A
330
1F
100
AcDbEntity
  8
0
  6
Continuous
 62
     7
370
    25
100
AcDbLine
 10
510.874377289
 20
364.6942695079
 30
0.0
 11
510.8378544229
 21
364.5887894085
 31
0.0
  0
SPLINE
  5
21B
330
1F
100
AcDbEntity
  8
0
  6
Continuous
 62
     7
370
    25
100
AcDbSpline
210
0.0
220
0.0
230
1.0
 70
     8
 71
     3
 72
    13
 73
     9
 74
     0
 42
0.00000001
 43
0.00000001
 40
0.0
 40
0.0
 40
0.0
 40
0.0
 40
0.1669492541757436
 40
0.3335089197944963
 40
0.4998788981647282
 40
0.6662902116592136
 40
0.8329500626209424
 40
0.9999999999999999
 40
0.9999999999999999
 40
0.9999999999999999
 40
0.9999999999999999
 10
510.7977978869648
 20
364.4731038712471
 30
0.0
 10
510.7753562034609
 20
364.2873050448138
 30
0.0
 10
510.730525205798
 20
363.9161409673892
 30
0.0
 10
510.6908585230136
 20
362.9278136639265
 30
0.0
 10
510.6799486995401
 20
361.7946861515411
 30
0.0
 10
510.7008601946358
 20
360.6614041378052
 30
0.0
 10
510.7492615955684
 20
359.6727415848738
 30
0.0
 10
510.7973889667579
 20
359.3013887393433
 30
0.0
 10
510.8214807813354
 20
359.1154952721489
 30
0.0
  0
LINE
  5
21C
330
1F
100
AcDbEntity
  8
0
  6
Continuous
 62
     7
370
    25
100
AcDbLine
 10
510.8626364283
 20
358.9995791383
 30
0.0
 11
510.9000263147
 21
358.894269384
 31
0.0
  0
LWPOLYLINE
  5
21D
330
1F
100
AcDbEntity
  8
0
  6
Continuous
 62
     7
370
    25
100
AcDbPolyline
 90
        3
 70
   128
 43
0.0
 10
510.9000263147
 20
358.894269384
 10
511.5735663379
 20
358.8942692729
 10
512.1027763545
 20
358.894269384
  0
SPLINE
  5
21E
330
1F
100
AcDbEntity
  8
0
  6
Continuous
 62
     7
370
    25
100
AcDbSpline
210
0.0
220
0.0
230
1.0
 70
     8
 71
     3
 72
    15
 73
    11
 74
     0
 42
0.00000001
 43
0.00000001
 40
0.0
 40
0.0
 40
0.0
 40
0.0
 40
0.0744422358005428
 40
0.2165472591296211
 40
0.358315543565914
 40
0.4999024516656396
 40
0.6415084169088764
 40
0.7833227047596787
 40
0.9254735685512748
 40
1.0
 40
1.0
 40
1.0
 40
1.0
 10
512.168565540878
 20
348.6996979671571
 30
0.0
 10
512.1823154215514
 20
348.7272109170322
 30
0.0
 10
512.2223128630725
 20
348.8072441645825
 30
0.0
 10
512.2772271764106
 20
349.4046741446601
 30
0.0
 10
512.3206179209859
 20
350.3528676855088
 30
0.0
 10
512.3338009867142
 20
351.4940503028004
 30
0.0
 10
512.3152418173014
 20
352.6353092816029
 30
0.0
 10
512.2673775420077
 20
353.5836859086612
 30
0.0
 10
512.2096264370609
 20
354.1813332287086
 30
0.0
 10
512.1692283812889
 20
354.2614020385602
 30
0.0
 10
512.1553334185942
 20
354.2889418076069
 30
0.0
  0
LWPOLYLINE
  5
21F
330
1F
100
AcDbEntity
  8
0
  6
Continuous
 62
     7
370
    25
100
AcDbPolyline
 90
        3
 70
   128
 43
0.0
 10
512.11803537
 20
354.394269479
 10
511.4444974043
 20
354.3942695641
 10
510.9152890026
 20
354.394269479
  0
LINE
  5
220
330
1F
100
AcDbEntity
  8
0
  6
Continuous
 62
     7
370
    25
100
AcDbLine
 10
510.9152890026
 20
354.394269479
 30
0.0
 11
510.8785610668
 21
354.2888200337
 31
0.0
  0
SPLINE
  5
221
330
1F
100
AcDbEntity
  8
0
  6
Continuous
 62
     7
370
    25
100
AcDbSpline
210
0.0
220
0.0
230
1.0
 70
     8
 71
     3
 72
    13
 73
     9
 74
     0
 42
0.00000001
 43
0.00000001
 40
0.0
 40
0.0
 40
0.0
 40
0.0
 40
0.1669735612520844
 40
0.3335564797051298
 40
0.4999353384077188
 40
0.6663362709769971
 40
0.8329726790735184
 40
1.0
 40
1.0
 40
1.0
 40
1.0
 10
510.8382517978062
 20
354.1730882356065
 30
0.0
 10
510.8154258853305
 20
353.9872667366586
 30
0.0
 10
510.7698274627157
 20
353.6160584772322
 30
0.0
 10
510.7281262378145
 20
352.6276532354417
 30
0.0
 10
510.7148861151639
 20
351.4944919278444
 30
0.0
 10
510.7334664493468
 20
350.3612481311471
 30
0.0
 10
510.7798314276492
 20
349.3726638884561
 30
0.0
 10
510.8271898934202
 20
349.0013548439133
 30
0.0
 10
510.8508968683557
 20
348.8154828130295
 30
0.0
  0
LINE
  5
222
330
1F
100
AcDbEntity
  8
0
  6
Continuous
 62
     7
370
    25
100
AcDbLine
 10
510.8917910542
 20
348.6996332774
 30
0.0
 11
510.9289838616
 21
348.5942694129
 31
0.0
  0
LWPOLYLINE
  5
223
330
1F
100
AcDbEntity
  8
0
  6
Continuous
 62
     7
370
    25
100
AcDbPolyline
 90
        3
 70
   128
 43
0.0
 10
510.9289838616
 20
348.5942694129
 10
511.6025199823
 20
348.5942693614
 10
512.1317269339
 20
348.5942694129
  0
SPLINE
  5
224
330
1F
100
AcDbEntity
  8
0
  6
Continuous
 62
     7
370
    25
100
AcDbSpline
210
0.0
220
0.0
230
1.0
 70
     8
 71
     3
 72
    15
 73
    11
 74
     0
 42
0.00000001
 43
0.00000001
 40
0.0
 40
0.0
 40
0.0
 40
0.0
 40
0.1245712155467935
 40
0.2494448700678208
 40
0.3744045623096366
 40
0.4999354620291039
 40
0.6255090157313347
 40
0.7504881188729297
 40
0.8752796113958841
 40
0.9999999999999999
 40
0.9999999999999999
 40
0.9999999999999999
 40
0.9999999999999999
 10
511.7655415350378
 20
339.6942694378287
 30
0.0
 10
511.7621062856426
 20
340.1186873979623
 30
0.0
 10
511.7552274466165
 20
340.9685537371105
 30
0.0
 10
511.7023628370545
 20
342.0498214005368
 30
0.0
 10
511.6268603983929
 20
342.7740711814832
 30
0.0
 10
511.5372062031247
 20
343.0295472655025
 30
0.0
 10
511.4478856353663
 20
342.7745275926626
 30
0.0
 10
511.3731879446624
 20
342.0505696810536
 30
0.0
 10
511.3211524506963
 20
340.9693106392329
 30
0.0
 10
511.3143950132769
 20
340.119202419262
 30
0.0
 10
511.3110172574077
 20
339.6942694378288
 30
0.0
  0
SPLINE
  5
225
330
1F
100
AcDbEntity
  8
0
  6
Continuous
 62
     7
370
    25
100
AcDbSpline
210
0.0
220
0.0
230
1.0
 70
     8
 71
     3
 72
    15
 73
    11
 74
     0
 42
0.00000001
 43
0.00000001
 40
0.0
 40
0.0
 40
0.0
 40
0.0
 40
0.1245516216890061
 40
0.2494271257624996
 40
0.3743857311274805
 40
0.4999199363915754
 40
0.6255075447322992
 40
0.7505054332340422
 40
0.8753087013403081
 40
1.0
 40
1.0
 40
1.0
 40
1.0
 10
511.3110172574078
 20
339.6942694378288
 30
0.0
 10
511.3143856879161
 20
339.2699194878017
 30
0.0
 10
511.3211313081548
 20
338.420116113768
 30
0.0
 10
511.3731247434559
 20
337.3388306328054
 30
0.0
 10
511.4478108109129
 20
336.6144990922511
 30
0.0
 10
511.5371216623129
 20
336.3589794948562
 30
0.0
 10
511.6267976022019
 20
336.6140284685056
 30
0.0
 10
511.7023176710718
 20
337.3380935168703
 30
0.0
 10
511.7552121792802
 20
338.4193904106281
 30
0.0
 10
511.7620994467529
 20
339.2694369248346
 30
0.0
 10
511.7655415350378
 20
339.6942694378287
 30
0.0
  0
LWPOLYLINE
  5
226
330
1F
100
AcDbEntity
  8
0
  6
Continuous
 62
     7
370
    25
100
AcDbPolyline
 90
        3
 70
   128
 43
0.0
 10
512.1317269338
 20
330.7942694129
 10
511.4581908133
 20
330.7942693614
 10
510.9289838615
 20
330.7942694129
  0
LINE
  5
227
330
1F
100
AcDbEntity
  8
0
  6
Continuous
 62
     7
370
    25
100
AcDbLine
 10
510.9289838615
 20
330.7942694129
 30
0.0
 11
510.8918072492
 21
330.6889514478
 31
0.0
  0
SPLINE
  5
228
330
1F
100
AcDbEntity
  8
0
  6
Continuous
 62
     7
370
    25
100
AcDbSpline
210
0.0
220
0.0
230
1.0
 70
     8
 71
     3
 72
    13
 73
     9
 74
     0
 42
0.00000001
 43
0.00000001
 40
0.0
 40
0.0
 40
0.0
 40
0.0
 40
0.1670273176442708
 40
0.333663730760646
 40
0.5000646549723314
 40
0.6664435220718431
 40
0.8330264355175447
 40
1.0
 40
1.0
 40
1.0
 40
1.0
 10
510.8508968659597
 20
330.573056048915
 30
0.0
 10
510.8271898916203
 20
330.387184018471
 30
0.0
 10
510.7798314258637
 20
330.0158749655766
 30
0.0
 10
510.733466449036
 20
329.0272907248602
 30
0.0
 10
510.7148861151023
 20
327.8940469200149
 30
0.0
 10
510.7281262380333
 20
326.7608856206458
 30
0.0
 10
510.7698274643741
 20
325.7724803767689
 30
0.0
 10
510.8154258870625
 20
325.4012721264538
 30
0.0
 10
510.8382518001384
 20
325.2154506274818
 30
0.0
  0
LINE
  5
229
330
1F
100
AcDbEntity
  8
0
  6
Continuous
 62
     7
370
    25
100
AcDbLine
 10
510.8785593172
 20
325.0997239058
 30
0.0
 11
510.9152890028
 21
324.994269479
 31
0.0
  0
LWPOLYLINE
  5
22A
330
1F
100
AcDbEntity
  8
0
  6
Continuous
 62
     7
370
    25
100
AcDbPolyline
 90
        3
 70
   128
 43
0.0
 10
510.9152890028
 20
324.994269479
 10
511.5888269691
 20
324.9942695641
 10
512.1180353702
 20
324.994269479
  0
SPLINE
  5
22B
330
1F
100
AcDbEntity
  8
0
  6
Continuous
 62
     7
370
    25
100
AcDbSpline
210
0.0
220
0.0
230
1.0
 70
     8
 71
     3
 72
    15
 73
    11
 74
     0
 42
0.00000001
 43
0.00000001
 40
0.0
 40
0.0
 40
0.0
 40
0.0
 40
0.0745969490321197
 40
0.2167382509165028
 40
0.3585430065787369
 40
0.5001394422406328
 40
0.6417168363162595
 40
0.7834755831114912
 40
0.9255710531800478
 40
1.0
 40
1.0
 40
1.0
 40
1.0
 10
512.1552918305485
 20
325.0994796719158
 30
0.0
 10
512.1692010131122
 20
325.1270403343152
 30
0.0
 10
512.2096135492767
 20
325.2071166623693
 30
0.0
 10
512.2673777849222
 20
325.8048406331494
 30
0.0
 10
512.3152417537672
 20
326.7532329406407
 30
0.0
 10
512.333801001691
 20
327.8944876198227
 30
0.0
 10
512.3206179249286
 20
329.0356718113038
 30
0.0
 10
512.2772271430972
 20
329.9838633278949
 30
0.0
 10
512.2223142290301
 20
330.5812849871401
 30
0.0
 10
512.182318370787
 20
330.6613173699703
 30
0.0
 10
512.1685700386175
 20
330.6888280131169
 30
0.0
  0
LWPOLYLINE
  5
22C
330
1F
100
AcDbEntity
  8
0
  6
Continuous
 62
     7
370
    25
100
AcDbPolyline
 90
        3
 70
   128
 43
0.0
 10
512.102776354
 20
320.494269384
 10
511.4292363319
 20
320.4942692729
 10
510.9000263142
 20
320.494269384
  0
LINE
  5
22D
330
1F
100
AcDbEntity
  8
0
  6
Continuous
 62
     7
370
    25
100
AcDbLine
 10
510.9000263142
 20
320.494269384
 30
0.0
 11
510.8626739592
 21
320.389065385
 31
0.0
  0
SPLINE
  5
22E
330
1F
100
AcDbEntity
  8
0
  6
Continuous
 62
     7
370
    25
100
AcDbSpline
210
0.0
220
0.0
230
1.0
 70
     8
 71
     3
 72
    13
 73
     9
 74
     0
 42
0.00000001
 43
0.00000001
 40
0.0
 40
0.0
 40
0.0
 40
0.0
 40
0.1670499340726857
 40
0.3337097900624003
 40
0.5001210952139962
 40
0.6664910819977965
 40
0.8330507426131407
 40
1.0
 40
1.0
 40
1.0
 40
1.0
 10
510.8214807789029
 20
320.2730435892934
 30
0.0
 10
510.7973889649243
 20
320.0871501227218
 30
0.0
 10
510.7492615937306
 20
319.7157972691696
 30
0.0
 10
510.7008601942759
 20
318.727134718157
 30
0.0
 10
510.679948699416
 20
317.5938526963071
 30
0.0
 10
510.690858523201
 20
316.4607251922062
 30
0.0
 10
510.7305252074027
 20
315.4723978865881
 30
0.0
 10
510.7753562051636
 20
315.1012338186131
 30
0.0
 10
510.7977978892687
 20
314.915434992338
 30
0.0
  0
LINE
  5
22F
330
1F
100
AcDbEntity
  8
0
  6
Continuous
 62
     7
370
    25
100
AcDbLine
 10
510.8378504127
 20
314.7997611205
 30
0.0
 11
510.8743772897
 21
314.6942695079
 31
0.0
  0
LWPOLYLINE
  5
230
330
1F
100
AcDbEntity
  8
0
  6
Continuous
 62
     7
370
    25
100
AcDbPolyline
 90
        3
 70
   128
 43
0.0
 10
510.8743772897
 20
314.6942695079
 10
511.5479207697
 20
314.6942696525
 10
512.077133501
 20
314.6942695079
  0
SPLINE
  5
231
330
1F
100
AcDbEntity
  8
0
  6
Continuous
 62
     7
370
    25
100
AcDbSpline
210
0.0
220
0.0
230
1.0
 70
     8
 71
     3
 72
    15
 73
    11
 74
     0
 42
0.00000001
 43
0.00000001
 40
0.0
 40
0.0
 40
0.0
 40
0.0
 40
0.0746311818912631
 40
0.2167909128119394
 40
0.3586149737187304
 40
0.5002195079052438
 40
0.6417883728361407
 40
0.7835262677969362
 40
0.925600158786102
 40
1.0
 40
1.0
 40
1.0
 40
1.0
 10
512.1145908421647
 20
314.7994370575609
 30
0.0
 10
512.1285632552755
 20
314.8270088669663
 30
0.0
 10
512.1691507431821
 20
314.9071002922579
 30
0.0
 10
512.2281540759211
 20
315.5049166657837
 30
0.0
 10
512.2779715294971
 20
316.4533885157981
 30
0.0
 10
512.2988775764835
 20
317.5946790345775
 30
0.0
 10
512.2880404755466
 20
318.7358316853606
 30
0.0
 10
512.2466012074054
 20
319.683945084081
 30
0.0
 10
512.192923839569
 20
320.2812796953725
 30
0.0
 10
512.1531007948674
 20
320.3612971548774
 30
0.0
 10
512.1394140155419
 20
320.3887983496918
 30
0.0
  0
SPLINE
  5
232
330
1F
100
AcDbEntity
  8
0
  6
Continuous
 62
     7
370
    25
100
AcDbSpline
210
0.0
220
0.0
230
1.0
 70
     8
 71
     3
 72
    18
 73
    14
 74
     0
 42
0.00000001
 43
0.00000001
 40
0.0
 40
0.0
 40
0.0
 40
0.0
 40
0.0943961645097471
 40
0.1888369147985241
 40
0.2831745755058502
 40
0.3772964297367206
 40
0.4711195824719854
 40
0.5645884218208173
 40
0.6523710382872542
 40
0.7397984505854682
 40
0.826871183513234
 40
0.913598962450534
 40
0.9999999999999999
 40
0.9999999999999999
 40
0.9999999999999999
 40
0.9999999999999999
 10
552.8847823356477
 20
243.7055571216894
 30
0.0
 10
553.0114857271849
 20
241.1855104111318
 30
0.0
 10
553.2649523555871
 20
236.1442267060009
 30
0.0
 10
555.0385270708346
 20
228.7618646772843
 30
0.0
 10
557.790501284893
 20
221.7112062218147
 30
0.0
 10
561.5583149502316
 20
215.148040738294
 30
0.0
 10
566.2287421202021
 20
209.2129078359327
 30
0.0
 10
571.6003052264547
 20
204.1276560429694
 30
0.0
 10
577.5028616296944
 20
199.9455379025403
 30
0.0
 10
583.7804411613369
 20
196.676996902729
 30
0.0
 10
590.4291863833153
 20
194.3185035720558
 30
0.0
 10
597.3217721493706
 20
192.8205659238882
 30
0.0
 10
602.0028188339784
 20
192.6257422241286
 30
0.0
 10
604.3389249691378
 20
192.5285142170294
 30
0.0
  0
LINE
  5
233
330
1F
100
AcDbEntity
  8
0
  6
Continuous
 62
     7
370
    25
100
AcDbLine
 10
604.3389254501
 20
190.0845632225
 30
0.0
 11
604.3389249691
 21
192.528514217
 31
0.0
  0
SPLINE
  5
234
330
1F
100
AcDbEntity
  8
0
  6
Continuous
 62
     7
370
    25
100
AcDbSpline
210
0.0
220
0.0
230
1.0
 70
     8
 71
     3
 72
    15
 73
    11
 74
     0
 42
0.00000001
 43
0.00000001
 40
0.0
 40
0.0
 40
0.0
 40
0.0
 40
0.09480884340655
 40
0.1969657876970776
 40
0.308843551436327
 40
0.4343997207423764
 40
0.574342434602001
 40
0.7349860697006235
 40
0.8744951240704831
 40
1.0
 40
1.0
 40
1.0
 40
1.0
 10
640.5136816682577
 20
486.8600246476294
 30
0.0
 10
639.3722674593431
 20
486.865279119402
 30
0.0
 10
637.0009744378317
 20
486.8761953075387
 30
0.0
 10
633.2767473502048
 20
486.8854495976695
 30
0.0
 10
629.1803081863841
 20
486.8908158346779
 30
0.0
 10
624.6273133416806
 20
486.8921079223756
 30
0.0
 10
619.4860144048464
 20
486.8922103079287
 30
0.0
 10
614.1765252377837
 20
486.890028524034
 30
0.0
 10
609.0415771272116
 20
486.8813159756053
 30
0.0
 10
605.8502625453835
 20
486.8673775245351
 30
0.0
 10
604.3389248576177
 20
486.8607765750294
 30
0.0
  0
SPLINE
  5
235
330
1F
100
AcDbEntity
  8
0
  6
Continuous
 62
     7
370
    25
100
AcDbSpline
210
0.0
220
0.0
230
1.0
 70
     8
 71
     3
 72
    15
 73
    11
 74
     0
 42
0.00000001
 43
0.00000001
 40
0.0
 40
0.0
 40
0.0
 40
0.0
 40
0.0948088289568085
 40
0.1969657608382591
 40
0.3088435186464861
 40
0.4343996974424309
 40
0.5743424095088264
 40
0.7349860349492231
 40
0.8744951027390327
 40
1.0
 40
1.0
 40
1.0
 40
1.0
 10
604.3389249691378
 20
192.5285142170294
 30
0.0
 10
605.4803390038593
 20
192.5232597457423
 30
0.0
 10
607.8516317015344
 20
192.5123435584392
 30
0.0
 10
611.5758583949026
 20
192.5030892711231
 30
0.0
 10
615.6722974527457
 20
192.4977230372322
 30
0.0
 10
620.2252923189056
 20
192.4964309531336
 30
0.0
 10
625.3665912320226
 20
192.4963285679924
 30
0.0
 10
630.6760804226574
 20
192.4985103568612
 30
0.0
 10
635.8110288339781
 20
192.5072229093672
 30
0.0
 10
639.0023438348633
 20
192.5211613614078
 30
0.0
 10
640.5136817797777
 20
192.5277623116294
 30
0.0
  0
SPLINE
  5
236
330
1F
100
AcDbEntity
  8
0
  6
Continuous
 62
     7
370
    25
100
AcDbSpline
210
0.0
220
0.0
230
1.0
 70
     8
 71
     3
 72
     9
 73
     5
 74
     0
 42
0.00000001
 43
0.00000001
 40
0.0
 40
0.0
 40
0.0
 40
0.0
 40
0.559999925073909
 40
1.0
 40
1.0
 40
1.0
 40
1.0
 10
510.9000263142478
 20
320.4942693840393
 30
0.0
 10
511.0303827598705
 20
320.4937686744615
 30
0.0
 10
511.2631621581988
 20
320.4928745500957
 30
0.0
 10
511.4959758787301
 20
320.4919804754226
 30
0.0
 10
511.5984139332077
 20
320.4915870824993
 30
0.0
  0
LINE
  5
237
330
1F
100
AcDbEntity
  8
0
  6
Continuous
 62
     7
370
    25
100
AcDbLine
 10
512.1037081029
 20
320.4915871027
 30
0.0
 11
511.5984139332
 21
320.4915870825
 31
0.0
  0
LINE
  5
238
330
1F
100
AcDbEntity
  8
0
  6
Continuous
 62
     7
370
    25
100
AcDbLine
 10
510.9289838615
 20
330.7942694129
 30
0.0
 11
511.6273196865
 21
330.7930260783
 31
0.0
  0
LINE
  5
239
330
1F
100
AcDbEntity
  8
0
  6
Continuous
 62
     7
370
    25
100
AcDbLine
 10
512.1321613771
 20
330.7930260783
 30
0.0
 11
511.6273196865
 21
330.7930260783
 31
0.0
  0
LINE
  5
23A
330
1F
100
AcDbEntity
  8
0
  6
Continuous
 62
     7
370
    25
100
AcDbLine
 10
510.9289838616
 20
348.5942694129
 30
0.0
 11
511.6272893259
 21
348.595512947
 31
0.0
  0
LINE
  5
23B
330
1F
100
AcDbEntity
  8
0
  6
Continuous
 62
     7
370
    25
100
AcDbLine
 10
511.6272893259
 20
348.595512947
 30
0.0
 11
512.2716791885
 21
348.595512947
 31
0.0
  0
LINE
  5
23C
330
1F
100
AcDbEntity
  8
0
  6
Continuous
 62
     7
370
    25
100
AcDbLine
 10
510.9000263147
 20
358.894269384
 30
0.0
 11
511.598343986
 21
358.8969520643
 31
0.0
  0
LINE
  5
23D
330
1F
100
AcDbEntity
  8
0
  6
Continuous
 62
     7
370
    25
100
AcDbLine
 10
511.598343986
 20
358.8969520643
 30
0.0
 11
512.2422045123
 21
358.8969520643
 31
0.0
  0
SPLINE
  5
23E
330
1F
100
AcDbEntity
  8
0
  6
Continuous
 62
     7
370
    25
100
AcDbSpline
210
0.0
220
0.0
230
1.0
 70
     8
 71
     3
 72
    15
 73
    11
 74
     0
 42
0.00000001
 43
0.00000001
 40
0.0
 40
0.0
 40
0.0
 40
0.0
 40
0.0744491925050037
 40
0.2166186981562164
 40
0.3584644018891016
 40
0.5001035470949066
 40
0.6417072856513176
 40
0.7834668827235434
 40
0.9255507953036036
 40
1.0
 40
1.0
 40
1.0
 40
1.0
 10
511.5609622729766
 20
320.3863389318359
 30
0.0
 10
511.5470553562217
 20
320.3589036036127
 30
0.0
 10
511.5065915432313
 20
320.2790772833634
 30
0.0
 10
511.4482108040801
 20
319.6816078427833
 30
0.0
 10
511.3990025496728
 20
318.7331803363692
 30
0.0
 10
511.3783455561207
 20
317.5916726153012
 30
0.0
 10
511.3888796189896
 20
316.4501838485365
 30
0.0
 10
511.42966453092
 20
315.5016731179012
 30
0.0
 10
511.4827325092708
 20
314.9039649884568
 30
0.0
 10
511.5224735842883
 20
314.8238379919433
 30
0.0
 10
511.5361375053828
 20
314.7962884362902
 30
0.0
  0
SPLINE
  5
23F
330
1F
100
AcDbEntity
  8
0
  6
Continuous
 62
     7
370
    25
100
AcDbSpline
210
0.0
220
0.0
230
1.0
 70
     8
 71
     3
 72
    15
 73
    11
 74
     0
 42
0.00000001
 43
0.00000001
 40
0.0
 40
0.0
 40
0.0
 40
0.0
 40
0.0744612831441346
 40
0.2166080915538967
 40
0.3584300665583574
 40
0.5000568126161318
 40
0.641664673642895
 40
0.7834407257172098
 40
0.9255418260358091
 40
1.0
 40
1.0
 40
1.0
 40
1.0
 10
511.5901005114681
 20
330.6876818500406
 30
0.0
 10
511.5762487808263
 20
330.6601940338047
 30
0.0
 10
511.5359540556706
 20
330.5802318955703
 30
0.0
 10
511.4788169856397
 20
329.9826690354509
 30
0.0
 10
511.4315794065756
 20
329.0342484069105
 30
0.0
 10
511.4132856002757
 20
327.8928253761866
 30
0.0
 10
511.4261779031063
 20
326.7514208684379
 30
0.0
 10
511.4689207434309
 20
325.8029815297538
 30
0.0
 10
511.5232221544016
 20
325.2053253812081
 30
0.0
 10
511.5631303611381
 20
325.1252253219965
 30
0.0
 10
511.5768517416222
 20
325.0976850369495
 30
0.0
  0
SPLINE
  5
240
330
1F
100
AcDbEntity
  8
0
  6
Continuous
 62
     7
370
    25
100
AcDbSpline
210
0.0
220
0.0
230
1.0
 70
     8
 71
     3
 72
    15
 73
    11
 74
     0
 42
0.00000001
 43
0.00000001
 40
0.0
 40
0.0
 40
0.0
 40
0.0
 40
0.0745099117241189
 40
0.2165776503721014
 40
0.3583210506657438
 40
0.4999086804704239
 40
0.6415316679717283
 40
0.783360961277125
 40
0.9255143239433329
 40
1.0
 40
1.0
 40
1.0
 40
1.0
 10
511.5361417033449
 20
364.5922873775555
 30
0.0
 10
511.5224678055827
 20
364.5646881662304
 30
0.0
 10
511.4827219438542
 20
364.4844656535122
 30
0.0
 10
511.4296566595008
 20
363.8867246437563
 30
0.0
 10
511.3888815648863
 20
362.9383464556674
 30
0.0
 10
511.3783464577701
 20
361.7970753691066
 30
0.0
 10
511.3989915670721
 20
360.6557523732555
 30
0.0
 10
511.4481800324147
 20
359.707371540299
 30
0.0
 10
511.5065487235264
 20
359.109781396141
 30
0.0
 10
511.5470130522952
 20
359.0297810115599
 30
0.0
 10
511.5609256550389
 20
359.0022749684873
 30
0.0
  0
SPLINE
  5
241
330
1F
100
AcDbEntity
  8
0
  6
Continuous
 62
     7
370
    25
100
AcDbSpline
210
0.0
220
0.0
230
1.0
 70
     8
 71
     3
 72
    15
 73
    11
 74
     0
 42
0.00000001
 43
0.00000001
 40
0.0
 40
0.0
 40
0.0
 40
0.0
 40
0.074499567148476
 40
0.2165915006757442
 40
0.3583583351534062
 40
0.4999570508543264
 40
0.641574657796417
 40
0.7833873832056368
 40
0.9255250334530543
 40
1.0
 40
1.0
 40
1.0
 40
1.0
 10
511.5768537147454
 20
354.2908731815955
 30
0.0
 10
511.5631252623063
 20
354.2632983382268
 30
0.0
 10
511.5232127335555
 20
354.1831303998786
 30
0.0
 10
511.4689122851932
 20
353.5854230826428
 30
0.0
 10
511.4261767614451
 20
352.6370314309105
 30
0.0
 10
511.4132865016012
 20
351.4957343098583
 30
0.0
 10
511.431576651015
 20
350.3544136601606
 30
0.0
 10
511.478805913849
 20
349.4060376210228
 30
0.0
 10
511.5359369211886
 20
348.8084406644539
 30
0.0
 10
511.5762309189686
 20
348.7284054716731
 30
0.0
 10
511.5900846555659
 20
348.700888061131
 30
0.0
  0
LINE
  5
242
330
1F
100
AcDbEntity
  8
0
  6
Continuous
 62
     7
370
    25
100
AcDbLine
 10
604.3389248576
 20
486.860776575
 30
0.0
 11
604.5481436095
 21
486.489220625
 31
0.0
  0
SPLINE
  5
243
330
1F
100
AcDbEntity
  8
0
  6
Continuous
 62
     7
370
    25
100
AcDbSpline
210
0.0
220
0.0
230
1.0
 70
     8
 71
     3
 72
    15
 73
    11
 74
     0
 42
0.00000001
 43
0.00000001
 40
0.0
 40
0.0
 40
0.0
 40
0.0
 40
0.1159644647542031
 40
0.2376006562106922
 40
0.3667783125550369
 40
0.5047773302433564
 40
0.6199408580347806
 40
0.7410504194971897
 40
0.8678989845045614
 40
1.0
 40
1.0
 40
1.0
 40
1.0
 10
604.1829331237077
 20
458.4991305539294
 30
0.0
 10
602.5140096680572
 20
458.5612424843858
 30
0.0
 10
599.0945370816187
 20
458.6885041887899
 30
0.0
 10
593.8498998707369
 20
457.8845113819522
 30
0.0
 10
588.5096205601473
 20
456.1467738753618
 30
0.0
 10
583.6720676246729
 20
453.4557318037254
 30
0.0
 10
579.5010601670853
 20
450.0159102635944
 30
0.0
 10
576.1000339524011
 20
446.0283280542121
 30
0.0
 10
573.2746417546389
 20
441.2963870171735
 30
0.0
 10
572.1793107236707
 20
437.7271883892727
 30
0.0
 10
571.6205365359945
 20
435.9063908334894
 30
0.0
  0
LWPOLYLINE
  5
244
330
1F
100
AcDbEntity
  8
0
  6
Continuous
 62
     7
370
    25
100
AcDbPolyline
 90
       12
 70
   128
 43
0.0
 10
552.8825554274
 20
435.6829972715
 10
553.24507851
 20
436.2810943835
 10
553.9514443927
 20
436.7790460696
 10
554.9878886416
 20
437.1671491105
 10
556.3342148278
 20
437.437840827
 10
557.9641880805
 20
437.585846448
 10
559.8460463065
 20
437.6082818966
 10
561.9431191148
 20
437.5047099897
 10
564.2145423858
 20
437.277148957
 10
566.6160545601
 20
436.9300331135
 10
569.1008591316
 20
436.4701264511
 10
571.620536536
 20
435.9063908335
  0
LINE
  5
245
330
1F
100
AcDbEntity
  8
0
  6
Continuous
 62
     7
370
    25
100
AcDbLine
 10
640.5136817798
 20
192.5277623116
 30
0.0
 11
640.3044630548
 21
192.8993182535
 31
0.0
  0
SPLINE
  5
246
330
1F
100
AcDbEntity
  8
0
  6
Continuous
 62
     7
370
    25
100
AcDbSpline
210
0.0
220
0.0
230
1.0
 70
     8
 71
     3
 72
    15
 73
    11
 74
     0
 42
0.00000001
 43
0.00000001
 40
0.0
 40
0.0
 40
0.0
 40
0.0
 40
0.1159644636551482
 40
0.2376006544286589
 40
0.3667783107807336
 40
0.5047773294198016
 40
0.6199408580350553
 40
0.7410504202033545
 40
0.867898985383067
 40
1.0
 40
1.0
 40
1.0
 40
1.0
 10
640.6696735125578
 20
220.8894081646294
 30
0.0
 10
642.3385969710207
 20
220.8272962396669
 30
0.0
 10
645.7580695699828
 20
220.7000345462676
 30
0.0
 10
651.0027068207205
 20
221.5040272957338
 30
0.0
 10
656.342986220985
 20
223.2417647472506
 30
0.0
 10
661.1805392705866
 20
225.9328067988712
 30
0.0
 10
665.3515468302201
 20
229.3726283720092
 30
0.0
 10
668.752573096742
 20
233.3602106501442
 30
0.0
 10
671.5779652817457
 20
238.0921517754744
 30
0.0
 10
672.6732962242585
 20
241.6613504659748
 30
0.0
 10
673.2320703646177
 20
243.4821480465494
 30
0.0
  0
LWPOLYLINE
  5
247
330
1F
100
AcDbEntity
  8
0
  6
Continuous
 62
     7
370
    25
100
AcDbPolyline
 90
       12
 70
   128
 43
0.0
 10
691.9700511917
 20
243.7055416045
 10
691.6075281158
 20
243.1074445745
 10
690.9011622463
 20
242.6094929564
 10
689.8647180165
 20
242.221389968
 10
688.5183918547
 20
241.9506982874
 10
686.8884186307
 20
241.8026926847
 10
685.0065604366
 20
241.7802572365
 10
682.909487662
 20
241.883829126
 10
680.6380644252
 20
242.1113901237
 10
678.2365522838
 20
242.4585059154
 10
675.7517477428
 20
242.9184125104
 10
673.2320703646
 20
243.4821480465
  0
LWPOLYLINE
  5
248
330
1F
100
AcDbEntity
  8
0
  6
Continuous
 62
     7
370
    25
100
AcDbPolyline
 90
       12
 70
   128
 43
0.0
 10
552.8847823017
 20
243.7055843967
 10
553.2466323328
 20
243.1091674657
 10
553.9516841613
 20
242.6126141536
 10
554.9862011235
 20
242.2255989064
 10
556.3300275211
 20
241.9556620187
 10
557.9569813192
 20
241.8080627241
 10
559.835364256
 20
241.7856767287
 10
561.928579426
 20
241.8889401834
 10
564.1958443049
 20
242.1158411858
 10
566.5929853238
 20
242.461958979
 10
569.0732985109
 20
242.9205500817
 10
571.5884594351
 20
243.4826796729
  0
SPLINE
  5
249
330
1F
100
AcDbEntity
  8
0
  6
Continuous
 62
     7
370
    25
100
AcDbSpline
210
0.0
220
0.0
230
1.0
 70
     8
 71
     3
 72
    15
 73
    11
 74
     0
 42
0.00000001
 43
0.00000001
 40
0.0
 40
0.0
 40
0.0
 40
0.0
 40
0.1344489722035668
 40
0.2634545919066011
 40
0.3865019898386526
 40
0.5033818672456395
 40
0.614166084792813
 40
0.7505242453716331
 40
0.8784367570817635
 40
1.0
 40
1.0
 40
1.0
 40
1.0
 10
571.5884594351298
 20
243.4826796728694
 30
0.0
 10
572.1593188790398
 20
241.6280452824479
 30
0.0
 10
573.2779257331229
 20
237.9938639387286
 30
0.0
 10
576.1798113264279
 20
233.1905828717079
 30
0.0
 10
579.6710479833755
 20
229.1628871225097
 30
0.0
 10
583.6198594647317
 20
225.9782064919681
 30
0.0
 10
588.197163720371
 20
223.385623614788
 30
0.0
 10
593.3210805157526
 20
221.5965660073566
 30
0.0
 10
598.8368213647852
 20
220.6864133905162
 30
0.0
 10
602.431442674367
 20
220.8156565776357
 30
0.0
 10
604.1830109744877
 20
220.8786335229294
 30
0.0
  0
LWPOLYLINE
  5
24A
330
1F
100
AcDbEntity
  8
0
  6
Continuous
 62
     7
370
    25
100
AcDbPolyline
 90
       14
 70
   128
 43
0.0
 10
604.3389249691
 20
192.528514217
 10
604.5668919815
 20
192.9462901679
 10
604.7591518857
 20
193.7328167353
 10
604.9132376084
 20
194.8780012346
 10
605.0271719265
 20
196.3671486939
 10
605.0994928384
 20
198.1811504193
 10
605.1292723244
 20
200.2967291968
 10
605.116128255
 20
202.6867379853
 10
605.0602292944
 20
205.3205082663
 10
604.9622927366
 20
208.1642435811
 10
604.8235753002
 20
211.1814532065
 10
604.6458570032
 20
214.3334204023
 10
604.4314183212
 20
217.5796992233
 10
604.1830109745
 20
220.8786335229
  0
LWPOLYLINE
  5
24B
330
1F
100
AcDbEntity
  8
0
  6
Continuous
 62
     7
370
    25
100
AcDbPolyline
 90
       12
 70
   128
 43
0.0
 10
691.9678243176
 20
435.6829544786
 10
691.6059742929
 20
436.2793713401
 10
690.900922477
 20
436.7759245947
 10
689.8664055334
 20
437.1629397973
 10
688.5225791594
 20
437.4328766547
 10
686.8956253891
 20
437.5804759338
 10
685.0172424834
 20
437.6028619287
 10
682.9240273465
 20
437.4995984887
 10
680.6567625015
 20
437.2726975159
 10
678.259621516
 20
436.9265797664
 10
675.7793083602
 20
436.4679887207
 10
673.264147464
 20
435.9058591985
  0
SPLINE
  5
24C
330
1F
100
AcDbEntity
  8
0
  6
Continuous
 62
     7
370
    25
100
AcDbSpline
210
0.0
220
0.0
230
1.0
 70
     8
 71
     3
 72
    15
 73
    11
 74
     0
 42
0.00000001
 43
0.00000001
 40
0.0
 40
0.0
 40
0.0
 40
0.0
 40
0.1344489715428909
 40
0.2634545913600518
 40
0.3865019899064054
 40
0.5033818680316714
 40
0.6141660861298955
 40
0.7505242468884633
 40
0.8784367580965727
 40
1.0
 40
1.0
 40
1.0
 40
1.0
 10
673.2641474640177
 20
435.9058591984394
 30
0.0
 10
672.6932880608306
 20
437.7604936146913
 30
0.0
 10
671.5746812833682
 20
441.3946750193445
 30
0.0
 10
668.6727957003884
 20
446.1979561734349
 30
0.0
 10
665.1815589927951
 20
450.2256519870937
 30
0.0
 10
661.2327474246589
 20
453.4103326463127
 30
0.0
 10
656.6554430704197
 20
456.0029155119598
 30
0.0
 10
651.5315261906424
 20
457.7919730729662
 30
0.0
 10
646.0157852930998
 20
458.7021256343191
 30
0.0
 10
642.4211639662973
 20
458.5728824533724
 30
0.0
 10
640.6695956617577
 20
458.5099055112294
 30
0.0
  0
LWPOLYLINE
  5
24D
330
1F
100
AcDbEntity
  8
0
  6
Continuous
 62
     7
370
    25
100
AcDbPolyline
 90
       14
 70
   128
 43
0.0
 10
640.5136816683
 20
486.8600246476
 10
640.2857146768
 20
486.4422486992
 10
640.0934547906
 20
485.6557221367
 10
639.9393690825
 20
484.5105376444
 10
639.8254347754
 20
483.0213901943
 10
639.753113871
 20
481.2073884802
 10
639.7233343888
 20
479.0918097156
 10
639.7364784581
 20
476.7018009417
 10
639.7923774147
 20
474.0680306768
 10
639.890313965
 20
471.2242953791
 10
640.02903139
 20
468.2070857716
 10
640.2067496723
 20
465.0551185943
 10
640.4211883362
 20
461.8088397922
 10
640.6695956618
 20
458.5099055112
  0
SPLINE
  5
24E
330
1F
100
AcDbEntity
  8
0
  6
Continuous
 62
     7
370
    25
100
AcDbSpline
210
0.0
220
0.0
230
1.0
 70
     8
 71
     3
 72
    15
 73
    11
 74
     0
 42
0.00000001
 43
0.00000001
 40
0.0
 40
0.0
 40
0.0
 40
0.0
 40
0.094773263657722
 40
0.1969189624601236
 40
0.3088053835970014
 40
0.4343848313240182
 40
0.5743580900485714
 40
0.7350285486993301
 40
0.8745359914435159
 40
1.0
 40
1.0
 40
1.0
 40
1.0
 10
640.6695956617577
 20
458.5099055112294
 30
0.0
 10
639.5189837834931
 20
458.4298602828097
 30
0.0
 10
637.1282536501461
 20
458.2635430882555
 30
0.0
 10
633.3724658745699
 20
458.1195260203026
 30
0.0
 10
629.2402879386295
 20
458.0336624228847
 30
0.0
 10
624.6469105800702
 20
458.0100194711544
 30
0.0
 10
619.4598674079161
 20
458.0087195052822
 30
0.0
 10
614.1035156234161
 20
458.0473272541059
 30
0.0
 10
608.9243376910019
 20
458.1855771113288
 30
0.0
 10
605.7065540146442
 20
458.3983721038139
 30
0.0
 10
604.1829331237077
 20
458.4991305539294
 30
0.0
  0
SPLINE
  5
24F
330
1F
100
AcDbEntity
  8
0
  6
Continuous
 62
     7
370
    25
100
AcDbSpline
210
0.0
220
0.0
230
1.0
 70
     8
 71
     3
 72
    15
 73
    11
 74
     0
 42
0.00000001
 43
0.00000001
 40
0.0
 40
0.0
 40
0.0
 40
0.0
 40
0.0947732492171403
 40
0.1969189356151905
 40
0.3088053508232996
 40
0.434384808042941
 40
0.5743580649740526
 40
0.7350285139626791
 40
0.8745359701230403
 40
1.0
 40
1.0
 40
1.0
 40
1.0
 10
604.1830109744877
 20
220.8786335229294
 30
0.0
 10
605.333622677186
 20
220.9586787431417
 30
0.0
 10
607.724352484102
 20
221.1249959233114
 30
0.0
 10
611.4801398622592
 20
221.2690129524271
 30
0.0
 10
615.6123176914851
 20
221.3548765059052
 30
0.0
 10
620.2056950717869
 20
221.3785194050378
 30
0.0
 10
625.3927382200035
 20
221.3798193684092
 30
0.0
 10
630.7490900281226
 20
221.3412115481443
 30
0.0
 10
635.9282682635757
 20
221.2029616339481
 30
0.0
 10
639.1460523624069
 20
220.9901666259863
 30
0.0
 10
640.6696735125578
 20
220.8894081646294
 30
0.0
  0
SPLINE
  5
250
330
1F
100
AcDbEntity
  8
0
  6
Continuous
 62
     7
370
    25
100
AcDbSpline
210
0.0
220
0.0
230
1.0
 70
     8
 71
     3
 72
    17
 73
    13
 74
     0
 42
0.00000001
 43
0.00000001
 40
0.0
 40
0.0
 40
0.0
 40
0.0
 40
0.1110841896274464
 40
0.212025312025854
 40
0.3047594941007943
 40
0.3908783835757513
 40
0.4717139690731686
 40
0.5483984978561266
 40
0.6219054867645378
 40
0.7511031321935143
 40
0.8763529094457558
 40
1.0
 40
1.0
 40
1.0
 40
1.0
 10
571.6205365359945
 20
435.9063908334894
 30
0.0
 10
570.7897446060521
 20
432.4090263152897
 30
0.0
 10
569.2040201319809
 20
425.7336406845679
 30
0.0
 10
567.2758584915434
 20
416.0604643036596
 30
0.0
 10
565.7138663022179
 20
407.1416007901605
 30
0.0
 10
564.4592537007496
 20
398.8313644690037
 30
0.0
 10
563.4450337185463
 20
391.0118136935947
 30
0.0
 10
562.6274543132724
 20
383.5795474408313
 30
0.0
 10
561.7998901177589
 20
374.5749234192945
 30
0.0
 10
561.0848642179889
 20
363.9832295679107
 30
0.0
 10
560.5859914577198
 20
351.7532906077096
 30
0.0
 10
560.5270388681307
 20
343.696650496829
 30
0.0
 10
560.4977523759077
 20
339.6942694378294
 30
0.0
  0
LINE
  5
251
330
1F
100
AcDbEntity
  8
0
  6
Continuous
 62
     7
370
    25
100
AcDbLine
 10
552.7964187348
 20
339.6942694378
 30
0.0
 11
560.4977523759
 21
339.6942694378
 31
0.0
  0
SPLINE
  5
252
330
1F
100
AcDbEntity
  8
0
  6
Continuous
 62
     7
370
    25
100
AcDbSpline
210
0.0
220
0.0
230
1.0
 70
     8
 71
     3
 72
    17
 73
    13
 74
     0
 42
0.00000001
 43
0.00000001
 40
0.0
 40
0.0
 40
0.0
 40
0.0
 40
0.1111688871934446
 40
0.2121569494376095
 40
0.3049135343286709
 40
0.3910388799635275
 40
0.4718705665495486
 40
0.5485444694349637
 40
0.622036415518379
 40
0.7511991271344961
 40
0.8764061087964831
 40
0.9999999999999999
 40
0.9999999999999999
 40
0.9999999999999999
 40
0.9999999999999999
 10
673.2320703646177
 20
243.4821480465494
 30
0.0
 10
674.0633991458428
 20
246.9821807897251
 30
0.0
 10
675.6499237810807
 20
253.6617139619137
 30
0.0
 10
677.5779524613796
 20
263.3399458786335
 30
0.0
 10
679.1391176000527
 20
272.2613876905525
 30
0.0
 10
680.3926059629033
 20
280.5725583180613
 30
0.0
 10
681.4056989259324
 20
288.3919417959625
 30
0.0
 10
682.2223114123371
 20
295.8233040811369
 30
0.0
 10
683.0489629907263
 20
304.8259842189225
 30
0.0
 10
683.7636321258568
 20
315.4146199478782
 30
0.0
 10
684.263373595229
 20
327.640184085712
 30
0.0
 10
684.3244927940444
 20
335.6936457521231
 30
0.0
 10
684.3548542615177
 20
339.6942694378294
 30
0.0
  0
LWPOLYLINE
  5
253
330
1F
100
AcDbEntity
  8
0
  6
Continuous
 62
     7
370
    25
100
AcDbPolyline
 90
        9
 70
   128
 43
0.0
 10
692.0561879026
 20
339.6942694378
 10
691.8208560965
 20
339.6938469829
 10
691.3261361545
 20
339.6935346992
 10
690.5885963413
 20
339.6933430452
 10
689.6329370056
 20
339.6932784393
 10
688.4911633602
 20
339.6933430452
 10
687.2015136217
 20
339.6935346992
 10
685.8071784049
 20
339.6938469829
 10
684.3548542615
 20
339.6942694378
  0
SPLINE
  5
254
330
1F
100
AcDbEntity
  8
0
  6
Continuous
 62
     7
370
    25
100
AcDbSpline
210
0.0
220
0.0
230
1.0
 70
     8
 71
     3
 72
    17
 73
    13
 74
     0
 42
0.00000001
 43
0.00000001
 40
0.0
 40
0.0
 40
0.0
 40
0.0
 40
0.1179758977839646
 40
0.2373451211625425
 40
0.3600473636744148
 40
0.4894107829964218
 40
0.5613232528713089
 40
0.6371039209728643
 40
0.7176784215118148
 40
0.8041260190370971
 40
0.8977225694290538
 40
1.0
 40
1.0
 40
1.0
 40
1.0
 10
684.3548542615177
 20
339.6942694378294
 30
0.0
 10
684.3294387891408
 20
343.5129115628855
 30
0.0
 10
684.2783076811431
 20
351.1952949553603
 30
0.0
 10
683.829930314166
 20
362.8419254698836
 30
0.0
 10
683.0642199962649
 20
374.8399947434474
 30
0.0
 10
682.0844742936378
 20
385.2807494957186
 30
0.0
 10
681.0300180151984
 20
394.184698096688
 30
0.0
 10
680.0264999849906
 20
401.5033619970116
 30
0.0
 10
678.8060017038251
 20
409.2654291417814
 30
0.0
 10
677.3121799788064
 20
417.5656649387331
 30
0.0
 10
675.4978609438342
 20
426.5203358172553
 30
0.0
 10
674.0303973173121
 20
432.6862627824685
 30
0.0
 10
673.2641474640177
 20
435.9058591984394
 30
0.0
  0
SPLINE
  5
255
330
1F
100
AcDbEntity
  8
0
  6
Continuous
 62
     7
370
    25
100
AcDbSpline
210
0.0
220
0.0
230
1.0
 70
     8
 71
     3
 72
    17
 73
    13
 74
     0
 42
0.00000001
 43
0.00000001
 40
0.0
 40
0.0
 40
0.0
 40
0.0
 40
0.1179248672332367
 40
0.2372526837291403
 40
0.3599206820639133
 40
0.4892587861124058
 40
0.5611639774882499
 40
0.6369441130956932
 40
0.7175281086137435
 40
0.8040001026605685
 40
0.8976431755038764
 40
1.0
 40
1.0
 40
1.0
 40
1.0
 10
560.4977523759077
 20
339.6942694378294
 30
0.0
 10
560.5242030455241
 20
335.8773118955967
 30
0.0
 10
560.5774190677265
 20
328.1979865605613
 30
0.0
 10
561.0267416727098
 20
316.5555872274895
 30
0.0
 10
561.7922060210348
 20
304.5608577914958
 30
0.0
 10
562.7708155843738
 20
294.1222428645333
 30
0.0
 10
563.8240040714454
 20
285.2192798047216
 30
0.0
 10
564.8264677967857
 20
277.9004630929802
 30
0.0
 10
566.0459752630485
 20
270.1371960101835
 30
0.0
 10
567.5391318002213
 20
261.8342491773525
 30
0.0
 10
569.3534484128637
 20
252.8746656104396
 30
0.0
 10
570.8216973204854
 20
246.7047751911724
 30
0.0
 10
571.5884594351298
 20
243.4826796728694
 30
0.0
  0
ARC
  5
256
330
1F
100
AcDbEntity
  8
0
  6
Continuous
 62
     7
370
    25
100
AcDbCircle
 10
622.4263033187
 20
339.6942694378
 30
0.0
 40
60.92706787962004
100
AcDbArc
 50
0.0
 51
180.0
  0
LINE
  5
257
330
1F
100
AcDbEntity
  8
0
  6
Continuous
 62
     7
370
    25
100
AcDbLine
 10
561.4992354391
 20
339.6942694378
 30
0.0
 11
560.4977523759
 21
339.6942694378
 31
0.0
  0
LINE
  5
258
330
1F
100
AcDbEntity
  8
0
  6
Continuous
 62
     7
370
    25
100
AcDbLine
 10
683.3533711983
 20
339.6942694378
 30
0.0
 11
684.3548542615
 21
339.6942694378
 31
0.0
  0
ARC
  5
259
330
1F
100
AcDbEntity
  8
0
  6
Continuous
 62
     7
370
    25
100
AcDbCircle
 10
622.4263033187
 20
339.6942694378
 30
0.0
 40
60.92706787962004
100
AcDbArc
 50
180.0
 51
0.0
  0
ARC
  5
25A
330
1F
100
AcDbEntity
  8
0
  6
Continuous
 62
     7
370
    25
100
AcDbCircle
 10
622.4263033187
 20
339.6942694378
 30
0.0
 40
59.275640339853
100
AcDbArc
 50
180.0
 51
0.0
  0
LINE
  5
25B
330
1F
100
AcDbEntity
  8
0
  6
Continuous
 62
     7
370
    25
100
AcDbLine
 10
681.7019436585
 20
339.6942694378
 30
0.0
 11
683.3533711983
 21
339.6942694378
 31
0.0
  0
LINE
  5
25C
330
1F
100
AcDbEntity
  8
0
  6
Continuous
 62
     7
370
    25
100
AcDbLine
 10
563.1506629788
 20
339.6942694378
 30
0.0
 11
561.4992354391
 21
339.6942694378
 31
0.0
  0
ARC
  5
25D
330
1F
100
AcDbEntity
  8
0
  6
Continuous
 62
     7
370
    25
100
AcDbCircle
 10
622.4263033187
 20
339.6942694378
 30
0.0
 40
59.275640339853
100
AcDbArc
 50
0.0
 51
180.0
  0
ARC
  5
25E
330
1F
100
AcDbEntity
  8
0
  6
Continuous
 62
     7
370
    25
100
AcDbCircle
 10
622.4263033187
 20
339.6942694378
 30
0.0
 40
57.56816999201999
100
AcDbArc
 50
180.0
 51
0.0
  0
LINE
  5
25F
330
1F
100
AcDbEntity
  8
0
  6
Continuous
 62
     7
370
    25
100
AcDbLine
 10
681.7019436585
 20
339.6942694378
 30
0.0
 11
679.9944733107
 21
339.6942694378
 31
0.0
  0
LINE
  5
260
330
1F
100
AcDbEntity
  8
0
  6
Continuous
 62
     7
370
    25
100
AcDbLine
 10
563.1506629788
 20
339.6942694378
 30
0.0
 11
564.8581333267
 21
339.6942694378
 31
0.0
  0
ARC
  5
261
330
1F
100
AcDbEntity
  8
0
  6
Continuous
 62
     7
370
    25
100
AcDbCircle
 10
622.4263033187
 20
339.6942694378
 30
0.0
 40
57.56816999201999
100
AcDbArc
 50
0.0
 51
180.0
  0
ARC
  5
262
330
1F
100
AcDbEntity
  8
0
  6
Continuous
 62
     7
370
    25
100
AcDbCircle
 10
622.4263033187
 20
339.6942694378
 30
0.0
 40
57.41530618572006
100
AcDbArc
 50
180.0
 51
0.0
  0
LINE
  5
263
330
1F
100
AcDbEntity
  8
0
  6
Continuous
 62
     7
370
    25
100
AcDbLine
 10
679.8416095044
 20
339.6942694378
 30
0.0
 11
679.9944733107
 21
339.6942694378
 31
0.0
  0
LINE
  5
264
330
1F
100
AcDbEntity
  8
0
  6
Continuous
 62
     7
370
    25
100
AcDbLine
 10
565.010997133
 20
339.6942694378
 30
0.0
 11
564.8581333267
 21
339.6942694378
 31
0.0
  0
ARC
  5
265
330
1F
100
AcDbEntity
  8
0
  6
Continuous
 62
     7
370
    25
100
AcDbCircle
 10
622.4263033187
 20
339.6942694378
 30
0.0
 40
57.41530618572006
100
AcDbArc
 50
0.0
 51
180.0
  0
LINE
  5
266
330
1F
100
AcDbEntity
  8
0
  6
Continuous
 62
     7
370
    25
100
AcDbLine
 10
565.010997133
 20
339.6942694378
 30
0.0
 11
576.9263033187
 21
339.6942694378
 31
0.0
  0
ARC
  5
267
330
1F
100
AcDbEntity
  8
0
  6
Continuous
 62
     7
370
    25
100
AcDbCircle
 10
622.4263033187
 20
339.6942694378
 30
0.0
 40
45.5
100
AcDbArc
 50
180.0
 51
0.0
  0
LINE
  5
268
330
1F
100
AcDbEntity
  8
0
  6
Continuous
 62
     7
370
    25
100
AcDbLine
 10
679.8416095044
 20
339.6942694378
 30
0.0
 11
667.9263033187
 21
339.6942694378
 31
0.0
  0
ARC
  5
269
330
1F
100
AcDbEntity
  8
0
  6
Continuous
 62
     7
370
    25
100
AcDbCircle
 10
622.4263033187
 20
339.6942694378
 30
0.0
 40
45.5
100
AcDbArc
 50
0.0
 51
180.0
  0
ARC
  5
26A
330
1F
100
AcDbEntity
  8
0
  6
Continuous
 62
     7
370
    25
100
AcDbCircle
 10
622.4263033187
 20
339.6942694378
 30
0.0
 40
45.00000000000011
100
AcDbArc
 50
0.0
 51
180.0
  0
ARC
  5
26B
330
1F
100
AcDbEntity
  8
0
  6
Continuous
 62
     7
370
    25
100
AcDbCircle
 10
622.4263033187
 20
339.6942694378
 30
0.0
 40
45.00000000000011
100
AcDbArc
 50
180.0
 51
0.0
  0
LWPOLYLINE
  5
26C
330
1F
100
AcDbEntity
  8
0
  6
Continuous
 62
     7
370
    25
100
AcDbPolyline
 90
       16
 70
   128
 43
0.0
 10
221.3913788927
 20
208.8154584353
 10
217.4802356612
 20
208.7241030499
 10
213.6176421798
 20
208.6414697248
 10
209.840772602
 20
208.5683537348
 10
206.1859760618
 20
208.5054587588
 10
202.6884268452
 20
208.4533901071
 10
199.3817858669
 20
208.4126488958
 10
196.2978767138
 20
208.3836272242
 10
193.4663793697
 20
208.366604401
 10
190.9145445707
 20
208.3617442563
 10
188.6669315407
 20
208.3690935648
 10
186.7451716298
 20
208.3885815957
 10
185.1677601307
 20
208.4200207934
 10
183.9498782778
 20
208.4631085826
 10
183.1032471407
 20
208.5174302802
 10
182.6360148187
 20
208.5824630865
  0
SPLINE
  5
26D
330
1F
100
AcDbEntity
  8
0
  6
Continuous
 62
     7
370
    25
100
AcDbSpline
210
0.0
220
0.0
230
1.0
 70
     8
 71
     3
 72
    16
 73
    12
 74
     0
 42
0.00000001
 43
0.00000001
 40
0.0
 40
0.0
 40
0.0
 40
0.0
 40
0.1117989664031249
 40
0.2237410603594526
 40
0.3357497954229052
 40
0.4478080955813232
 40
0.5599082008039711
 40
0.6700193943436441
 40
0.7800694735343964
 40
0.8900750640729654
 40
1.0
 40
1.0
 40
1.0
 40
1.0
 10
253.5928040384177
 20
176.8622530943294
 30
0.0
 10
251.7296701064524
 20
176.9909248915738
 30
0.0
 10
248.0010170165259
 20
177.2484332145937
 30
0.0
 10
242.591824304193
 20
178.8344857295505
 30
0.0
 10
237.5159507482732
 20
181.2501865998895
 30
0.0
 10
232.9237917076055
 20
184.5121350292695
 30
0.0
 10
228.9743353361113
 20
188.4785294006844
 30
0.0
 10
225.7633813096889
 20
193.0254051933363
 30
0.0
 10
223.3879612300541
 20
198.0116189534371
 30
0.0
 10
221.8116341326247
 20
203.3214472306989
 30
0.0
 10
221.531429719782
 20
206.9845691563866
 30
0.0
 10
221.3913788927177
 20
208.8154584351294
 30
0.0
  0
LWPOLYLINE
  5
26E
330
1F
100
AcDbEntity
  8
0
  6
Continuous
 62
     7
370
    25
100
AcDbPolyline
 90
       16
 70
   128
 43
0.0
 10
253.5928040383
 20
176.8622530943
 10
253.5356670642
 20
172.9423073518
 10
253.4882134941
 20
169.0701531437
 10
253.4509017443
 20
165.2831966997
 10
253.4240922583
 20
161.6180212122
 10
253.4080440239
 20
158.1100334312
 10
253.4029120723
 20
154.7931216238
 10
253.4087459797
 20
151.6993282033
 10
253.4254893887
 20
148.8585401888
 10
253.4529805528
 20
146.2982004875
 10
253.4909538985
 20
144.0430427876
 10
253.5390425915
 20
142.1148526231
 10
253.5967820798
 20
140.5322569184
 10
253.6636145818
 20
139.3105440467
 10
253.7388944744
 20
138.4615161392
 10
253.8218945301
 20
137.993375073
  0
LWPOLYLINE
  5
26F
330
1F
100
AcDbEntity
  8
0
  6
Continuous
 62
     7
370
    25
100
AcDbPolyline
 90
       16
 70
   128
 43
0.0
 10
253.5928040385
 20
502.5262857813
 10
253.5356670646
 20
506.4462315142
 10
253.4882134947
 20
510.3183857115
 10
253.4509017452
 20
514.1053421438
 10
253.4240922593
 20
517.7705176189
 10
253.4080440251
 20
521.2785053872
 10
253.4029120736
 20
524.5954171818
 10
253.4087459812
 20
527.6892105897
 10
253.4254893903
 20
530.529998592
 10
253.4529805544
 20
533.0903382818
 10
253.4909539002
 20
535.345495971
 10
253.5390425932
 20
537.273686126
 10
253.5967820815
 20
538.8562818223
 10
253.6636145834
 20
540.0779946871
 10
253.7388944759
 20
540.9270225892
 10
253.8218945315
 20
541.3951636516
  0
SPLINE
  5
270
330
1F
100
AcDbEntity
  8
0
  6
Continuous
 62
     7
370
    25
100
AcDbSpline
210
0.0
220
0.0
230
1.0
 70
     8
 71
     3
 72
    16
 73
    12
 74
     0
 42
0.00000001
 43
0.00000001
 40
0.0
 40
0.0
 40
0.0
 40
0.0
 40
0.1119194923842188
 40
0.223921698198442
 40
0.3359712636327868
 40
0.4480786908547834
 40
0.5601749540897096
 40
0.6702356997628516
 40
0.7802457931925121
 40
0.8901907392370421
 40
1.0
 40
1.0
 40
1.0
 40
1.0
 10
221.3913788927177
 20
470.5730804405294
 30
0.0
 10
221.5356345226189
 20
472.437224479612
 30
0.0
 10
221.8242523936802
 20
476.1668902422556
 30
0.0
 10
223.4551557194074
 20
481.5668792007405
 30
0.0
 10
225.9124134332856
 20
486.6257939862799
 30
0.0
 10
229.2114680340825
 20
491.193291562294
 30
0.0
 10
233.2088710836767
 20
495.1112287782964
 30
0.0
 10
237.7795845472569
 20
498.2851780590783
 30
0.0
 10
242.7820842390555
 20
500.6196320425285
 30
0.0
 10
248.1007566978379
 20
502.1518805571446
 30
0.0
 10
251.7628753057515
 20
502.4015354223269
 30
0.0
 10
253.5928040384177
 20
502.5262857813294
 30
0.0
  0
LWPOLYLINE
  5
271
330
1F
100
AcDbEntity
  8
0
  6
Continuous
 62
     7
370
    25
100
AcDbPolyline
 90
       16
 70
   128
 43
0.0
 10
221.3913788927
 20
470.5730804404
 10
217.4802356514
 20
470.6644358261
 10
213.6176421591
 20
470.7470691515
 10
209.8407725695
 20
470.8201851417
 10
206.1859760169
 20
470.883080118
 10
202.6884267875
 20
470.93514877
 10
199.3817857964
 20
470.9758899815
 10
196.2978766306
 20
471.0049116534
 10
193.4663792742
 20
471.0219344768
 10
190.9145444637
 20
471.0267946217
 10
188.6669314231
 20
471.0194453134
 10
186.7451715026
 20
470.9999572826
 10
185.1677599953
 20
470.9685180849
 10
183.9498781355
 20
470.9254302958
 10
183.1032469931
 20
470.8711085982
 10
182.6360146674
 20
470.8060757919
  0
LINE
  5
272
330
1F
100
AcDbEntity
  8
0
  6
Continuous
 62
     7
370
    25
100
AcDbLine
 10
219.519083787
 20
339.6942694378
 30
0.0
 11
181.0125016448
 21
339.6942694378
 31
0.0
  0
SPLINE
  5
273
330
1F
100
AcDbEntity
  8
0
  6
Continuous
 62
     7
370
    25
100
AcDbSpline
210
0.0
220
0.0
230
1.0
 70
     8
 71
     3
 72
    12
 73
     8
 74
     0
 42
0.00000001
 43
0.00000001
 40
0.0
 40
0.0
 40
0.0
 40
0.0
 40
0.1950341855975651
 40
0.3836747794861664
 40
0.5686560695592363
 40
0.7849191076290887
 40
1.0
 40
1.0
 40
1.0
 40
1.0
 10
221.3913788927177
 20
208.8154584351293
 30
0.0
 10
221.1671270648351
 20
217.3213880524127
 30
0.0
 10
220.7259748106873
 20
234.0544067293025
 30
0.0
 10
220.2288870359727
 20
258.8602970395199
 30
0.0
 10
219.8376851061098
 20
284.595422122545
 30
0.0
 10
219.5714544531106
 20
311.4872623875165
 30
0.0
 10
219.53650875153
 20
330.3091282220173
 30
0.0
 10
219.5190837870177
 20
339.6942694378294
 30
0.0
  0
SPLINE
  5
274
330
1F
100
AcDbEntity
  8
0
  6
Continuous
 62
     7
370
    25
100
AcDbSpline
210
0.0
220
0.0
230
1.0
 70
     8
 71
     3
 72
    12
 73
     8
 74
     0
 42
0.00000001
 43
0.00000001
 40
0.0
 40
0.0
 40
0.0
 40
0.0
 40
0.2740167993392414
 40
0.5499894449119218
 40
0.6965533203504021
 40
0.846143887952464
 40
1.0
 40
1.0
 40
1.0
 40
1.0
 10
219.5190837870177
 20
339.6942694378294
 30
0.0
 10
219.547335830425
 20
351.6511114205888
 30
0.0
 10
219.6040415714913
 20
375.6501395854861
 30
0.0
 10
219.9868879926419
 20
406.0413518357525
 30
0.0
 10
220.4336877719258
 20
430.9999444171626
 30
0.0
 10
220.8595672985452
 20
450.6292141977141
 30
0.0
 10
221.2124548500336
 20
463.8631154566552
 30
0.0
 10
221.3913788927177
 20
470.5730804405294
 30
0.0
  0
LWPOLYLINE
  5
275
330
1F
100
AcDbEntity
  8
0
  6
Continuous
 62
     7
370
    25
100
AcDbPolyline
 90
       16
 70
   128
 43
0.0
 10
432.5576453689
 20
502.7373671888
 10
432.6242524325
 20
506.6323831161
 10
432.6878782474
 20
510.4770729381
 10
432.7479151275
 20
514.2347162692
 10
432.8037896645
 20
517.8694240992
 10
432.8549682041
 20
521.346481567
 10
432.9009619436
 20
524.63267952
 10
432.9413315995
 20
527.6966316926
 10
432.975691604
 20
530.5090744743
 10
433.0037137868
 20
533.0431464048
 10
433.0251305099
 20
535.2746447257
 10
433.0397372234
 20
537.1822565399
 10
433.0473944197
 20
538.7477623694
 10
433.0480289654
 20
539.9562101686
 10
433.0416347999
 20
540.7960581301
 10
433.0282729935
 20
541.25928492
  0
SPLINE
  5
276
330
1F
100
AcDbEntity
  8
0
  6
Continuous
 62
     7
370
    25
100
AcDbSpline
210
0.0
220
0.0
230
1.0
 70
     8
 71
     3
 72
    17
 73
    13
 74
     0
 42
0.00000001
 43
0.00000001
 40
0.0
 40
0.0
 40
0.0
 40
0.0
 40
0.0634583842457077
 40
0.1249923291589967
 40
0.183717847916648
 40
0.2421776155898456
 40
0.3007530757127197
 40
0.3666834302413392
 40
0.4360899367332277
 40
0.5133107647020502
 40
0.7570099290528968
 40
1.0
 40
1.0
 40
1.0
 40
1.0
 10
253.5928040384172
 20
502.5262857813299
 30
0.0
 10
257.3773326287593
 20
502.5976645587724
 30
0.0
 10
264.8316201732404
 20
502.7382574804346
 30
0.0
 10
275.7890207929313
 20
502.9152378229669
 30
0.0
 10
286.4488209058522
 20
503.0672634111596
 30
0.0
 10
296.932699724831
 20
503.195024658797
 30
0.0
 10
307.8468441009661
 20
503.3058629183556
 30
0.0
 10
319.4145085902511
 20
503.3973396433266
 30
0.0
 10
332.0950184990142
 20
503.4669286534624
 30
0.0
 10
355.3814975348911
 20
503.528401713391
 30
0.0
 10
389.0270393907095
 20
503.4321848537973
 30
0.0
 10
418.0615442127169
 20
502.9687480054126
 30
0.0
 10
432.5576453691241
 20
502.7373671888644
 30
0.0
  0
SPLINE
  5
277
330
1F
100
AcDbEntity
  8
0
  6
Continuous
 62
     7
370
    25
100
AcDbSpline
210
0.0
220
0.0
230
1.0
 70
     8
 71
     3
 72
    22
 73
    18
 74
     0
 42
0.00000001
 43
0.00000001
 40
0.0
 40
0.0
 40
0.0
 40
0.0
 40
0.0773411993809389
 40
0.1547006028487803
 40
0.2320153850253881
 40
0.3093506999146706
 40
0.3867876095988181
 40
0.4645016956333608
 40
0.5429276810482923
 40
0.6134442579784299
 40
0.6763889495978956
 40
0.728969869014775
 40
0.7819796962422656
 40
0.8340656955653507
 40
0.8870688409323505
 40
0.9429078478456949
 40
0.9999999999999999
 40
0.9999999999999999
 40
0.9999999999999999
 40
0.9999999999999999
 10
432.5576453691233
 20
176.6511716867984
 30
0.0
 10
427.9439227910784
 20
176.5683216343826
 30
0.0
 10
418.7153916858769
 20
176.4026020288247
 30
0.0
 10
404.8736199435626
 20
176.2110497768302
 30
0.0
 10
391.0317182214081
 20
176.0616482221479
 30
0.0
 10
377.1848781741375
 20
175.9580862497338
 30
0.0
 10
363.3141780323292
 20
175.8984959699971
 30
0.0
 10
349.3785936031387
 20
175.8822748460404
 30
0.0
 10
335.8562670526842
 20
175.9077412464538
 30
0.0
 10
323.2155696837057
 20
175.9673622604926
 30
0.0
 10
312.1171916314486
 20
176.0465597773165
 30
0.0
 10
302.0635969177869
 20
176.1393735659211
 30
0.0
 10
292.6581357370156
 20
176.2437727754831
 30
0.0
 10
283.227893266953
 20
176.3655337632198
 30
0.0
 10
273.6293483010045
 20
176.5073462869494
 30
0.0
 10
263.7326606505184
 20
176.6703640393631
 30
0.0
 10
256.9976679500795
 20
176.797818640935
 30
0.0
 10
253.5928040384177
 20
176.8622530943293
 30
0.0
  0
LWPOLYLINE
  5
278
330
1F
100
AcDbEntity
  8
0
  6
Continuous
 62
     7
370
    25
100
AcDbPolyline
 90
       16
 70
   128
 43
0.0
 10
432.5576453683
 20
176.6511716868
 10
432.6242524319
 20
172.7561557695
 10
432.6878782468
 20
168.9114659587
 10
432.7479151269
 20
165.1538226396
 10
432.8037896638
 20
161.5191148223
 10
432.8549682034
 20
158.0420573674
 10
432.9009619428
 20
154.7558594273
 10
432.9413315987
 20
151.6919072674
 10
432.9756916031
 20
148.8794644978
 10
433.0037137859
 20
146.3453925789
 10
433.0251305089
 20
144.1138942685
 10
433.0397372224
 20
142.2062824637
 10
433.0473944187
 20
140.6407766423
 10
433.0480289643
 20
139.4323288497
 10
433.0416347988
 20
138.5924808932
 10
433.0282729923
 20
138.1292541067
  0
LWPOLYLINE
  5
279
330
1F
100
AcDbEntity
  8
0
  6
Continuous
 62
     7
370
    25
100
AcDbPolyline
 90
       16
 70
   128
 43
0.0
 10
464.7247274815
 20
471.0180450595
 10
468.6749341041
 20
471.1051275507
 10
472.5806483479
 20
471.1789618129
 10
476.4035994265
 20
471.2388243688
 10
480.1063275219
 20
471.2841286454
 10
483.6525508409
 20
471.3144307211
 10
487.0075211282
 20
471.329433676
 10
490.138364153
 20
471.3289905012
 10
493.0144018325
 20
471.3131055393
 10
495.6074528362
 20
471.2819344417
 10
497.8921087252
 20
471.2357826435
 10
499.8459829212
 20
471.1751023707
 10
501.4499300651
 20
471.100488209
 10
502.6882336157
 20
471.0126712776
 10
503.5487598508
 20
470.9125120653
 10
504.0230767621
 20
470.8009919986
  0
SPLINE
  5
27A
330
1F
100
AcDbEntity
  8
0
  6
Continuous
 62
     7
370
    25
100
AcDbSpline
210
0.0
220
0.0
230
1.0
 70
     8
 71
     3
 72
    16
 73
    12
 74
     0
 42
0.00000001
 43
0.00000001
 40
0.0
 40
0.0
 40
0.0
 40
0.0
 40
0.1122306791016071
 40
0.2244914189962052
 40
0.3367272413221009
 40
0.4488800493168639
 40
0.5609616998295933
 40
0.6709247913739234
 40
0.7807643068412908
 40
0.8904543484492323
 40
1.0
 40
1.0
 40
1.0
 40
1.0
 10
432.5576453691178
 20
502.7373671888294
 30
0.0
 10
434.4209602506578
 20
502.6103120233353
 30
0.0
 10
438.1480890994014
 20
502.3561676608412
 30
0.0
 10
443.5545509367194
 20
500.7818289007959
 30
0.0
 10
448.6254345080484
 20
498.3829132470001
 30
0.0
 10
453.211579343491
 20
495.143405048808
 30
0.0
 10
457.1545471963482
 20
491.2049541794715
 30
0.0
 10
460.3600365621134
 20
486.6905284920978
 30
0.0
 10
462.7312697060835
 20
481.7407697919365
 30
0.0
 10
464.3050769029005
 20
476.4704638750248
 30
0.0
 10
464.5849053876002
 20
472.8347198227805
 30
0.0
 10
464.7247274815177
 20
471.0180450590293
 30
0.0
  0
SPLINE
  5
27B
330
1F
100
AcDbEntity
  8
0
  6
Continuous
 62
     7
370
    25
100
AcDbSpline
210
0.0
220
0.0
230
1.0
 70
     8
 71
     3
 72
    16
 73
    12
 74
     0
 42
0.00000001
 43
0.00000001
 40
0.0
 40
0.0
 40
0.0
 40
0.0
 40
0.1115343114469142
 40
0.2232178587691634
 40
0.3350570224469822
 40
0.4470229795091565
 40
0.55910952082641
 40
0.6692711941072784
 40
0.7795082547368419
 40
0.8897686158683819
 40
1.0
 40
1.0
 40
1.0
 40
1.0
 10
464.7247274815177
 20
208.3704938166294
 30
0.0
 10
464.5807042823952
 20
206.5208065883965
 30
0.0
 10
464.292465177279
 20
202.8189572012207
 30
0.0
 10
462.6641470564647
 20
197.459109852348
 30
0.0
 10
460.2111819337678
 20
192.4370991224643
 30
0.0
 10
456.917697706968
 20
187.902172252408
 30
0.0
 10
452.9268171844374
 20
184.0118556720274
 30
0.0
 10
448.3620301754135
 20
180.8597768387389
 30
0.0
 10
443.3643555913715
 20
178.5415786591887
 30
0.0
 10
438.0483492169837
 20
177.0207102600692
 30
0.0
 10
434.3877196252324
 20
176.7743404186105
 30
0.0
 10
432.5576453691177
 20
176.6511716868294
 30
0.0
  0
LWPOLYLINE
  5
27C
330
1F
100
AcDbEntity
  8
0
  6
Continuous
 62
     7
370
    25
100
AcDbPolyline
 90
       16
 70
   128
 43
0.0
 10
464.7247274815
 20
208.370493816
 10
468.6749341135
 20
208.2834113243
 10
472.5806483679
 20
208.2095770617
 10
476.403599458
 20
208.1497145054
 10
480.1063275656
 20
208.1044102285
 10
483.6525508972
 20
208.0741081525
 10
487.0075211973
 20
208.0591051973
 10
490.1383642347
 20
208.0595483719
 10
493.0144019264
 20
208.0754333336
 10
495.6074529416
 20
208.1066044312
 10
497.8921088413
 20
208.1527562293
 10
499.845983047
 20
208.2134365021
 10
501.4499301993
 20
208.2880506638
 10
502.6882337569
 20
208.3758675953
 10
503.5487599976
 20
208.4760268077
 10
504.0230769128
 20
208.5875468746
  0
LINE
  5
27D
330
1F
100
AcDbEntity
  8
0
  6
Continuous
 62
     7
370
    25
100
AcDbLine
 10
467.0397777851
 20
339.6942694378
 30
0.0
 11
505.5463599275
 21
339.6942694378
 31
0.0
  0
SPLINE
  5
27E
330
1F
100
AcDbEntity
  8
0
  6
Continuous
 62
     7
370
    25
100
AcDbSpline
210
0.0
220
0.0
230
1.0
 70
     8
 71
     3
 72
    20
 73
    16
 74
     0
 42
0.00000001
 43
0.00000001
 40
0.0
 40
0.0
 40
0.0
 40
0.0
 40
0.083236835123108
 40
0.1588648432827674
 40
0.225328903997242
 40
0.2902997306334615
 40
0.3560894422495539
 40
0.4189157107769322
 40
0.4804262523434039
 40
0.5441073059994611
 40
0.6068081853854536
 40
0.7099863290991174
 40
0.8080820343573616
 40
0.904208698081806
 40
1.0
 40
1.0
 40
1.0
 40
1.0
 10
464.7247274815177
 20
471.0180450590293
 30
0.0
 10
464.8247293148031
 20
467.3758676382695
 30
0.0
 10
465.0155916361464
 20
460.4244507048738
 30
0.0
 10
465.2663295814035
 20
450.5640285642073
 30
0.0
 10
465.4857125151848
 20
441.5024935875128
 30
0.0
 10
465.6843091466339
 20
432.8710754394662
 30
0.0
 10
465.8698916241036
 20
424.3984463224379
 30
0.0
 10
466.0434481726533
 20
416.0768405131877
 30
0.0
 10
466.2069537931812
 20
407.847101789162
 30
0.0
 10
466.3620903845816
 20
399.6223878159637
 30
0.0
 10
466.5405742496754
 20
389.5731146510233
 30
0.0
 10
466.7272616898786
 20
378.0162459593765
 30
0.0
 10
466.8980881874393
 20
364.9943563734655
 30
0.0
 10
467.0164049747482
 20
352.2943660057729
 30
0.0
 10
467.0319959296573
 20
343.8894059545322
 30
0.0
 10
467.0397777851177
 20
339.6942694378294
 30
0.0
  0
SPLINE
  5
27F
330
1F
100
AcDbEntity
  8
0
  6
Continuous
 62
     7
370
    25
100
AcDbSpline
210
0.0
220
0.0
230
1.0
 70
     8
 71
     3
 72
    19
 73
    15
 74
     0
 42
0.00000001
 43
0.00000001
 40
0.0
 40
0.0
 40
0.0
 40
0.0
 40
0.0812592281767302
 40
0.1627302792277936
 40
0.245061899854032
 40
0.3299522618020568
 40
0.419940500248189
 40
0.5164393155744276
 40
0.5896902422434279
 40
0.665161621788946
 40
0.7418085612177389
 40
0.817876732795342
 40
0.9032317607016028
 40
1.0
 40
1.0
 40
1.0
 40
1.0
 10
467.0397777851177
 20
339.6942694378294
 30
0.0
 10
467.0342076652335
 20
336.1355606866953
 30
0.0
 10
467.0230529055289
 20
329.008866503692
 30
0.0
 10
466.9369783209168
 20
318.2771315430631
 30
0.0
 10
466.8101967869629
 20
307.3874189980386
 30
0.0
 10
466.6446879162921
 20
296.1259574236576
 30
0.0
 10
466.4447758011377
 20
284.2454491912617
 30
0.0
 10
466.23383684137
 20
272.8755999840665
 30
0.0
 10
466.0201329312417
 20
262.1420397197487
 30
0.0
 10
465.8120381384186
 20
252.2780208611589
 30
0.0
 10
465.5889339842385
 20
242.2912814382632
 30
0.0
 10
465.3419684462866
 20
231.8725843065434
 30
0.0
 10
465.058833695019
 20
220.5739313563508
 30
0.0
 10
464.8406538158281
 20
212.6047753797858
 30
0.0
 10
464.7247274815177
 20
208.3704938166294
 30
0.0
  0
ARC
  5
280
330
1F
100
AcDbEntity
  8
0
  6
Continuous
 62
     7
370
    25
100
AcDbCircle
 10
403.4263033187
 20
339.6942694378
 30
0.0
 40
60.92706788600003
100
AcDbArc
 50
0.0
 51
180.0
  0
LINE
  5
281
330
1F
100
AcDbEntity
  8
0
  6
Continuous
 62
     7
370
    25
100
AcDbLine
 10
342.4992354327
 20
339.6942694378
 30
0.0
 11
219.519083787
 21
339.6942694378
 31
0.0
  0
LINE
  5
282
330
1F
100
AcDbEntity
  8
0
  6
Continuous
 62
     7
370
    25
100
AcDbLine
 10
464.3533712046
 20
339.6942694378
 30
0.0
 11
467.0397777851
 21
339.6942694378
 31
0.0
  0
ARC
  5
283
330
1F
100
AcDbEntity
  8
0
  6
Continuous
 62
     7
370
    25
100
AcDbCircle
 10
403.4263033187
 20
339.6942694378
 30
0.0
 40
60.92706788600003
100
AcDbArc
 50
180.0
 51
0.0
  0
ARC
  5
284
330
1F
100
AcDbEntity
  8
0
  6
Continuous
 62
     7
370
    25
100
AcDbCircle
 10
403.4263033187
 20
339.6942694378
 30
0.0
 40
59.2756403436
100
AcDbArc
 50
0.0
 51
180.0
  0
LINE
  5
285
330
1F
100
AcDbEntity
  8
0
  6
Continuous
 62
     7
370
    25
100
AcDbLine
 10
344.1506629751
 20
339.6942694378
 30
0.0
 11
342.4992354327
 21
339.6942694378
 31
0.0
  0
LINE
  5
286
330
1F
100
AcDbEntity
  8
0
  6
Continuous
 62
     7
370
    25
100
AcDbLine
 10
462.7019436622
 20
339.6942694378
 30
0.0
 11
464.3533712046
 21
339.6942694378
 31
0.0
  0
ARC
  5
287
330
1F
100
AcDbEntity
  8
0
  6
Continuous
 62
     7
370
    25
100
AcDbCircle
 10
403.4263033187
 20
339.6942694378
 30
0.0
 40
59.2756403436
100
AcDbArc
 50
180.0
 51
0.0
  0
LINE
  5
288
330
1F
100
AcDbEntity
  8
0
  6
Continuous
 62
     7
370
    25
100
AcDbLine
 10
344.1506629751
 20
339.6942694378
 30
0.0
 11
345.8581333264
 21
339.6942694378
 31
0.0
  0
ARC
  5
289
330
1F
100
AcDbEntity
  8
0
  6
Continuous
 62
     7
370
    25
100
AcDbCircle
 10
403.4263033187
 20
339.6942694378
 30
0.0
 40
57.56816999230006
100
AcDbArc
 50
180.0
 51
0.0
  0
LINE
  5
28A
330
1F
100
AcDbEntity
  8
0
  6
Continuous
 62
     7
370
    25
100
AcDbLine
 10
462.7019436622
 20
339.6942694378
 30
0.0
 11
460.9944733109
 21
339.6942694378
 31
0.0
  0
ARC
  5
28B
330
1F
100
AcDbEntity
  8
0
  6
Continuous
 62
     7
370
    25
100
AcDbCircle
 10
403.4263033187
 20
339.6942694378
 30
0.0
 40
57.56816999230006
100
AcDbArc
 50
0.0
 51
180.0
  0
ARC
  5
28C
330
1F
100
AcDbEntity
  8
0
  6
Continuous
 62
     7
370
    25
100
AcDbCircle
 10
403.4263033187
 20
339.6942694378
 30
0.0
 40
57.41530618610005
100
AcDbArc
 50
0.0
 51
180.0
  0
LINE
  5
28D
330
1F
100
AcDbEntity
  8
0
  6
Continuous
 62
     7
370
    25
100
AcDbLine
 10
346.0109971326
 20
339.6942694378
 30
0.0
 11
345.8581333264
 21
339.6942694378
 31
0.0
  0
LINE
  5
28E
330
1F
100
AcDbEntity
  8
0
  6
Continuous
 62
     7
370
    25
100
AcDbLine
 10
460.8416095048
 20
339.6942694378
 30
0.0
 11
460.9944733109
 21
339.6942694378
 31
0.0
  0
ARC
  5
28F
330
1F
100
AcDbEntity
  8
0
  6
Continuous
 62
     7
370
    25
100
AcDbCircle
 10
403.4263033187
 20
339.6942694378
 30
0.0
 40
57.41530618610005
100
AcDbArc
 50
180.0
 51
0.0
  0
LINE
  5
290
330
1F
100
AcDbEntity
  8
0
  6
Continuous
 62
     7
370
    25
100
AcDbLine
 10
346.0109971326
 20
339.6942694378
 30
0.0
 11
357.9263033187
 21
339.6942694378
 31
0.0
  0
ARC
  5
291
330
1F
100
AcDbEntity
  8
0
  6
Continuous
 62
     7
370
    25
100
AcDbCircle
 10
403.4263033187
 20
339.6942694378
 30
0.0
 40
45.5
100
AcDbArc
 50
180.0
 51
0.0
  0
LINE
  5
292
330
1F
100
AcDbEntity
  8
0
  6
Continuous
 62
     7
370
    25
100
AcDbLine
 10
460.8416095048
 20
339.6942694378
 30
0.0
 11
448.9263033187
 21
339.6942694378
 31
0.0
  0
ARC
  5
293
330
1F
100
AcDbEntity
  8
0
  6
Continuous
 62
     7
370
    25
100
AcDbCircle
 10
403.4263033187
 20
339.6942694378
 30
0.0
 40
45.5
100
AcDbArc
 50
0.0
 51
180.0
  0
ARC
  5
294
330
1F
100
AcDbEntity
  8
0
  6
Continuous
 62
     7
370
    25
100
AcDbCircle
 10
403.4263033187
 20
339.6942694378
 30
0.0
 40
45.00000000000006
100
AcDbArc
 50
180.0
 51
0.0
  0
ARC
  5
295
330
1F
100
AcDbEntity
  8
0
  6
Continuous
 62
     7
370
    25
100
AcDbCircle
 10
403.4263033187
 20
339.6942694378
 30
0.0
 40
45.00000000000006
100
AcDbArc
 50
0.0
 51
180.0
  0
LINE
  5
296
330
1F
100
AcDbEntity
  8
0
  6
Continuous
 62
     7
370
    25
100
AcDbLine
 10
136.9263033187
 20
124.6942694378
 30
0.0
 11
135.9263033187
 21
124.6942694378
 31
0.0
  0
LINE
  5
297
330
1F
100
AcDbEntity
  8
0
  6
Continuous
 62
     7
370
    25
100
AcDbLine
 10
170.9263033187
 20
90.6942694378
 30
0.0
 11
170.9263033187
 21
89.6942694378
 31
0.0
  0
LINE
  5
298
330
1F
100
AcDbEntity
  8
0
  6
Continuous
 62
     7
370
    25
100
AcDbLine
 10
890.9263033187
 20
90.6942694378
 30
0.0
 11
890.9263033187
 21
89.6942694378
 31
0.0
  0
LINE
  5
299
330
1F
100
AcDbEntity
  8
0
  6
Continuous
 62
     7
370
    25
100
AcDbLine
 10
890.9263033187
 20
588.6942694378
 30
0.0
 11
890.9263033187
 21
589.6942694378
 31
0.0
  0
LINE
  5
29A
330
1F
100
AcDbEntity
  8
0
  6
Continuous
 62
     7
370
    25
100
AcDbLine
 10
170.9263033187
 20
588.6942694378
 30
0.0
 11
170.9263033187
 21
589.6942694378
 31
0.0
  0
LINE
  5
29B
330
1F
100
AcDbEntity
  8
0
  6
Continuous
 62
     7
370
    25
100
AcDbLine
 10
136.9263033187
 20
554.6942694378
 30
0.0
 11
135.9263033187
 21
554.6942694378
 31
0.0
  0
LINE
  5
29C
330
1F
100
AcDbEntity
  8
0
  6
Continuous
 62
     7
370
    25
100
AcDbLine
 10
924.9263033187
 20
554.6942694378
 30
0.0
 11
925.9263033187
 21
554.6942694378
 31
0.0
  0
LINE
  5
29D
330
1F
100
AcDbEntity
  8
0
  6
Continuous
 62
     7
370
    25
100
AcDbLine
 10
924.9263033187
 20
124.6942694378
 30
0.0
 11
925.9263033187
 21
124.6942694378
 31
0.0
  0
LINE
  5
29E
330
1F
100
AcDbEntity
  8
0
  6
Continuous
 62
     7
370
    25
100
AcDbLine
 10
511.3110172574
 20
339.6942694378
 30
0.0
 11
511.765541535
 21
339.6942694378
 31
0.0
  0
LWPOLYLINE
  5
29F
330
1F
100
AcDbEntity
  8
0
  6
Continuous
 62
     7
370
    25
100
AcDbPolyline
 90
       14
 70
   128
 43
0.0
 10
604.5481436095
 20
486.489220625
 10
604.5646708184
 20
486.4428296268
 10
604.7550325794
 20
485.6559967462
 10
604.9075678525
 20
484.5103727783
 10
605.020319653
 20
483.0206557568
 10
605.091841407
 20
481.2059583331
 10
605.1212155105
 20
479.0895625657
 10
605.1080651019
 20
476.6986212181
 10
605.0525588973
 20
474.0638093968
 10
604.9554090258
 20
471.2189309977
 10
604.8178618928
 20
468.2004850121
 10
604.6416821896
 20
465.0471972547
 10
604.4291302522
 20
461.7995235223
 10
604.1829331237
 20
458.4991305539
  0
LWPOLYLINE
  5
2A0
330
1F
100
AcDbEntity
  8
0
  6
Continuous
 62
     7
370
    25
100
AcDbPolyline
 90
       14
 70
   128
 43
0.0
 10
640.3044630548
 20
192.8993182535
 10
640.2879358456
 20
192.9457092574
 10
640.0975741074
 20
193.7325421332
 10
639.9450388528
 20
194.8781660941
 10
639.8322870664
 20
196.3678831063
 10
639.7607653218
 20
198.1825805188
 10
639.7313912231
 20
200.2989762732
 10
639.7445416315
 20
202.6899176061
 10
639.8000478312
 20
205.3247294115
 10
639.8971976931
 20
208.1696077936
 10
640.0347448118
 20
211.1880537614
 10
640.2109244963
 20
214.3413415005
 10
640.4234764108
 20
217.5890152145
 10
640.6696735126
 20
220.8894081646
  0
ENDSEC
  0
SECTION
  2
OBJECTS
  0
DICTIONARY
  5
C
330
0
100
AcDbDictionary
281
     1
  3
ACAD_GROUP
350
D
  3
ACAD_LAYOUT
350
1A
  3
ACAD_MLINESTYLE
350
17
  3
ACAD_PLOTSETTINGS
350
19
  3
ACAD_PLOTSTYLENAME
350
E
  3
ACAD_SCALELIST
350
47
  3
DWGPROPS
350
2A1
  0
DICTIONARY
  5
D
102
{ACAD_REACTORS
330
C
102
}
330
C
100
AcDbDictionary
281
     1
  0
DICTIONARY
  5
1A
102
{ACAD_REACTORS
330
C
102
}
330
C
100
AcDbDictionary
281
     1
  3
Layout1
350
1E
  3
Layout2
350
26
  3
Model
350
22
  0
DICTIONARY
  5
17
102
{ACAD_REACTORS
330
C
102
}
330
C
100
AcDbDictionary
281
     1
  3
Standard
350
18
  0
DICTIONARY
  5
19
102
{ACAD_REACTORS
330
C
102
}
330
C
100
AcDbDictionary
281
     1
  0
ACDBDICTIONARYWDFLT
  5
E
102
{ACAD_REACTORS
330
C
102
}
330
C
100
AcDbDictionary
281
     1
  3
Normal
350
F
100
AcDbDictionaryWithDefault
340
F
  0
DICTIONARY
  5
47
102
{ACAD_REACTORS
330
C
102
}
330
C
100
AcDbDictionary
281
     1
  3
A0
350
48
  3
A1
350
49
  3
A2
350
4A
  3
A3
350
4B
  3
A4
350
4C
  3
A5
350
4D
  3
A6
350
4E
  3
A7
350
4F
  3
A8
350
50
  3
A9
350
51
  3
B0
350
52
  3
B1
350
53
  3
B2
350
54
  3
B3
350
55
  3
B4
350
56
  3
B5
350
57
  3
B6
350
58
  0
XRECORD
  5
2A1
102
{ACAD_REACTORS
330
C
102
}
330
C
100
AcDbXrecord
280
     1
  1
DWGPROPS COOKIE
  2

  3

  4

  6

  7

  8
villesi
  9

300
=
301
=
302
=
303
=
304
=
305
=
306
=
307
=
308
=
309
=
 40
0.0
 41
2460832.31200426
 42
2460832.312004989
  1

 90
        0
  0
LAYOUT
  5
1E
102
{ACAD_REACTORS
330
1A
102
}
330
1A
100
AcDbPlotSettings
  1

  2
none_device
  4

  6

 40
0.0
 41
0.0
 42
0.0
 43
0.0
 44
0.0
 45
0.0
 46
0.0
 47
0.0
 48
0.0
 49
0.0
140
0.0
141
0.0
142
1.0
143
1.0
 70
   688
 72
     1
 73
     0
 74
     5
  7

 75
    16
147
1.0
148
0.0
149
0.0
100
AcDbLayout
  1
Layout1
 70
     1
 71
     1
 10
0.0
 20
0.0
 11
420.0
 21
297.0
 12
0.0
 22
0.0
 32
0.0
 14
1.0000000000E+20
 24
1.0000000000E+20
 34
1.0000000000E+20
 15
-1.0000000000E+20
 25
-1.0000000000E+20
 35
-1.0000000000E+20
146
0.0
 13
0.0
 23
0.0
 33
0.0
 16
1.0
 26
0.0
 36
0.0
 17
0.0
 27
1.0
 37
0.0
 76
     0
330
1B
  0
LAYOUT
  5
26
102
{ACAD_REACTORS
330
1A
102
}
330
1A
100
AcDbPlotSettings
  1

  2
none_device
  4

  6

 40
0.0
 41
0.0
 42
0.0
 43
0.0
 44
0.0
 45
0.0
 46
0.0
 47
0.0
 48
0.0
 49
0.0
140
0.0
141
0.0
142
1.0
143
1.0
 70
   688
 72
     1
 73
     0
 74
     5
  7

 75
    16
147
1.0
148
0.0
149
0.0
100
AcDbLayout
  1
Layout2
 70
     1
 71
     2
 10
0.0
 20
0.0
 11
0.0
 21
0.0
 12
0.0
 22
0.0
 32
0.0
 14
0.0
 24
0.0
 34
0.0
 15
0.0
 25
0.0
 35
0.0
146
0.0
 13
0.0
 23
0.0
 33
0.0
 16
1.0
 26
0.0
 36
0.0
 17
0.0
 27
1.0
 37
0.0
 76
     0
330
23
  0
LAYOUT
  5
22
102
{ACAD_REACTORS
330
1A
102
}
330
1A
100
AcDbPlotSettings
  1

  2
none_device
  4
Letter_(8.50_x_11.00_Inches)
  6

 40
6.35
 41
6.35
 42
6.35000508
 43
6.35000508
 44
215.9
 45
279.4
 46
0.0
 47
0.0
 48
0.0
 49
0.0
140
0.0
141
0.0
142
1.0
143
1.0
 70
  1712
 72
     1
 73
     0
 74
     0
  7

 75
     0
147
1.0
148
0.0
149
0.0
100
AcDbLayout
  1
Model
 70
     1
 71
     0
 10
0.0
 20
0.0
 11
1100.0
 21
700.0
 12
0.0
 22
0.0
 32
0.0
 14
0.0
 24
0.0
 34
0.0
 15
1100.0
 25
700.0
 35
0.0
146
0.0
 13
0.0
 23
0.0
 33
0.0
 16
1.0
 26
0.0
 36
0.0
 17
0.0
 27
1.0
 37
0.0
 76
     0
330
1F
331
29
  0
MLINESTYLE
  5
18
102
{ACAD_REACTORS
330
17
102
}
330
17
100
AcDbMlineStyle
  2
Standard
 70
     0
  3

 62
   256
 51
90.0
 52
90.0
 71
     2
 49
0.5
 62
   256
  6
BYLAYER
 49
-0.5
 62
   256
  6
BYLAYER
  0
ACDBPLACEHOLDER
  5
F
102
{ACAD_REACTORS
330
E
102
}
330
E
  0
SCALE
  5
48
102
{ACAD_REACTORS
330
47
102
}
330
47
100
AcDbScale
 70
     0
300
1:1
140
1.0
141
1.0
290
     1
  0
SCALE
  5
49
102
{ACAD_REACTORS
330
47
102
}
330
47
100
AcDbScale
 70
     0
300
1:2
140
1.0
141
2.0
290
     0
  0
SCALE
  5
4A
102
{ACAD_REACTORS
330
47
102
}
330
47
100
AcDbScale
 70
     0
300
1:4
140
1.0
141
4.0
290
     0
  0
SCALE
  5
4B
102
{ACAD_REACTORS
330
47
102
}
330
47
100
AcDbScale
 70
     0
300
1:5
140
1.0
141
5.0
290
     0
  0
SCALE
  5
4C
102
{ACAD_REACTORS
330
47
102
}
330
47
100
AcDbScale
 70
     0
300
1:8
140
1.0
141
8.0
290
     0
  0
SCALE
  5
4D
102
{ACAD_REACTORS
330
47
102
}
330
47
100
AcDbScale
 70
     0
300
1:10
140
1.0
141
10.0
290
     0
  0
SCALE
  5
4E
102
{ACAD_REACTORS
330
47
102
}
330
47
100
AcDbScale
 70
     0
300
1:16
140
1.0
141
16.0
290
     0
  0
SCALE
  5
4F
102
{ACAD_REACTORS
330
47
102
}
330
47
100
AcDbScale
 70
     0
300
1:20
140
1.0
141
20.0
290
     0
  0
SCALE
  5
50
102
{ACAD_REACTORS
330
47
102
}
330
47
100
AcDbScale
 70
     0
300
1:30
140
1.0
141
30.0
290
     0
  0
SCALE
  5
51
102
{ACAD_REACTORS
330
47
102
}
330
47
100
AcDbScale
 70
     0
300
1:40
140
1.0
141
40.0
290
     0
  0
SCALE
  5
52
102
{ACAD_REACTORS
330
47
102
}
330
47
100
AcDbScale
 70
     0
300
1:50
140
1.0
141
50.0
290
     0
  0
SCALE
  5
53
102
{ACAD_REACTORS
330
47
102
}
330
47
100
AcDbScale
 70
     0
300
1:100
140
1.0
141
100.0
290
     0
  0
SCALE
  5
54
102
{ACAD_REACTORS
330
47
102
}
330
47
100
AcDbScale
 70
     0
300
2:1
140
2.0
141
1.0
290
     0
  0
SCALE
  5
55
102
{ACAD_REACTORS
330
47
102
}
330
47
100
AcDbScale
 70
     0
300
4:1
140
4.0
141
1.0
290
     0
  0
SCALE
  5
56
102
{ACAD_REACTORS
330
47
102
}
330
47
100
AcDbScale
 70
     0
300
8:1
140
8.0
141
1.0
290
     0
  0
SCALE
  5
57
102
{ACAD_REACTORS
330
47
102
}
330
47
100
AcDbScale
 70
     0
300
10:1
140
10.0
141
1.0
290
     0
  0
SCALE
  5
58
102
{ACAD_REACTORS
330
47
102
}
330
47
100
AcDbScale
 70
     0
300
100:1
140
100.0
141
1.0
290
     0
  0
ENDSEC
  0
EOF
