  0
SECTION
  2
HEADER
  9
$ACADVER
  1
AC1015
  9
$ACADMAINTVER
 70
     6
  9
$DWGCODEPAGE
  3
ANSI_1252
  9
$INSBASE
 10
0.0
 20
0.0
 30
0.0
  9
$EXTMIN
 10
0.0
 20
0.0
 30
0.0
  9
$EXTMAX
 10
700.0
 20
600.0
 30
0.0
  9
$LIMMIN
 10
0.0
 20
0.0
  9
$LIMMAX
 10
700.0
 20
600.0
  9
$ORTHOMODE
 70
     0
  9
$REGENMODE
 70
     1
  9
$FILLMODE
 70
     1
  9
$QTEXTMODE
 70
     0
  9
$MIRRTEXT
 70
     1
  9
$LTSCALE
 40
1.0
  9
$ATTMODE
 70
     1
  9
$TEXTSIZE
 40
3.5
  9
$TRACEWID
 40
1.0
  9
$TEXTSTYLE
  7
Standard
  9
$CLAYER
  8
0
  9
$CELTYPE
  6
ByLayer
  9
$CECOLOR
 62
   256
  9
$CELTSCALE
 40
1.0
  9
$DISPSILH
 70
     0
  9
$DIMSCALE
 40
1.0
  9
$DIMASZ
 40
3.302
  9
$DIMEXO
 40
1.0
  9
$DIMDLI
 40
3.75
  9
$DIMRND
 40
0.0
  9
$DIMDLE
 40
0.0
  9
$DIMEXE
 40
1.0
  9
$DIMTP
 40
0.0
  9
$DIMTM
 40
0.0
  9
$DIMTXT
 40
3.5
  9
$DIMCEN
 40
2.5
  9
$DIMTSZ
 40
0.0
  9
$DIMTOL
 70
     0
  9
$DIMLIM
 70
     0
  9
$DIMTIH
 70
     1
  9
$DIMTOH
 70
     1
  9
$DIMSE1
 70
     0
  9
$DIMSE2
 70
     0
  9
$DIMTAD
 70
     1
  9
$DIMZIN
 70
     1
  9
$DIMBLK
  1

  9
$DIMASO
 70
     1
  9
$DIMSHO
 70
     1
  9
$DIMPOST
  1

  9
$DIMAPOST
  1

  9
$DIMALT
 70
     0
  9
$DIMALTD
 70
     3
  9
$DIMALTF
 40
0.0393700787
  9
$DIMLFAC
 40
1.0
  9
$DIMTOFL
 70
     1
  9
$DIMTVP
 40
0.0
  9
$DIMTIX
 70
     0
  9
$DIMSOXD
 70
     0
  9
$DIMSAH
 70
     0
  9
$DIMBLK1
  1

  9
$DIMBLK2
  1

  9
$DIMSTYLE
  2
ISO-25
  9
$DIMCLRD
 70
     0
  9
$DIMCLRE
 70
     0
  9
$DIMCLRT
 70
     0
  9
$DIMTFAC
 40
1.0
  9
$DIMGAP
 40
1.524
  9
$DIMJUST
 70
     0
  9
$DIMSD1
 70
     0
  9
$DIMSD2
 70
     0
  9
$DIMTOLJ
 70
     0
  9
$DIMTZIN
 70
     1
  9
$DIMALTZ
 70
     0
  9
$DIMALTTZ
 70
     0
  9
$DIMUPT
 70
     0
  9
$DIMDEC
 70
     0
  9
$DIMTDEC
 70
     0
  9
$DIMALTU
 70
     2
  9
$DIMALTTD
 70
     3
  9
$DIMTXSTY
  7
Standard
  9
$DIMAUNIT
 70
     0
  9
$DIMADEC
 70
     0
  9
$DIMALTRND
 40
0.0
  9
$DIMAZIN
 70
     0
  9
$DIMDSEP
 70
    44
  9
$DIMATFIT
 70
     3
  9
$DIMFRAC
 70
     0
  9
$DIMLDRBLK
  1

  9
$DIMLUNIT
 70
     2
  9
$DIMLWD
 70
    -2
  9
$DIMLWE
 70
    -2
  9
$DIMTMOVE
 70
     0
  9
$LUNITS
 70
     2
  9
$LUPREC
 70
     2
  9
$SKETCHINC
 40
1.0
  9
$FILLETRAD
 40
0.0
  9
$AUNITS
 70
     0
  9
$AUPREC
 70
     2
  9
$MENU
  1
.
  9
$ELEVATION
 40
0.0
  9
$PELEVATION
 40
0.0
  9
$THICKNESS
 40
0.0
  9
$LIMCHECK
 70
     0
  9
$CHAMFERA
 40
0.0
  9
$CHAMFERB
 40
0.0
  9
$CHAMFERC
 40
0.0
  9
$CHAMFERD
 40
0.0
  9
$SKPOLY
 70
     0
  9
$TDCREATE
 40
2460832.407087651
  9
$TDUCREATE
 40
2460832.282087651
  9
$TDUPDATE
 40
2460832.407088264
  9
$TDUUPDATE
 40
2460832.282088264
  9
$TDINDWG
 40
0.0000000116
  9
$TDUSRTIMER
 40
0.0000000116
  9
$USRTIMER
 70
     1
  9
$ANGBASE
 50
0.0
  9
$ANGDIR
 70
     0
  9
$PDMODE
 70
     0
  9
$PDSIZE
 40
-1.0
  9
$PLINEWID
 40
0.0
  9
$SPLFRAME
 70
     0
  9
$SPLINETYPE
 70
     6
  9
$SPLINESEGS
 70
     8
  9
$HANDSEED
  5
1CA
  9
$SURFTAB1
 70
     6
  9
$SURFTAB2
 70
     6
  9
$SURFTYPE
 70
     6
  9
$SURFU
 70
     6
  9
$SURFV
 70
     6
  9
$UCSBASE
  2

  9
$UCSNAME
  2

  9
$UCSORG
 10
0.0
 20
0.0
 30
0.0
  9
$UCSXDIR
 10
1.0
 20
0.0
 30
0.0
  9
$UCSYDIR
 10
0.0
 20
1.0
 30
0.0
  9
$UCSORTHOREF
  2

  9
$UCSORTHOVIEW
 70
     0
  9
$UCSORGTOP
 10
0.0
 20
0.0
 30
0.0
  9
$UCSORGBOTTOM
 10
0.0
 20
0.0
 30
0.0
  9
$UCSORGLEFT
 10
0.0
 20
0.0
 30
0.0
  9
$UCSORGRIGHT
 10
0.0
 20
0.0
 30
0.0
  9
$UCSORGFRONT
 10
0.0
 20
0.0
 30
0.0
  9
$UCSORGBACK
 10
0.0
 20
0.0
 30
0.0
  9
$PUCSBASE
  2

  9
$PUCSNAME
  2

  9
$PUCSORG
 10
0.0
 20
0.0
 30
0.0
  9
$PUCSXDIR
 10
1.0
 20
0.0
 30
0.0
  9
$PUCSYDIR
 10
0.0
 20
1.0
 30
0.0
  9
$PUCSORTHOREF
  2

  9
$PUCSORTHOVIEW
 70
     0
  9
$PUCSORGTOP
 10
0.0
 20
0.0
 30
0.0
  9
$PUCSORGBOTTOM
 10
0.0
 20
0.0
 30
0.0
  9
$PUCSORGLEFT
 10
0.0
 20
0.0
 30
0.0
  9
$PUCSORGRIGHT
 10
0.0
 20
0.0
 30
0.0
  9
$PUCSORGFRONT
 10
0.0
 20
0.0
 30
0.0
  9
$PUCSORGBACK
 10
0.0
 20
0.0
 30
0.0
  9
$USERI1
 70
     0
  9
$USERI2
 70
     0
  9
$USERI3
 70
     0
  9
$USERI4
 70
     0
  9
$USERI5
 70
     0
  9
$USERR1
 40
0.0
  9
$USERR2
 40
0.0
  9
$USERR3
 40
0.0
  9
$USERR4
 40
0.0
  9
$USERR5
 40
0.0
  9
$WORLDVIEW
 70
     1
  9
$SHADEDGE
 70
     3
  9
$SHADEDIF
 70
    70
  9
$TILEMODE
 70
     1
  9
$MAXACTVP
 70
    64
  9
$PINSBASE
 10
0.0
 20
0.0
 30
0.0
  9
$PLIMCHECK
 70
     0
  9
$PEXTMIN
 10
1.0000000000E+20
 20
1.0000000000E+20
 30
1.0000000000E+20
  9
$PEXTMAX
 10
-1.0000000000E+20
 20
-1.0000000000E+20
 30
-1.0000000000E+20
  9
$PLIMMIN
 10
0.0
 20
0.0
  9
$PLIMMAX
 10
420.0
 20
297.0
  9
$UNITMODE
 70
     0
  9
$VISRETAIN
 70
     1
  9
$PLINEGEN
 70
     0
  9
$PSLTSCALE
 70
     1
  9
$TREEDEPTH
 70
  3020
  9
$CMLSTYLE
  2
Standard
  9
$CMLJUST
 70
     0
  9
$CMLSCALE
 40
20.0
  9
$PROXYGRAPHICS
 70
     1
  9
$MEASUREMENT
 70
     1
  9
$CELWEIGHT
370
    -1
  9
$ENDCAPS
280
     0
  9
$JOINSTYLE
280
     0
  9
$LWDISPLAY
290
     1
  9
$INSUNITS
 70
     4
  9
$HYPERLINKBASE
  1

  9
$STYLESHEET
  1

  9
$XEDIT
290
     1
  9
$CEPSNTYPE
380
     0
  9
$PSTYLEMODE
290
     1
  9
$FINGERPRINTGUID
  2
{c9518fbe-936c-4575-9a7f-cd1849ae6690}
  9
$VERSIONGUID
  2
{FAEB1C32-E019-11D5-929B-00C0DF256EC4}
  9
$EXTNAMES
290
     1
  9
$PSVPSCALE
 40
0.0
  9
$OLESTARTUP
290
     0
  0
ENDSEC
  0
SECTION
  2
CLASSES
  0
CLASS
  1
ACDBDICTIONARYWDFLT
  2
AcDbDictionaryWithDefault
  3
ObjectDBX Classes
 90
        0
280
     0
281
     0
  0
CLASS
  1
VISUALSTYLE
  2
AcDbVisualStyle
  3
ObjectDBX Classes
 90
     4095
280
     0
281
     0
  0
CLASS
  1
MATERIAL
  2
AcDbMaterial
  3
ObjectDBX Classes
 90
     1153
280
     0
281
     0
  0
CLASS
  1
SCALE
  2
AcDbScale
  3
ObjectDBX Classes
 90
     1153
280
     0
281
     0
  0
CLASS
  1
TABLESTYLE
  2
AcDbTableStyle
  3
ObjectDBX Classes
 90
     4095
280
     0
281
     0
  0
CLASS
  1
MLEADERSTYLE
  2
AcDbMLeaderStyle
  3
ACDB_MLEADERSTYLE_CLASS
 90
     4095
280
     0
281
     0
  0
CLASS
  1
SUN
  2
AcDbSun
  3
SCENEOE
 90
     1153
280
     0
281
     0
  0
CLASS
  1
ACDBPLACEHOLDER
  2
AcDbPlaceHolder
  3
ObjectDBX Classes
 90
        0
280
     0
281
     0
  0
CLASS
  1
LAYOUT
  2
AcDbLayout
  3
ObjectDBX Classes
 90
        0
280
     0
281
     0
  0
ENDSEC
  0
SECTION
  2
TABLES
  0
TABLE
  2
VPORT
  5
8
330
0
100
AcDbSymbolTable
 70
     1
  0
VPORT
  5
29
330
8
100
AcDbSymbolTableRecord
100
AcDbViewportTableRecord
  2
*Active
 70
     0
 10
0.0
 20
0.0
 11
1.0
 21
1.0
 12
350.0
 22
300.0
 13
0.0
 23
0.0
 14
10.0
 24
10.0
 15
10.0
 25
10.0
 16
0.0
 26
0.0
 36
1.0
 17
0.0
 27
0.0
 37
0.0
 40
600.0
 41
1.1666666667
 42
50.0
 43
0.0
 44
0.0
 50
0.0
 51
0.0
 71
     0
 72
  2000
 73
     1
 74
     3
 75
     0
 76
     0
 77
     0
 78
     0
281
     0
 65
     1
110
0.0
120
0.0
130
0.0
111
1.0
121
0.0
131
0.0
112
0.0
122
1.0
132
0.0
 79
     0
146
0.0
  0
ENDTAB
  0
TABLE
  2
LTYPE
  5
5
330
0
100
AcDbSymbolTable
 70
     6
  0
LTYPE
  5
14
330
5
100
AcDbSymbolTableRecord
100
AcDbLinetypeTableRecord
  2
ByBlock
 70
     0
  3

 72
    65
 73
     0
 40
0.0
  0
LTYPE
  5
15
330
5
100
AcDbSymbolTableRecord
100
AcDbLinetypeTableRecord
  2
ByLayer
 70
     0
  3

 72
    65
 73
     0
 40
0.0
  0
LTYPE
  5
16
330
5
100
AcDbSymbolTableRecord
100
AcDbLinetypeTableRecord
  2
Continuous
 70
     0
  3
Solid line
 72
    65
 73
     0
 40
0.0
  0
LTYPE
  5
5E
330
5
100
AcDbSymbolTableRecord
100
AcDbLinetypeTableRecord
  2
HIDDEN
 70
     0
  3
Hidden __ __ __ __ __ __ __ __ __ __ __ __ __ __
 72
    65
 73
     2
 40
1.905
 49
1.27
 74
     0
 49
-0.635
 74
     0
  0
LTYPE
  5
5F
330
5
100
AcDbSymbolTableRecord
100
AcDbLinetypeTableRecord
  2
PHANTOM
 70
     0
  3
Phantom ______  __  __  ______  __  __  ______
 72
    65
 73
     6
 40
12.7
 49
6.35
 74
     0
 49
-1.27
 74
     0
 49
1.27
 74
     0
 49
-1.27
 74
     0
 49
1.27
 74
     0
 49
-1.27
 74
     0
  0
LTYPE
  5
60
330
5
100
AcDbSymbolTableRecord
100
AcDbLinetypeTableRecord
  2
CENTER
 70
     0
  3
Center ____ _ ____ _ ____ _ ____ _ ____ _ ____
 72
    65
 73
     4
 40
10.16
 49
6.35
 74
     0
 49
-1.27
 74
     0
 49
1.27
 74
     0
 49
-1.27
 74
     0
  0
LTYPE
  5
61
330
5
100
AcDbSymbolTableRecord
100
AcDbLinetypeTableRecord
  2
CENTERX2
 70
     0
  3
Center (2x) ________  __  ________  __  _____
 72
    65
 73
     4
 40
20.32
 49
12.7
 74
     0
 49
-2.54
 74
     0
 49
2.54
 74
     0
 49
-2.54
 74
     0
  0
LTYPE
  5
62
330
5
100
AcDbSymbolTableRecord
100
AcDbLinetypeTableRecord
  2
DOT2
 70
     0
  3
Dot (.5x) ........................................
 72
    65
 73
     2
 40
0.635
 49
0.0
 74
     0
 49
-0.635
 74
     0
  0
ENDTAB
  0
TABLE
  2
LAYER
  5
2
330
0
100
AcDbSymbolTable
 70
     2
  0
LAYER
  5
10
330
2
100
AcDbSymbolTableRecord
100
AcDbLayerTableRecord
  2
0
 70
     0
 62
     7
  6
Continuous
370
    -3
390
F
  0
LAYER
  5
63
330
2
100
AcDbSymbolTableRecord
100
AcDbLayerTableRecord
  2
TABLE_BL1
 70
     0
 62
   179
  6
Continuous
370
    -3
390
F
  0
ENDTAB
  0
TABLE
  2
STYLE
  5
3
330
0
100
AcDbSymbolTable
 70
     1
  0
STYLE
  5
11
330
3
100
AcDbSymbolTableRecord
100
AcDbTextStyleTableRecord
  2
Standard
 70
     0
 40
0.0
 41
1.0
 50
0.0
 71
     0
 42
3.5
  3
txt
  4

  0
ENDTAB
  0
TABLE
  2
VIEW
  5
6
330
0
100
AcDbSymbolTable
 70
     0
  0
ENDTAB
  0
TABLE
  2
UCS
  5
7
330
0
100
AcDbSymbolTable
 70
     0
  0
ENDTAB
  0
TABLE
  2
APPID
  5
9
330
0
100
AcDbSymbolTable
 70
     1
  0
APPID
  5
12
330
9
100
AcDbSymbolTableRecord
100
AcDbRegAppTableRecord
  2
ACAD
 70
     0
  0
ENDTAB
  0
TABLE
  2
DIMSTYLE
  5
A
330
0
100
AcDbSymbolTable
 70
     1
100
AcDbDimStyleTable
  0
DIMSTYLE
105
27
330
A
100
AcDbSymbolTableRecord
100
AcDbDimStyleTableRecord
  2
ISO-25
 70
     0
 41
2.5
 42
0.625
 43
3.75
 44
1.25
 73
     0
 74
     0
 77
     1
 78
     8
140
2.5
141
2.5
143
0.0393700787
147
0.625
171
     3
172
     1
178
     0
271
     2
272
     2
274
     3
278
    44
283
     0
284
     8
340
11
  0
ENDTAB
  0
TABLE
  2
BLOCK_RECORD
  5
1
330
0
100
AcDbSymbolTable
 70
     1
  0
BLOCK_RECORD
  5
1F
330
1
100
AcDbSymbolTableRecord
100
AcDbBlockTableRecord
  2
*Model_Space
340
22
  0
BLOCK_RECORD
  5
1B
330
1
100
AcDbSymbolTableRecord
100
AcDbBlockTableRecord
  2
*Paper_Space
340
1E
  0
BLOCK_RECORD
  5
23
330
1
100
AcDbSymbolTableRecord
100
AcDbBlockTableRecord
  2
*Paper_Space0
340
26
  0
ENDTAB
  0
ENDSEC
  0
SECTION
  2
BLOCKS
  0
BLOCK
  5
20
330
1F
100
AcDbEntity
  8
0
100
AcDbBlockBegin
  2
*Model_Space
 70
     0
 10
0.0
 20
0.0
 30
0.0
  3
*Model_Space
  1

  0
ENDBLK
  5
21
330
1F
100
AcDbEntity
  8
0
100
AcDbBlockEnd
  0
BLOCK
  5
1C
330
1B
100
AcDbEntity
 67
     1
  8
0
100
AcDbBlockBegin
  2
*Paper_Space
 70
     0
 10
0.0
 20
0.0
 30
0.0
  3
*Paper_Space
  1

  0
ENDBLK
  5
1D
330
1B
100
AcDbEntity
 67
     1
  8
0
100
AcDbBlockEnd
  0
BLOCK
  5
24
330
23
100
AcDbEntity
  8
0
100
AcDbBlockBegin
  2
*Paper_Space0
 70
     0
 10
0.0
 20
0.0
 30
0.0
  3
*Paper_Space0
  1

  0
ENDBLK
  5
25
330
23
100
AcDbEntity
  8
0
100
AcDbBlockEnd
  0
ENDSEC
  0
SECTION
  2
ENTITIES
  0
LINE
  5
64
330
1F
100
AcDbEntity
  8
0
  6
Continuous
 62
     7
370
    25
100
AcDbLine
 10
593.3383692328
 20
560.2917760999
 30
0.0
 11
103.3383692328
 21
560.2917760999
 31
0.0
  0
ARC
  5
65
330
1F
100
AcDbEntity
  8
0
  6
Continuous
 62
     7
370
    25
100
AcDbCircle
 10
593.3383692328
 20
525.2917760999
 30
0.0
 40
35.0
100
AcDbArc
 50
0.0
 51
90.0
  0
ARC
  5
66
330
1F
100
AcDbEntity
  8
0
  6
Continuous
 62
     7
370
    25
100
AcDbCircle
 10
103.3383692328
 20
525.2917760999
 30
0.0
 40
35.00000000000003
100
AcDbArc
 50
90.0
 51
180.0
  0
LINE
  5
67
330
1F
100
AcDbEntity
  8
0
  6
Continuous
 62
     7
370
    25
100
AcDbLine
 10
68.3383692328
 20
525.2917760999
 30
0.0
 11
68.3383692328
 21
95.2917760999
 31
0.0
  0
LINE
  5
68
330
1F
100
AcDbEntity
  8
0
  6
Continuous
 62
     7
370
    25
100
AcDbLine
 10
628.3383692328
 20
95.2917760999
 30
0.0
 11
628.3383692328
 21
525.2917760999
 31
0.0
  0
ARC
  5
69
330
1F
100
AcDbEntity
  8
0
  6
Continuous
 62
     7
370
    25
100
AcDbCircle
 10
103.3383692328
 20
95.2917760999
 30
0.0
 40
35.00000000000003
100
AcDbArc
 50
180.0
 51
270.0
  0
ARC
  5
6A
330
1F
100
AcDbEntity
  8
0
  6
Continuous
 62
     7
370
    25
100
AcDbCircle
 10
593.3383692328
 20
95.2917760999
 30
0.0
 40
35.0
100
AcDbArc
 50
270.0
 51
0.0
  0
LINE
  5
6B
330
1F
100
AcDbEntity
  8
0
  6
Continuous
 62
     7
370
    25
100
AcDbLine
 10
103.3383692328
 20
60.2917760999
 30
0.0
 11
593.3383692328
 21
60.2917760999
 31
0.0
  0
ARC
  5
6C
330
1F
100
AcDbEntity
  8
0
  6
Continuous
 62
     7
370
    25
100
AcDbCircle
 10
110.3383692328
 20
102.7917760999
 30
0.0
 40
14.97927417930001
100
AcDbArc
 50
180.0
 51
270.0
  0
LINE
  5
6D
330
1F
100
AcDbEntity
  8
0
  6
Continuous
 62
     7
370
    25
100
AcDbLine
 10
110.3383692328
 20
87.8125019206
 30
0.0
 11
110.3383692328
 21
81.7503242156
 31
0.0
  0
SPLINE
  5
6E
330
1F
100
AcDbEntity
  8
0
  6
Continuous
 62
     7
370
    25
100
AcDbSpline
210
0.0
220
0.0
230
1.0
 70
     8
 71
     3
 72
    14
 73
    10
 74
     0
 42
0.00000001
 43
0.00000001
 40
0.0
 40
0.0
 40
0.0
 40
0.0
 40
0.1400119614543922
 40
0.2800241439618369
 40
0.420036325855502
 40
0.5600485059282321
 40
0.7066990905448032
 40
0.8533496738981595
 40
1.0
 40
1.0
 40
1.0
 40
1.0
 10
89.29691783432003
 20
102.791776099902
 30
0.0
 10
89.39523176577968
 20
101.2493982931745
 30
0.0
 10
89.59185978391837
 20
98.16464024458938
 30
0.0
 10
91.15762448910137
 20
93.76002957196464
 30
0.0
 10
93.57460451510669
 20
89.7918243058767
 30
0.0
 10
96.86938258170974
 20
86.39170638332801
 30
0.0
 10
100.8992686068855
 20
83.79061996263928
 30
0.0
 10
105.4908980752501
 20
82.07415657397621
 30
0.0
 10
108.7225464584463
 20
81.85826827194212
 30
0.0
 10
110.33836923282
 20
81.75032421560199
 30
0.0
  0
LWPOLYLINE
  5
6F
330
1F
100
AcDbEntity
  8
0
  6
Continuous
 62
     7
370
    25
100
AcDbPolyline
 90
        9
 70
   128
 43
0.0
 10
95.359094932
 20
102.7917760999
 10
94.8503905487
 20
102.791776114
 10
94.2466647076
 20
102.7917761243
 10
93.5582473251
 20
102.7917761305
 10
92.7969174136
 20
102.7917761326
 10
91.9757015388
 20
102.7917761305
 10
91.1086509322
 20
102.7917761243
 10
90.21060107
 20
102.791776114
 10
89.2969178343
 20
102.7917760999
  0
SPLINE
  5
70
330
1F
100
AcDbEntity
  8
0
  6
Continuous
 62
     7
370
    25
100
AcDbSpline
210
0.0
220
0.0
230
1.0
 70
     8
 71
     3
 72
    34
 73
    30
 74
     0
 42
0.00000001
 43
0.00000001
 40
0.0
 40
0.0
 40
0.0
 40
0.0
 40
0.0419351266326255
 40
0.0813910521605862
 40
0.1182758025959278
 40
0.1532584522141548
 40
0.1881856451827515
 40
0.2247879877006358
 40
0.2636392411424265
 40
0.2918646174739327
 40
0.3217113940554129
 40
0.3535273224230262
 40
0.3876329074017296
 40
0.4241738213339009
 40
0.4632160965900338
 40
0.5048036637240932
 40
0.5486412180158864
 40
0.5884873963208574
 40
0.6274846767683143
 40
0.6647593724460656
 40
0.6996689360158878
 40
0.7322679991613915
 40
0.7719805465135174
 40
0.8087171725248036
 40
0.8428851825055654
 40
0.885623011677423
 40
0.9257143101420559
 40
0.963727997871417
 40
1.0
 40
1.0
 40
1.0
 40
1.0
 10
94.49306977122002
 20
517.791776099902
 30
0.0
 10
94.49307214803615
 20
511.9906814359889
 30
0.0
 10
94.49307676115137
 20
500.7314523291972
 30
0.0
 10
94.4930765214692
 20
484.3697720687325
 30
0.0
 10
94.49280809600657
 20
468.9698630978983
 30
0.0
 10
94.4950215197971
 20
454.1964343107564
 30
0.0
 10
94.50673075327332
 20
439.4620888222998
 30
0.0
 10
94.5261378893078
 20
424.192612805289
 30
0.0
 10
94.55080551559026
 20
409.8502675283416
 30
0.0
 10
94.57894090721858
 20
396.4424879553416
 30
0.0
 10
94.60855791142126
 20
384.0079629672956
 30
0.0
 10
94.64368047883865
 20
370.7600446463866
 30
0.0
 10
94.68484728978954
 20
356.5861459768429
 30
0.0
 10
94.73226437480365
 20
341.412648117652
 30
0.0
 10
94.78604201051633
 20
325.2041910763909
 30
0.0
 10
94.84557397881122
 20
307.9864084509659
 30
0.0
 10
94.90708254918401
 20
290.6574430069445
 30
0.0
 10
94.96755093514619
 20
273.6867991067315
 30
0.0
 10
95.02406834705745
 20
257.6239948474399
 30
0.0
 10
95.07687190850972
 20
242.244061833066
 30
0.0
 10
95.12457480881487
 20
227.7491773231069
 30
0.0
 10
95.1707938052262
 20
212.9170266686892
 30
0.0
 10
95.21433567460902
 20
197.8320922261664
 30
0.0
 10
95.25399445879567
 20
182.5300715263202
 30
0.0
 10
95.28961228565986
 20
166.8095043996618
 30
0.0
 10
95.31983204495464
 20
150.6248183459235
 30
0.0
 10
95.34260193206778
 20
133.9080905569865
 30
0.0
 10
95.35648763795606
 20
118.0857722837213
 30
0.0
 10
95.3582395254523
 20
107.8094628132031
 30
0.0
 10
95.35909493202006
 20
102.791776099902
 30
0.0
  0
SPLINE
  5
71
330
1F
100
AcDbEntity
  8
0
  6
Continuous
 62
     7
370
    25
100
AcDbSpline
210
0.0
220
0.0
230
1.0
 70
     8
 71
     3
 72
    34
 73
    30
 74
     0
 42
0.00000001
 43
0.00000001
 40
0.0
 40
0.0
 40
0.0
 40
0.0
 40
0.0419351266326255
 40
0.0813910521605863
 40
0.1182758025959279
 40
0.1532584522141547
 40
0.1881856451827513
 40
0.2247879877006359
 40
0.2636392411424264
 40
0.2918646174739323
 40
0.3217113940554123
 40
0.3535273224230254
 40
0.3876329074017289
 40
0.4241738213339003
 40
0.4632160965900331
 40
0.5048036637240925
 40
0.5486412180158858
 40
0.5884873963208573
 40
0.6274846767683145
 40
0.6647593724460662
 40
0.6996689360158884
 40
0.7322679991613921
 40
0.7719805465135174
 40
0.8087171725248035
 40
0.8428851825055657
 40
0.885623011677423
 40
0.9257143101420557
 40
0.9637279978714172
 40
1.0
 40
1.0
 40
1.0
 40
1.0
 10
91.02896815602001
 20
517.791776099902
 30
0.0
 10
91.02896340141653
 20
511.9906814359889
 30
0.0
 10
91.02895417330137
 20
500.7314523291972
 30
0.0
 10
91.02895465748617
 20
484.3697720687325
 30
0.0
 10
91.02949150555395
 20
468.9698630978984
 30
0.0
 10
91.02506465900062
 20
454.1964343107564
 30
0.0
 10
91.0016461918346
 20
439.4620888222997
 30
0.0
 10
90.96283191973941
 20
424.1926128052892
 30
0.0
 10
90.91349666720811
 20
409.8502675283416
 30
0.0
 10
90.85722588400891
 20
396.4424879553416
 30
0.0
 10
90.79799187565851
 20
384.0079629672956
 30
0.0
 10
90.72774674085792
 20
370.7600446463865
 30
0.0
 10
90.64541311893554
 20
356.5861459768429
 30
0.0
 10
90.55057894887686
 20
341.4126481176521
 30
0.0
 10
90.44302367747659
 20
325.2041910763909
 30
0.0
 10
90.32395974091357
 20
307.9864084509658
 30
0.0
 10
90.20094260014122
 20
290.6574430069444
 30
0.0
 10
90.08000582816955
 20
273.6867991067316
 30
0.0
 10
89.96697100429985
 20
257.6239948474399
 30
0.0
 10
89.86136388135878
 20
242.2440618330661
 30
0.0
 10
89.76595808073145
 20
227.7491773231069
 30
0.0
 10
89.67352008792085
 20
212.9170266686892
 30
0.0
 10
89.58643634923646
 20
197.8320922261664
 30
0.0
 10
89.50711878092783
 20
182.5300715263199
 30
0.0
 10
89.43588312709255
 20
166.809504399662
 30
0.0
 10
89.37544360854699
 20
150.6248183459234
 30
0.0
 10
89.32990383441219
 20
133.9080905569864
 30
0.0
 10
89.30213242250773
 20
118.0857722837214
 30
0.0
 10
89.29862864747507
 20
107.8094628132031
 30
0.0
 10
89.29691783432003
 20
102.791776099902
 30
0.0
  0
LWPOLYLINE
  5
72
330
1F
100
AcDbEntity
  8
0
  6
Continuous
 62
     7
370
    25
100
AcDbPolyline
 90
        9
 70
   128
 43
0.0
 10
94.4930697712
 20
517.7917760999
 10
94.2023815172
 20
517.7917779066
 10
93.8573952808
 20
517.7917792196
 10
93.4640138721
 20
517.7917800165
 10
93.0289681561
 20
517.7917802836
 10
92.5597018855
 20
517.7917800165
 10
92.0642443364
 20
517.7917792196
 10
91.5510729249
 20
517.7917779066
 10
91.028968156
 20
517.7917760999
  0
SPLINE
  5
73
330
1F
100
AcDbEntity
  8
0
  6
Continuous
 62
     7
370
    25
100
AcDbSpline
210
0.0
220
0.0
230
1.0
 70
     8
 71
     3
 72
    38
 73
    34
 74
     0
 42
0.00000001
 43
0.00000001
 40
0.0
 40
0.0
 40
0.0
 40
0.0
 40
0.0328717572551621
 40
0.0671430793570303
 40
0.1030301029331269
 40
0.140965908042856
 40
0.1660770005260746
 40
0.1924230983175497
 40
0.2202630774663913
 40
0.2498530265973163
 40
0.2814341163133509
 40
0.3151080409562076
 40
0.3508957377811069
 40
0.3888206422392062
 40
0.428873913813521
 40
0.4699719076220449
 40
0.5091094950441712
 40
0.5456896195891573
 40
0.5799731412836409
 40
0.612272649574067
 40
0.6466055576597225
 40
0.6784968076831859
 40
0.7083496306336302
 40
0.7365955129305208
 40
0.7635814201758959
 40
0.7895240519412635
 40
0.8144227812505741
 40
0.8384329028933122
 40
0.8680264522266842
 40
0.8981690964822597
 40
0.9301349924297094
 40
0.9640879710159015
 40
1.0
 40
1.0
 40
1.0
 40
1.0
 10
601.31764328762
 20
102.791776099902
 30
0.0
 10
601.3183308185859
 20
107.3390899753702
 30
0.0
 10
601.3197351531898
 20
116.6273265010868
 30
0.0
 10
601.3309763185811
 20
130.8799790919302
 30
0.0
 10
601.3495058051979
 20
145.833136366011
 30
0.0
 10
601.3728180319413
 20
159.51908050511
 30
0.0
 10
601.398134548811
 20
171.8851550553399
 30
0.0
 10
601.4234649630193
 20
182.8546104978658
 30
0.0
 10
601.4530733517427
 20
194.4436140784023
 30
0.0
 10
601.4873837245325
 20
206.7567602089366
 30
0.0
 10
601.5267840895025
 20
219.876899546828
 30
0.0
 10
601.5713726894907
 20
233.8543562491858
 30
0.0
 10
601.621188171992
 20
248.7093346937872
 30
0.0
 10
601.6758509432262
 20
264.4467541925196
 30
0.0
 10
601.734216227926
 20
280.9187395416603
 30
0.0
 10
601.793508423645
 20
297.5584723942955
 30
0.0
 10
601.8504230077315
 20
313.7177692351689
 30
0.0
 10
601.9025091628474
 20
328.9344306676648
 30
0.0
 10
601.9494288364525
 20
343.2051947484695
 30
0.0
 10
601.9928920003532
 20
357.1651281501703
 30
0.0
 10
602.0325269407149
 20
370.7941670351908
 30
0.0
 10
602.067806257961
 20
384.0847871047836
 30
0.0
 10
602.097469835227
 20
396.533404544134
 30
0.0
 10
602.1221970577391
 20
408.3034790382562
 30
0.0
 10
602.1423430692071
 20
419.5326690057663
 30
0.0
 10
602.1582450257574
 20
430.2988559487461
 30
0.0
 10
602.170314662043
 20
440.6534063876981
 30
0.0
 10
602.1794592211078
 20
451.5130196120895
 30
0.0
 10
602.1836817068718
 20
463.0980628140172
 30
0.0
 10
602.1836642541998
 20
475.7836692484576
 30
0.0
 10
602.1836877506474
 20
489.0723369576465
 30
0.0
 10
602.183661073378
 20
503.1591124321278
 30
0.0
 10
602.1836661070239
 20
512.8238864816153
 30
0.0
 10
602.18366869442
 20
517.791776099902
 30
0.0
  0
LINE
  5
74
330
1F
100
AcDbEntity
  8
0
  6
Continuous
 62
     7
370
    25
100
AcDbLine
 10
602.1836686944
 20
517.7917760999
 30
0.0
 11
605.6477703096
 21
517.7917760999
 31
0.0
  0
SPLINE
  5
75
330
1F
100
AcDbEntity
  8
0
  6
Continuous
 62
     7
370
    25
100
AcDbSpline
210
0.0
220
0.0
230
1.0
 70
     8
 71
     3
 72
    38
 73
    34
 74
     0
 42
0.00000001
 43
0.00000001
 40
0.0
 40
0.0
 40
0.0
 40
0.0
 40
0.032871757255175
 40
0.0671430793569637
 40
0.1030301029331165
 40
0.1409659080428216
 40
0.1660770005260387
 40
0.1924230983175278
 40
0.2202630774663734
 40
0.2498530265972927
 40
0.281434116313326
 40
0.3151080409561876
 40
0.3508957377810904
 40
0.3888206422391896
 40
0.4288739138135038
 40
0.4699719076220286
 40
0.5091094950441574
 40
0.5456896195891465
 40
0.5799731412836322
 40
0.6122726495740595
 40
0.646605557659719
 40
0.6784968076831839
 40
0.7083496306336035
 40
0.7365955129304607
 40
0.7635814201758635
 40
0.7895240519412984
 40
0.8144227812506112
 40
0.838432902893307
 40
0.8680264522266765
 40
0.898169096482256
 40
0.9301349924297069
 40
0.9640879710159003
 40
1.0
 40
1.0
 40
1.0
 40
1.0
 10
607.37982111712
 20
102.791776099902
 30
0.0
 10
607.3784460403568
 20
107.3390899753656
 30
0.0
 10
607.3756373408545
 20
116.6273265010599
 30
0.0
 10
607.3531550996623
 20
130.8799790919707
 30
0.0
 10
607.3160960700044
 20
145.8331363659836
 30
0.0
 10
607.2694716378412
 20
159.5190805051166
 30
0.0
 10
607.2188386023032
 20
171.885155055343
 30
0.0
 10
607.1681777719542
 20
182.8546104978632
 30
0.0
 10
607.1089609941356
 20
194.4436140784002
 30
0.0
 10
607.0403402495484
 20
206.7567602089379
 30
0.0
 10
606.961539519775
 20
219.8768995468294
 30
0.0
 10
606.8723623193632
 20
233.8543562491854
 30
0.0
 10
606.7727313541766
 20
248.7093346937863
 30
0.0
 10
606.6634058118557
 20
264.4467541925196
 30
0.0
 10
606.5466752425859
 20
280.9187395416604
 30
0.0
 10
606.4280908511658
 20
297.5584723942954
 30
0.0
 10
606.3142616829307
 20
313.7177692351685
 30
0.0
 10
606.210089372615
 20
328.9344306676643
 30
0.0
 10
606.1162500256074
 20
343.2051947484707
 30
0.0
 10
606.0293236984675
 20
357.165128150176
 30
0.0
 10
605.9500538175913
 20
370.7941670351956
 30
0.0
 10
605.8794951804924
 20
384.0847871047714
 30
0.0
 10
605.8201680262672
 20
396.5334045441163
 30
0.0
 10
605.7707135877984
 20
408.3034790382619
 30
0.0
 10
605.7304215644308
 20
419.5326690057756
 30
0.0
 10
605.6986176389144
 20
430.2988559487309
 30
0.0
 10
605.6744783647532
 20
440.6534063876874
 30
0.0
 10
605.6561892640508
 20
451.513019612102
 30
0.0
 10
605.6477442938026
 20
463.0980628140168
 30
0.0
 10
605.6477791829508
 20
475.7836692484573
 30
0.0
 10
605.6477321949266
 20
489.0723369576465
 30
0.0
 10
605.6477855571026
 20
503.1591124321278
 30
0.0
 10
605.6477754862448
 20
512.8238864816153
 30
0.0
 10
605.64777030962
 20
517.791776099902
 30
0.0
  0
LWPOLYLINE
  5
76
330
1F
100
AcDbEntity
  8
0
  6
Continuous
 62
     7
370
    25
100
AcDbPolyline
 90
        9
 70
   128
 43
0.0
 10
601.3176432876
 20
102.7917760999
 10
601.8263476736
 20
102.7917677233
 10
602.4300735547
 20
102.7917616355
 10
603.1184910094
 20
102.7917579407
 10
603.8798210199
 20
102.791756702
 10
604.7010370135
 20
102.7917579406
 10
605.5680877514
 20
102.7917616354
 10
606.4661377494
 20
102.7917677232
 10
607.3798211171
 20
102.7917760999
  0
ARC
  5
77
330
1F
100
AcDbEntity
  8
0
  6
Continuous
 62
     7
370
    25
100
AcDbCircle
 10
586.3383692328
 20
102.7917760999
 30
0.0
 40
14.97927405479993
100
AcDbArc
 50
270.0
 51
0.0
  0
SPLINE
  5
78
330
1F
100
AcDbEntity
  8
0
  6
Continuous
 62
     7
370
    25
100
AcDbSpline
210
0.0
220
0.0
230
1.0
 70
     8
 71
     3
 72
    14
 73
    10
 74
     0
 42
0.00000001
 43
0.00000001
 40
0.0
 40
0.0
 40
0.0
 40
0.0
 40
0.1399879333335772
 40
0.2800046792979607
 40
0.4200111943674053
 40
0.5600294709613399
 40
0.70668573990055
 40
0.853341519675907
 40
1.0
 40
1.0
 40
1.0
 40
1.0
 10
586.33836923282
 20
81.75032421560199
 30
0.0
 10
587.8804809456534
 20
81.84860535767086
 30
0.0
 10
590.9650217722158
 20
82.04518787025411
 30
0.0
 10
595.3694247483812
 20
83.61070582537455
 30
0.0
 10
599.3377588966016
 20
86.02757462438154
 30
0.0
 10
602.7380435403397
 20
89.32228397920558
 30
0.0
 10
605.3393355683808
 20
93.35226388849821
 30
0.0
 10
607.055955019013
 20
97.94406671376957
 30
0.0
 10
607.2718650884553
 20
101.1758630527923
 30
0.0
 10
607.3798211171201
 20
102.791776099902
 30
0.0
  0
LINE
  5
79
330
1F
100
AcDbEntity
  8
0
  6
Continuous
 62
     7
370
    25
100
AcDbLine
 10
586.3383692328
 20
87.8125020461
 30
0.0
 11
586.3383692328
 21
81.7503242156
 31
0.0
  0
LINE
  5
7A
330
1F
100
AcDbEntity
  8
0
  6
Continuous
 62
     7
370
    25
100
AcDbLine
 10
110.3383692328
 20
87.8125020421
 30
0.0
 11
586.3383692328
 21
87.8125020461
 31
0.0
  0
LINE
  5
7B
330
1F
100
AcDbEntity
  8
0
  6
Continuous
 62
     7
370
    25
100
AcDbLine
 10
110.3383692328
 20
81.7503242156
 30
0.0
 11
586.3383692328
 21
81.7503242156
 31
0.0
  0
ARC
  5
7C
330
1F
100
AcDbEntity
  8
0
  6
Continuous
 62
     7
370
    25
100
AcDbCircle
 10
593.3383692328
 20
525.2917760999
 30
0.0
 40
30.9201010127
100
AcDbArc
 50
0.0
 51
90.0
  0
LINE
  5
7D
330
1F
100
AcDbEntity
  8
0
  6
Continuous
 62
     7
370
    25
100
AcDbLine
 10
624.2584702455
 20
95.2917760999
 30
0.0
 11
624.2584702455
 21
525.2917760999
 31
0.0
  0
ARC
  5
7E
330
1F
100
AcDbEntity
  8
0
  6
Continuous
 62
     7
370
    25
100
AcDbCircle
 10
593.3383692328
 20
95.2917760999
 30
0.0
 40
30.92010101270002
100
AcDbArc
 50
270.0
 51
0.0
  0
LINE
  5
7F
330
1F
100
AcDbEntity
  8
0
  6
Continuous
 62
     7
370
    25
100
AcDbLine
 10
103.3383692328
 20
64.3716750872
 30
0.0
 11
593.3383692328
 21
64.3716750872
 31
0.0
  0
ARC
  5
80
330
1F
100
AcDbEntity
  8
0
  6
Continuous
 62
     7
370
    25
100
AcDbCircle
 10
103.3383692328
 20
95.2917760999
 30
0.0
 40
30.92010101270002
100
AcDbArc
 50
180.0
 51
270.0
  0
LINE
  5
81
330
1F
100
AcDbEntity
  8
0
  6
Continuous
 62
     7
370
    25
100
AcDbLine
 10
72.4182682201
 20
525.2917760999
 30
0.0
 11
72.4182682201
 21
95.2917760999
 31
0.0
  0
ARC
  5
82
330
1F
100
AcDbEntity
  8
0
  6
Continuous
 62
     7
370
    25
100
AcDbCircle
 10
103.3383692328
 20
525.2917760999
 30
0.0
 40
30.9201010127
100
AcDbArc
 50
90.0
 51
180.0
  0
LINE
  5
83
330
1F
100
AcDbEntity
  8
0
  6
Continuous
 62
     7
370
    25
100
AcDbLine
 10
593.3383692328
 20
556.2118771126
 30
0.0
 11
103.3383692328
 21
556.2118771126
 31
0.0
  0
ARC
  5
84
330
1F
100
AcDbEntity
  8
0
  6
Continuous
 62
     7
370
    25
100
AcDbCircle
 10
586.3383692328
 20
517.7917760999
 30
0.0
 40
19.30940107679999
100
AcDbArc
 50
0.0
 51
90.0
  0
LINE
  5
85
330
1F
100
AcDbEntity
  8
0
  6
Continuous
 62
     7
370
    25
100
AcDbLine
 10
586.3383692328
 20
537.1011771767
 30
0.0
 11
110.3383692328
 21
537.1011771767
 31
0.0
  0
ARC
  5
86
330
1F
100
AcDbEntity
  8
0
  6
Continuous
 62
     7
370
    25
100
AcDbCircle
 10
110.3383692328
 20
517.7917760999
 30
0.0
 40
19.30940107680001
100
AcDbArc
 50
90.0
 51
180.0
  0
ARC
  5
87
330
1F
100
AcDbEntity
  8
0
  6
Continuous
 62
     7
370
    25
100
AcDbCircle
 10
110.3383692328
 20
517.7917760999
 30
0.0
 40
15.84529946160001
100
AcDbArc
 50
90.0
 51
180.0
  0
LINE
  5
88
330
1F
100
AcDbEntity
  8
0
  6
Continuous
 62
     7
370
    25
100
AcDbLine
 10
110.3383692328
 20
533.6370755615
 30
0.0
 11
110.3383692328
 21
537.1011771767
 31
0.0
  0
LINE
  5
89
330
1F
100
AcDbEntity
  8
0
  6
Continuous
 62
     7
370
    25
100
AcDbLine
 10
624.2584702455
 20
525.2917760999
 30
0.0
 11
625.2484197391
 21
525.2917760999
 31
0.0
  0
LINE
  5
8A
330
1F
100
AcDbEntity
  8
0
  6
Continuous
 62
     7
370
    25
100
AcDbLine
 10
593.3383692328
 20
556.2118771126
 30
0.0
 11
593.3383692328
 21
557.2018266062
 31
0.0
  0
ARC
  5
8B
330
1F
100
AcDbEntity
  8
0
  6
Continuous
 62
     7
370
    25
100
AcDbCircle
 10
593.3383692328
 20
525.2917760999
 30
0.0
 40
31.91005050630008
100
AcDbArc
 50
0.0
 51
90.0
  0
LINE
  5
8C
330
1F
100
AcDbEntity
  8
0
  6
Continuous
 62
     7
370
    25
100
AcDbLine
 10
103.3383692328
 20
556.2118771126
 30
0.0
 11
103.3383692328
 21
557.2018266062
 31
0.0
  0
LINE
  5
8D
330
1F
100
AcDbEntity
  8
0
  6
Continuous
 62
     7
370
    25
100
AcDbLine
 10
593.3383692328
 20
557.2018266062
 30
0.0
 11
103.3383692328
 21
557.2018266062
 31
0.0
  0
LINE
  5
8E
330
1F
100
AcDbEntity
  8
0
  6
Continuous
 62
     7
370
    25
100
AcDbLine
 10
72.4182682201
 20
525.2917760999
 30
0.0
 11
71.4283187265
 21
525.2917760999
 31
0.0
  0
ARC
  5
8F
330
1F
100
AcDbEntity
  8
0
  6
Continuous
 62
     7
370
    25
100
AcDbCircle
 10
103.3383692328
 20
525.2917760999
 30
0.0
 40
31.91005050630002
100
AcDbArc
 50
90.0
 51
180.0
  0
LINE
  5
90
330
1F
100
AcDbEntity
  8
0
  6
Continuous
 62
     7
370
    25
100
AcDbLine
 10
586.3383692328
 20
533.6370755615
 30
0.0
 11
110.3383692328
 21
533.6370755615
 31
0.0
  0
LINE
  5
91
330
1F
100
AcDbEntity
  8
0
  6
Continuous
 62
     7
370
    25
100
AcDbLine
 10
586.3383692328
 20
533.6370755615
 30
0.0
 11
586.3383692328
 21
537.1011771767
 31
0.0
  0
ARC
  5
92
330
1F
100
AcDbEntity
  8
0
  6
Continuous
 62
     7
370
    25
100
AcDbCircle
 10
586.3383692328
 20
517.7917760999
 30
0.0
 40
15.84529946160001
100
AcDbArc
 50
0.0
 51
90.0
  0
LINE
  5
93
330
1F
100
AcDbEntity
  8
0
  6
Continuous
 62
     7
370
    25
100
AcDbLine
 10
624.2584702455
 20
95.2917760999
 30
0.0
 11
625.2484197391
 21
95.2917760999
 31
0.0
  0
LINE
  5
94
330
1F
100
AcDbEntity
  8
0
  6
Continuous
 62
     7
370
    25
100
AcDbLine
 10
625.2484197391
 20
95.2917760999
 30
0.0
 11
625.2484197391
 21
525.2917760999
 31
0.0
  0
LINE
  5
95
330
1F
100
AcDbEntity
  8
0
  6
Continuous
 62
     7
370
    25
100
AcDbLine
 10
72.4182682201
 20
95.2917760999
 30
0.0
 11
71.4283187265
 21
95.2917760999
 31
0.0
  0
LINE
  5
96
330
1F
100
AcDbEntity
  8
0
  6
Continuous
 62
     7
370
    25
100
AcDbLine
 10
71.4283187265
 20
525.2917760999
 30
0.0
 11
71.4283187265
 21
95.2917760999
 31
0.0
  0
LINE
  5
97
330
1F
100
AcDbEntity
  8
0
  6
Continuous
 62
     7
370
    25
100
AcDbLine
 10
593.3383692328
 20
64.3716750872
 30
0.0
 11
593.3383692328
 21
63.3817255936
 31
0.0
  0
ARC
  5
98
330
1F
100
AcDbEntity
  8
0
  6
Continuous
 62
     7
370
    25
100
AcDbCircle
 10
593.3383692328
 20
95.2917760999
 30
0.0
 40
31.91005050630008
100
AcDbArc
 50
270.0
 51
0.0
  0
LINE
  5
99
330
1F
100
AcDbEntity
  8
0
  6
Continuous
 62
     7
370
    25
100
AcDbLine
 10
103.3383692328
 20
64.3716750872
 30
0.0
 11
103.3383692328
 21
63.3817255936
 31
0.0
  0
ARC
  5
9A
330
1F
100
AcDbEntity
  8
0
  6
Continuous
 62
     7
370
    25
100
AcDbCircle
 10
103.3383692328
 20
95.2917760999
 30
0.0
 40
31.91005050630002
100
AcDbArc
 50
180.0
 51
270.0
  0
LINE
  5
9B
330
1F
100
AcDbEntity
  8
0
  6
Continuous
 62
     7
370
    25
100
AcDbLine
 10
103.3383692328
 20
63.3817255936
 30
0.0
 11
593.3383692328
 21
63.3817255936
 31
0.0
  0
LINE
  5
9C
330
1F
100
AcDbEntity
  8
0
  6
Continuous
 62
     7
370
    25
100
AcDbLine
 10
103.3383692328
 20
557.2018266062
 30
0.0
 11
103.3383692328
 21
558.7917760999
 31
0.0
  0
LINE
  5
9D
330
1F
100
AcDbEntity
  8
0
  6
Continuous
 62
     7
370
    25
100
AcDbLine
 10
71.4283187265
 20
525.2917760999
 30
0.0
 11
69.8383692328
 21
525.2917760999
 31
0.0
  0
ARC
  5
9E
330
1F
100
AcDbEntity
  8
0
  6
Continuous
 62
     7
370
    25
100
AcDbCircle
 10
103.3383692328
 20
525.2917760999
 30
0.0
 40
33.50000000000003
100
AcDbArc
 50
90.0
 51
180.0
  0
LINE
  5
9F
330
1F
100
AcDbEntity
  8
0
  6
Continuous
 62
     7
370
    25
100
AcDbLine
 10
625.2484197391
 20
525.2917760999
 30
0.0
 11
626.8383692328
 21
525.2917760999
 31
0.0
  0
LINE
  5
A0
330
1F
100
AcDbEntity
  8
0
  6
Continuous
 62
     7
370
    25
100
AcDbLine
 10
593.3383692328
 20
557.2018266062
 30
0.0
 11
593.3383692328
 21
558.7917760999
 31
0.0
  0
ARC
  5
A1
330
1F
100
AcDbEntity
  8
0
  6
Continuous
 62
     7
370
    25
100
AcDbCircle
 10
593.3383692328
 20
525.2917760999
 30
0.0
 40
33.50000000000011
100
AcDbArc
 50
0.0
 51
90.0
  0
LINE
  5
A2
330
1F
100
AcDbEntity
  8
0
  6
Continuous
 62
     7
370
    25
100
AcDbLine
 10
593.3383692328
 20
558.7917760999
 30
0.0
 11
103.3383692328
 21
558.7917760999
 31
0.0
  0
LINE
  5
A3
330
1F
100
AcDbEntity
  8
0
  6
Continuous
 62
     7
370
    25
100
AcDbLine
 10
625.2484197391
 20
95.2917760999
 30
0.0
 11
626.8383692328
 21
95.2917760999
 31
0.0
  0
LINE
  5
A4
330
1F
100
AcDbEntity
  8
0
  6
Continuous
 62
     7
370
    25
100
AcDbLine
 10
626.8383692328
 20
95.2917760999
 30
0.0
 11
626.8383692328
 21
525.2917760999
 31
0.0
  0
LINE
  5
A5
330
1F
100
AcDbEntity
  8
0
  6
Continuous
 62
     7
370
    25
100
AcDbLine
 10
71.4283187265
 20
95.2917760999
 30
0.0
 11
69.8383692328
 21
95.2917760999
 31
0.0
  0
LINE
  5
A6
330
1F
100
AcDbEntity
  8
0
  6
Continuous
 62
     7
370
    25
100
AcDbLine
 10
69.8383692328
 20
525.2917760999
 30
0.0
 11
69.8383692328
 21
95.2917760999
 31
0.0
  0
LINE
  5
A7
330
1F
100
AcDbEntity
  8
0
  6
Continuous
 62
     7
370
    25
100
AcDbLine
 10
103.3383692328
 20
63.3817255936
 30
0.0
 11
103.3383692328
 21
61.7917760999
 31
0.0
  0
ARC
  5
A8
330
1F
100
AcDbEntity
  8
0
  6
Continuous
 62
     7
370
    25
100
AcDbCircle
 10
103.3383692328
 20
95.2917760999
 30
0.0
 40
33.50000000000003
100
AcDbArc
 50
180.0
 51
270.0
  0
LINE
  5
A9
330
1F
100
AcDbEntity
  8
0
  6
Continuous
 62
     7
370
    25
100
AcDbLine
 10
593.3383692328
 20
63.3817255936
 30
0.0
 11
593.3383692328
 21
61.7917760999
 31
0.0
  0
ARC
  5
AA
330
1F
100
AcDbEntity
  8
0
  6
Continuous
 62
     7
370
    25
100
AcDbCircle
 10
593.3383692328
 20
95.2917760999
 30
0.0
 40
33.50000000000011
100
AcDbArc
 50
270.0
 51
0.0
  0
LINE
  5
AB
330
1F
100
AcDbEntity
  8
0
  6
Continuous
 62
     7
370
    25
100
AcDbLine
 10
103.3383692328
 20
61.7917760999
 30
0.0
 11
593.3383692328
 21
61.7917760999
 31
0.0
  0
LINE
  5
AC
330
1F
100
AcDbEntity
  8
0
  6
Continuous
 62
     7
370
    25
100
AcDbLine
 10
95.359094932
 20
102.7917760999
 30
0.0
 11
95.647745911
 21
102.7917760999
 31
0.0
  0
LINE
  5
AD
330
1F
100
AcDbEntity
  8
0
  6
Continuous
 62
     7
370
    25
100
AcDbLine
 10
94.4930697712
 20
517.7917760999
 30
0.0
 11
95.0704200404
 21
517.7917760999
 31
0.0
  0
LINE
  5
AE
330
1F
100
AcDbEntity
  8
0
  6
Continuous
 62
     7
370
    25
100
AcDbLine
 10
95.0704202647
 20
467.2914034824
 30
0.0
 11
95.0704200404
 21
517.7917760999
 31
0.0
  0
SPLINE
  5
AF
330
1F
100
AcDbEntity
  8
0
  6
Continuous
 62
     7
370
    25
100
AcDbSpline
210
0.0
220
0.0
230
1.0
 70
     8
 71
     3
 72
    10
 73
     6
 74
     0
 42
0.00000001
 43
0.00000001
 40
0.0
 40
0.0
 40
0.0
 40
0.0
 40
0.5372728979521344
 40
0.7691334301376821
 40
1.0
 40
1.0
 40
1.0
 40
1.0
 10
96.22507369271199
 20
462.474445473902
 30
0.0
 10
95.89754357128605
 20
463.2182540852245
 30
0.0
 10
95.42866757414204
 20
464.2830538746297
 30
0.0
 10
95.11415924167244
 20
466.0255981903181
 30
0.0
 10
95.08497918003789
 20
466.8700730439449
 30
0.0
 10
95.07042048937953
 20
467.291403482402
 30
0.0
  0
SPLINE
  5
B0
330
1F
100
AcDbEntity
  8
0
  6
Continuous
 62
     7
370
    25
100
AcDbSpline
210
0.0
220
0.0
230
1.0
 70
     8
 71
     3
 72
    19
 73
    15
 74
     0
 42
0.00000001
 43
0.00000001
 40
0.0
 40
0.0
 40
0.0
 40
0.0
 40
0.105461253728773
 40
0.2068519018903018
 40
0.3045088613113753
 40
0.3991019857076558
 40
0.491198733524131
 40
0.5802800291832727
 40
0.6631809432494958
 40
0.7451728525151351
 40
0.8182552531151047
 40
0.8834751213774906
 40
0.9427424863749743
 40
1.0
 40
1.0
 40
1.0
 40
1.0
 10
95.70522650762004
 20
325.895938764462
 30
0.0
 10
95.71753699581697
 20
330.6972779443539
 30
0.0
 10
95.74168281057538
 20
340.1146336637854
 30
0.0
 10
95.78693798022708
 20
353.9779117714256
 30
0.0
 10
95.83763905001197
 20
367.3462986616441
 30
0.0
 10
95.89482986967136
 20
380.2914369005719
 30
0.0
 10
95.95822369244556
 20
392.8460091765224
 30
0.0
 10
96.02372301629825
 20
404.868186796782
 30
0.0
 10
96.08536444511596
 20
416.4303718096358
 30
0.0
 10
96.13796966384747
 20
427.2643138948983
 30
0.0
 10
96.17846649016771
 20
437.2934668981946
 30
0.0
 10
96.20579544638747
 20
446.2881841821312
 30
0.0
 10
96.22214397347418
 20
454.5625414701651
 30
0.0
 10
96.22410825270411
 20
459.8676454095515
 30
0.0
 10
96.22507345212
 20
462.474445473902
 30
0.0
  0
LINE
  5
B1
330
1F
100
AcDbEntity
  8
0
  6
Continuous
 62
     7
370
    25
100
AcDbLine
 10
95.6069914363
 20
222.9343802827
 30
0.0
 11
95.7052265076
 21
325.8959387645
 31
0.0
  0
LINE
  5
B2
330
1F
100
AcDbEntity
  8
0
  6
Continuous
 62
     7
370
    25
100
AcDbLine
 10
95.6477450481
 20
102.7917760999
 30
0.0
 11
95.6069914364
 21
222.9343802827
 31
0.0
  0
LINE
  5
B3
330
1F
100
AcDbEntity
  8
0
  6
Continuous
 62
     7
370
    25
100
AcDbLine
 10
601.3176432876
 20
102.7917760999
 30
0.0
 11
601.0005559499
 21
102.7917760999
 31
0.0
  0
SPLINE
  5
B4
330
1F
100
AcDbEntity
  8
0
  6
Continuous
 62
     7
370
    25
100
AcDbSpline
210
0.0
220
0.0
230
1.0
 70
     8
 71
     3
 72
    14
 73
    10
 74
     0
 42
0.00000001
 43
0.00000001
 40
0.0
 40
0.0
 40
0.0
 40
0.0
 40
0.1170490954579305
 40
0.2413903210305886
 40
0.3728925221940577
 40
0.5117668134024337
 40
0.665661919914175
 40
0.828450713977806
 40
0.9999999999999999
 40
0.9999999999999999
 40
0.9999999999999999
 40
0.9999999999999999
 10
601.0837915077201
 20
222.160940797262
 30
0.0
 10
601.0827116126407
 20
217.5035852629606
 30
0.0
 10
601.0804845452814
 20
207.8987220798643
 30
0.0
 10
601.0741324480991
 20
193.0614213474879
 30
0.0
 10
601.0653172652361
 20
177.3557058736687
 30
0.0
 10
601.0535465113633
 20
160.474054878917
 30
0.0
 10
601.0387130258201
 20
142.3475256321471
 30
0.0
 10
601.0208496654333
 20
122.9208746065621
 30
0.0
 10
601.007437664389
 20
109.6176680047625
 30
0.0
 10
601.0005559499201
 20
102.791776099902
 30
0.0
  0
SPLINE
  5
B5
330
1F
100
AcDbEntity
  8
0
  6
Continuous
 62
     7
370
    25
100
AcDbSpline
210
0.0
220
0.0
230
1.0
 70
     8
 71
     3
 72
    11
 73
     7
 74
     0
 42
0.00000001
 43
0.00000001
 40
0.0
 40
0.0
 40
0.0
 40
0.0
 40
0.3346783161793032
 40
0.5515322029000412
 40
0.7720963403018772
 40
1.0
 40
1.0
 40
1.0
 40
1.0
 10
600.9797728713199
 20
326.405738227502
 30
0.0
 10
600.9995544841896
 20
314.7762835868754
 30
0.0
 10
601.0321535382527
 20
295.6115560667494
 30
0.0
 10
601.0520214390589
 20
268.7825087035388
 30
0.0
 10
601.0776186093001
 20
245.6637322212783
 30
0.0
 10
601.0817115468839
 20
230.0802166993112
 30
0.0
 10
601.0837915077201
 20
222.160940797262
 30
0.0
  0
SPLINE
  5
B6
330
1F
100
AcDbEntity
  8
0
  6
Continuous
 62
     7
370
    25
100
AcDbSpline
210
0.0
220
0.0
230
1.0
 70
     8
 71
     3
 72
    19
 73
    15
 74
     0
 42
0.00000001
 43
0.00000001
 40
0.0
 40
0.0
 40
0.0
 40
0.0
 40
0.0512709692009378
 40
0.1039839220450206
 40
0.1608138450970927
 40
0.2241971885340318
 40
0.2943766183679024
 40
0.3714736426826652
 40
0.4551944459107067
 40
0.554823426390276
 40
0.6604972583775794
 40
0.7698171301201159
 40
0.8826796976788417
 40
1.0
 40
1.0
 40
1.0
 40
1.0
 10
600.4516321696201
 20
462.474377077902
 30
0.0
 10
600.4524450535093
 20
460.1488418171998
 30
0.0
 10
600.4540936834512
 20
455.4323661774651
 30
0.0
 10
600.4674416764367
 20
448.1382541839114
 30
0.0
 10
600.4898249612063
 20
440.2948374703376
 30
0.0
 10
600.5226779169701
 20
431.6593017700313
 30
0.0
 10
600.5669743727766
 20
422.1046591404761
 30
0.0
 10
600.6216909423742
 20
411.6277179814908
 30
0.0
 10
600.6871787541351
 20
399.8151682442074
 30
0.0
 10
600.7571695685174
 20
386.7064590027305
 30
0.0
 10
600.8245481173093
 20
372.4365195256835
 30
0.0
 10
600.88436259442
 20
357.5661810815481
 30
0.0
 10
600.9374694652394
 20
342.1674681458041
 30
0.0
 10
600.9654908480533
 20
331.7270448141649
 30
0.0
 10
600.9797728713199
 20
326.405738227502
 30
0.0
  0
SPLINE
  5
B7
330
1F
100
AcDbEntity
  8
0
  6
Continuous
 62
     7
370
    25
100
AcDbSpline
210
0.0
220
0.0
230
1.0
 70
     8
 71
     3
 72
    10
 73
     6
 74
     0
 42
0.00000001
 43
0.00000001
 40
0.0
 40
0.0
 40
0.0
 40
0.0
 40
0.2209992502362619
 40
0.4566274319486909
 40
1.0
 40
1.0
 40
1.0
 40
1.0
 10
601.6063178755395
 20
467.291402463302
 30
0.0
 10
601.5929253834643
 20
466.8881908828509
 30
0.0
 10
601.5652538902026
 20
466.0550773391783
 30
0.0
 10
601.2575325852057
 20
464.3069253328288
 30
0.0
 10
600.7827824843891
 20
463.2273841432615
 30
0.0
 10
600.4516323776126
 20
462.474377077902
 30
0.0
  0
LINE
  5
B8
330
1F
100
AcDbEntity
  8
0
  6
Continuous
 62
     7
370
    25
100
AcDbLine
 10
601.6063184252
 20
517.7917760999
 30
0.0
 11
601.6063181497
 21
467.2914024633
 31
0.0
  0
LINE
  5
B9
330
1F
100
AcDbEntity
  8
0
  6
Continuous
 62
     7
370
    25
100
AcDbLine
 10
602.1836686944
 20
517.7917760999
 30
0.0
 11
601.6063184252
 21
517.7917760999
 31
0.0
  0
LINE
  5
BA
330
1F
100
AcDbEntity
  8
0
  6
Continuous
 62
     7
370
    25
100
AcDbLine
 10
593.3383692328
 20
559.2917760999
 30
0.0
 11
103.3383692328
 21
559.2917760999
 31
0.0
  0
ARC
  5
BB
330
1F
100
AcDbEntity
  8
0
  6
Continuous
 62
     7
370
    25
100
AcDbCircle
 10
593.3383692328
 20
525.2917760999
 30
0.0
 40
34.0
100
AcDbArc
 50
0.0
 51
90.0
  0
LINE
  5
BC
330
1F
100
AcDbEntity
  8
0
  6
Continuous
 62
     7
370
    25
100
AcDbLine
 10
627.3383692328
 20
95.2917760999
 30
0.0
 11
627.3383692328
 21
525.2917760999
 31
0.0
  0
ARC
  5
BD
330
1F
100
AcDbEntity
  8
0
  6
Continuous
 62
     7
370
    25
100
AcDbCircle
 10
593.3383692328
 20
95.2917760999
 30
0.0
 40
34.0
100
AcDbArc
 50
270.0
 51
0.0
  0
LINE
  5
BE
330
1F
100
AcDbEntity
  8
0
  6
Continuous
 62
     7
370
    25
100
AcDbLine
 10
103.3383692328
 20
61.2917760999
 30
0.0
 11
593.3383692328
 21
61.2917760999
 31
0.0
  0
ARC
  5
BF
330
1F
100
AcDbEntity
  8
0
  6
Continuous
 62
     7
370
    25
100
AcDbCircle
 10
103.3383692328
 20
95.2917760999
 30
0.0
 40
34.00000000000003
100
AcDbArc
 50
180.0
 51
270.0
  0
LINE
  5
C0
330
1F
100
AcDbEntity
  8
0
  6
Continuous
 62
     7
370
    25
100
AcDbLine
 10
69.3383692328
 20
525.2917760999
 30
0.0
 11
69.3383692328
 21
95.2917760999
 31
0.0
  0
ARC
  5
C1
330
1F
100
AcDbEntity
  8
0
  6
Continuous
 62
     7
370
    25
100
AcDbCircle
 10
103.3383692328
 20
525.2917760999
 30
0.0
 40
34.00000000000003
100
AcDbArc
 50
90.0
 51
180.0
  0
LINE
  5
C2
330
1F
100
AcDbEntity
  8
0
  6
Continuous
 62
     7
370
    25
100
AcDbLine
 10
110.3383692328
 20
533.0597252923
 30
0.0
 11
586.3383692328
 21
533.0597252923
 31
0.0
  0
LINE
  5
C3
330
1F
100
AcDbEntity
  8
0
  6
Continuous
 62
     7
370
    25
100
AcDbLine
 10
110.3383692328
 20
533.6370755615
 30
0.0
 11
110.3383692328
 21
533.0597252923
 31
0.0
  0
LINE
  5
C4
330
1F
100
AcDbEntity
  8
0
  6
Continuous
 62
     7
370
    25
100
AcDbLine
 10
586.3383692328
 20
533.6370755615
 30
0.0
 11
586.3383692328
 21
533.0597252923
 31
0.0
  0
ARC
  5
C5
330
1F
100
AcDbEntity
  8
0
  6
Continuous
 62
     7
370
    25
100
AcDbCircle
 10
586.3383692328
 20
517.7917760999
 30
0.0
 40
15.26794919240001
100
AcDbArc
 50
0.0
 51
90.0
  0
ARC
  5
C6
330
1F
100
AcDbEntity
  8
0
  6
Continuous
 62
     7
370
    25
100
AcDbCircle
 10
110.3383692328
 20
517.7917760999
 30
0.0
 40
15.26794919239998
100
AcDbArc
 50
90.0
 51
180.0
  0
SPLINE
  5
C7
330
1F
100
AcDbEntity
  8
0
  6
Continuous
 62
     7
370
    25
100
AcDbSpline
210
0.0
220
0.0
230
1.0
 70
     8
 71
     3
 72
    10
 73
     6
 74
     0
 42
0.00000001
 43
0.00000001
 40
0.0
 40
0.0
 40
0.0
 40
0.0
 40
0.2812341571248747
 40
0.5614446323552815
 40
1.0
 40
1.0
 40
1.0
 40
1.0
 10
96.22507345212
 20
462.474445473902
 30
0.0
 10
96.35294514713361
 20
462.9843458151984
 30
0.0
 10
96.60822308893668
 20
464.0022904794731
 30
0.0
 10
97.71509137604927
 20
465.6410563267484
 30
0.0
 10
98.91314291306216
 20
466.3034034387211
 30
0.0
 10
99.64413470612001
 20
466.707534887202
 30
0.0
  0
SPLINE
  5
C8
330
1F
100
AcDbEntity
  8
0
  6
Continuous
 62
     7
370
    25
100
AcDbSpline
210
0.0
220
0.0
230
1.0
 70
     8
 71
     3
 72
    12
 73
     8
 74
     0
 42
0.00000001
 43
0.00000001
 40
0.0
 40
0.0
 40
0.0
 40
0.0
 40
0.2505405083222723
 40
0.4745819937630005
 40
0.5938901758199309
 40
0.7159507119304738
 40
1.0
 40
1.0
 40
1.0
 40
1.0
 10
99.64413466099303
 20
466.707535096871
 30
0.0
 10
99.15119542154474
 20
466.5931492415369
 30
0.0
 10
98.21745385365244
 20
466.3764758275398
 30
0.0
 10
97.24531990743989
 20
465.6138060841412
 30
0.0
 10
96.70128674158896
 20
464.8492994452731
 30
0.0
 10
96.26030090935123
 20
463.8754777319514
 30
0.0
 10
96.2395721840697
 20
463.0510693399015
 30
0.0
 10
96.22507369300098
 20
462.474445473899
 30
0.0
  0
SPLINE
  5
C9
330
1F
100
AcDbEntity
  8
0
  6
Continuous
 62
     7
370
    25
100
AcDbSpline
210
0.0
220
0.0
230
1.0
 70
     8
 71
     3
 72
    10
 73
     6
 74
     0
 42
0.00000001
 43
0.00000001
 40
0.0
 40
0.0
 40
0.0
 40
0.0
 40
0.2812473426924359
 40
0.5614455288369813
 40
1.0
 40
1.0
 40
1.0
 40
1.0
 10
597.03261622992
 20
466.707531395002
 30
0.0
 10
597.504242063484
 20
466.4752429533092
 30
0.0
 10
598.4457343919221
 20
466.0115325916735
 30
0.0
 10
599.8148946869919
 20
464.5846000494763
 30
0.0
 10
600.2103443877564
 20
463.2740331904137
 30
0.0
 10
600.4516321696201
 20
462.474377077902
 30
0.0
  0
SPLINE
  5
CA
330
1F
100
AcDbEntity
  8
0
  6
Continuous
 62
     7
370
    25
100
AcDbSpline
210
0.0
220
0.0
230
1.0
 70
     8
 71
     3
 72
    11
 73
     7
 74
     0
 42
0.00000001
 43
0.00000001
 40
0.0
 40
0.0
 40
0.0
 40
0.0
 40
0.2618341081014171
 40
0.4908019495178665
 40
0.7256359956159384
 40
1.0
 40
1.0
 40
1.0
 40
1.0
 10
600.451632377623
 20
462.4743770779025
 30
0.0
 10
600.4409767249169
 20
463.0038375952577
 30
0.0
 10
600.4210029516013
 20
463.9962990281663
 30
0.0
 10
599.7321832512592
 20
465.3308150619945
 30
0.0
 10
598.5758223747422
 20
466.3361978115351
 30
0.0
 10
597.5729694113406
 20
466.5775092468007
 30
0.0
 10
597.0326162921825
 20
466.7075316842795
 30
0.0
  0
LINE
  5
CB
330
1F
100
AcDbEntity
  8
0
  6
Continuous
 62
     7
370
    25
100
AcDbLine
 10
96.8024732919
 20
467.2914038254
 30
0.0
 11
95.0704204894
 21
467.2914038254
 31
0.0
  0
SPLINE
  5
CC
330
1F
100
AcDbEntity
  8
0
  6
Continuous
 62
     7
370
    25
100
AcDbSpline
210
0.0
220
0.0
230
1.0
 70
     8
 71
     3
 72
     9
 73
     5
 74
     0
 42
0.00000001
 43
0.00000001
 40
0.0
 40
0.0
 40
0.0
 40
0.0
 40
0.5440458794823149
 40
1.0
 40
1.0
 40
1.0
 40
1.0
 10
96.225073823618
 20
462.474445473809
 30
0.0
 10
96.17083370208069
 20
463.3526085714194
 30
0.0
 10
96.07113600454642
 20
464.9667428397388
 30
0.0
 10
96.57344392556433
 20
466.5634015423075
 30
0.0
 10
96.80247329192099
 20
467.291404656804
 30
0.0
  0
SPLINE
  5
CD
330
1F
100
AcDbEntity
  8
0
  6
Continuous
 62
     7
370
    25
100
AcDbSpline
210
0.0
220
0.0
230
1.0
 70
     8
 71
     3
 72
     9
 73
     5
 74
     0
 42
0.00000001
 43
0.00000001
 40
0.0
 40
0.0
 40
0.0
 40
0.0
 40
0.4559507082806735
 40
1.0
 40
1.0
 40
1.0
 40
1.0
 10
599.8742743462235
 20
467.2913974625975
 30
0.0
 10
600.103295715739
 20
466.5633877753521
 30
0.0
 10
600.6055898570926
 20
464.966702708252
 30
0.0
 10
600.5058794961393
 20
463.3525537016641
 30
0.0
 10
600.4516321448855
 20
462.4743770779005
 30
0.0
  0
LWPOLYLINE
  5
CE
330
1F
100
AcDbEntity
  8
0
  6
Continuous
 62
     7
370
    25
100
AcDbPolyline
 90
        9
 70
   128
 43
0.0
 10
599.8742743462
 20
467.2913967
 10
600.1353258904
 20
467.2913971661
 10
600.3919106767
 20
467.2913977192
 10
600.6396384989
 20
467.2913983499
 10
600.8742706945
 20
467.2913990475
 10
601.0917926696
 20
467.2913997998
 10
601.2884825886
 20
467.2914005942
 10
601.460975056
 20
467.291401417
 10
601.6063186982
 20
467.2914022541
  0
LINE
  5
CF
330
1F
100
AcDbEntity
  8
0
  6
Continuous
 62
     7
370
    25
100
AcDbLine
 10
96.8024732919
 20
467.2914046568
 30
0.0
 11
96.8024708479
 21
517.7917760999
 31
0.0
  0
LINE
  5
D0
330
1F
100
AcDbEntity
  8
0
  6
Continuous
 62
     7
370
    25
100
AcDbLine
 10
96.8024708479
 20
517.7917760999
 30
0.0
 11
95.0704200404
 21
517.7917760999
 31
0.0
  0
LINE
  5
D1
330
1F
100
AcDbEntity
  8
0
  6
Continuous
 62
     7
370
    25
100
AcDbLine
 10
599.8742676177
 20
517.7917760999
 30
0.0
 11
599.8742743463
 21
467.2913974626
 31
0.0
  0
LINE
  5
D2
330
1F
100
AcDbEntity
  8
0
  6
Continuous
 62
     7
370
    25
100
AcDbLine
 10
599.8742676177
 20
517.7917760999
 30
0.0
 11
601.6063184252
 21
517.7917760999
 31
0.0
  0
LINE
  5
D3
330
1F
100
AcDbEntity
  8
0
  6
Continuous
 62
     7
370
    25
100
AcDbLine
 10
110.3383692328
 20
531.3276744848
 30
0.0
 11
586.3383692328
 21
531.3276744848
 31
0.0
  0
LINE
  5
D4
330
1F
100
AcDbEntity
  8
0
  6
Continuous
 62
     7
370
    25
100
AcDbLine
 10
110.3383692328
 20
531.3276744848
 30
0.0
 11
110.3383692328
 21
533.0597252923
 31
0.0
  0
LINE
  5
D5
330
1F
100
AcDbEntity
  8
0
  6
Continuous
 62
     7
370
    25
100
AcDbLine
 10
586.3383692328
 20
531.3276744848
 30
0.0
 11
586.3383692328
 21
533.0597252923
 31
0.0
  0
ARC
  5
D6
330
1F
100
AcDbEntity
  8
0
  6
Continuous
 62
     7
370
    25
100
AcDbCircle
 10
110.3383692328
 20
517.7917760999
 30
0.0
 40
13.53589838490007
100
AcDbArc
 50
90.0
 51
180.0
  0
ARC
  5
D7
330
1F
100
AcDbEntity
  8
0
  6
Continuous
 62
     7
370
    25
100
AcDbCircle
 10
586.3383692328
 20
517.7917760999
 30
0.0
 40
13.53589838490007
100
AcDbArc
 50
0.0
 51
90.0
  0
SPLINE
  5
D8
330
1F
100
AcDbEntity
  8
0
  6
Continuous
 62
     7
370
    25
100
AcDbSpline
210
0.0
220
0.0
230
1.0
 70
     8
 71
     3
 72
    15
 73
    11
 74
     0
 42
0.00000001
 43
0.00000001
 40
0.0
 40
0.0
 40
0.0
 40
0.0
 40
0.124997709745379
 40
0.2499960738492254
 40
0.3749950923115322
 40
0.4999947651323023
 40
0.6249950923115339
 40
0.7499960738492266
 40
0.8749977097453813
 40
0.9999999999999999
 40
0.9999999999999999
 40
0.9999999999999999
 40
0.9999999999999999
 10
110.33836923812
 20
88.10176713013449
 30
0.0
 10
109.3769115092716
 20
88.15641378228523
 30
0.0
 10
107.4539910183785
 20
88.26570737265996
 30
0.0
 10
104.6804812188231
 20
89.13914788853722
 30
0.0
 10
102.1241662004714
 20
90.4967308881677
 30
0.0
 10
99.8842724539366
 20
92.33768293812852
 30
0.0
 10
98.04319252971072
 20
94.57749117364739
 30
0.0
 10
96.68545308902222
 20
97.13377464697557
 30
0.0
 10
95.81184354556733
 20
99.90731091078555
 30
0.0
 10
95.70244464273014
 20
101.8302860258028
 30
0.0
 10
95.64774504814156
 20
102.791776099902
 30
0.0
  0
LINE
  5
D9
330
1F
100
AcDbEntity
  8
0
  6
Continuous
 62
     7
370
    25
100
AcDbLine
 10
110.3383692328
 20
87.8125019206
 30
0.0
 11
110.3383692382
 21
88.1017671301
 31
0.0
  0
LINE
  5
DA
330
1F
100
AcDbEntity
  8
0
  6
Continuous
 62
     7
370
    25
100
AcDbLine
 10
233.9365375225
 20
88.1279835561
 30
0.0
 11
110.3383692381
 21
88.1017671301
 31
0.0
  0
SPLINE
  5
DB
330
1F
100
AcDbEntity
  8
0
  6
Continuous
 62
     7
370
    25
100
AcDbSpline
210
0.0
220
0.0
230
1.0
 70
     8
 71
     3
 72
    24
 73
    20
 74
     0
 42
0.00000001
 43
0.00000001
 40
0.0
 40
0.0
 40
0.0
 40
0.0
 40
0.052028825134008
 40
0.1073540217385035
 40
0.1653905761781078
 40
0.2221639884514537
 40
0.2759677118552485
 40
0.3273939524957573
 40
0.4045736328547221
 40
0.4791779801483242
 40
0.5533259613449524
 40
0.6037805676808565
 40
0.6556246775114458
 40
0.7095065078198459
 40
0.7660013885210389
 40
0.8257501680552103
 40
0.8871240378612283
 40
0.9453319633842107
 40
1.0
 40
1.0
 40
1.0
 40
1.0
 10
461.32206501912
 20
88.18158092830197
 30
0.0
 10
457.3783769136638
 20
88.1845820032752
 30
0.0
 10
449.2411418807265
 20
88.19077429124408
 30
0.0
 10
436.7051112351808
 20
88.23508957345302
 30
0.0
 10
423.8098042753089
 20
88.29819123510393
 30
0.0
 10
411.0300655256366
 20
88.37244341641725
 30
0.0
 10
398.751385094649
 20
88.44540888007668
 30
0.0
 10
384.9259082681865
 20
88.52114567113775
 30
0.0
 10
369.5234683980548
 20
88.58642753279342
 30
0.0
 10
352.3982896387625
 20
88.61810973758027
 30
0.0
 10
337.2987281287867
 20
88.6043403160871
 30
0.0
 10
323.9246396567061
 20
88.56285584603926
 30
0.0
 10
312.0869409591897
 20
88.5081976357458
 30
0.0
 10
299.7917209261321
 20
88.43735929768218
 30
0.0
 10
286.8975816048758
 20
88.35512645380697
 30
0.0
 10
273.4355913785333
 20
88.26965469010742
 30
0.0
 10
259.8434819575878
 20
88.19551372241585
 30
0.0
 10
246.6360472445053
 20
88.14202190335533
 30
0.0
 10
238.0802685283742
 20
88.13256377472409
 30
0.0
 10
233.93653752252
 20
88.12798301800201
 30
0.0
  0
SPLINE
  5
DC
330
1F
100
AcDbEntity
  8
0
  6
Continuous
 62
     7
370
    25
100
AcDbSpline
210
0.0
220
0.0
230
1.0
 70
     8
 71
     3
 72
    14
 73
    10
 74
     0
 42
0.00000001
 43
0.00000001
 40
0.0
 40
0.0
 40
0.0
 40
0.0
 40
0.1160474361490814
 40
0.23996810409419
 40
0.371757338671631
 40
0.5113431445513921
 40
0.6658502630977543
 40
0.8287399825994827
 40
1.0
 40
1.0
 40
1.0
 40
1.0
 10
586.33836923282
 20
88.14378494640202
 30
0.0
 10
581.5024333173682
 20
88.14763244356838
 30
0.0
 10
571.5024676855454
 20
88.15558847113041
 30
0.0
 10
556.010563154441
 20
88.16444862537715
 30
0.0
 10
539.5377611498685
 20
88.17146847678094
 30
0.0
 10
521.7903538686079
 20
88.17647516826993
 30
0.0
 10
502.7469219280441
 20
88.17959733708564
 30
0.0
 10
482.3835578954658
 20
88.18109900016319
 30
0.0
 10
468.4588319805331
 20
88.1814176251193
 30
0.0
 10
461.32206501912
 20
88.18158092830197
 30
0.0
  0
LINE
  5
DD
330
1F
100
AcDbEntity
  8
0
  6
Continuous
 62
     7
370
    25
100
AcDbLine
 10
586.3383692328
 20
87.8125020461
 30
0.0
 11
586.3383692328
 21
88.1437849464
 31
0.0
  0
SPLINE
  5
DE
330
1F
100
AcDbEntity
  8
0
  6
Continuous
 62
     7
370
    25
100
AcDbSpline
210
0.0
220
0.0
230
1.0
 70
     8
 71
     3
 72
    13
 73
     9
 74
     0
 42
0.00000001
 43
0.00000001
 40
0.0
 40
0.0
 40
0.0
 40
0.0
 40
0.1866062206855066
 40
0.3731906140874295
 40
0.5597489980201592
 40
0.7065142074117569
 40
0.8532643783463263
 40
1.0
 40
1.0
 40
1.0
 40
1.0
 10
601.0005559499201
 20
102.791776099902
 30
0.0
 10
600.8774516539274
 20
101.3590768949996
 30
0.0
 10
600.6312574614216
 20
98.49384606766728
 30
0.0
 10
598.7079046552501
 20
94.56576535568296
 30
0.0
 10
596.0227186891656
 20
91.56360092424995
 30
0.0
 10
592.9109973911719
 20
89.56115077037933
 30
0.0
 10
589.7139290589802
 20
88.36735557861694
 30
0.0
 10
587.4635186542167
 20
88.21830602747677
 30
0.0
 10
586.33836923282
 20
88.14378494640202
 30
0.0
  0
LINE
  5
DF
330
1F
100
AcDbEntity
  8
0
  6
Continuous
 62
     7
370
    25
100
AcDbLine
 10
566.002884142
 20
485.9917760999
 30
0.0
 11
572.416884142
 21
485.9917760999
 31
0.0
  0
LINE
  5
E0
330
1F
100
AcDbEntity
  8
0
  6
Continuous
 62
     7
370
    25
100
AcDbLine
 10
572.416884142
 20
487.9626268602
 30
0.0
 11
569.1359780326
 21
487.9626268602
 31
0.0
  0
LINE
  5
E1
330
1F
100
AcDbEntity
  8
0
  6
Continuous
 62
     7
370
    25
100
AcDbLine
 10
572.416884142
 20
485.9917760999
 30
0.0
 11
572.416884142
 21
487.9626268602
 31
0.0
  0
LINE
  5
E2
330
1F
100
AcDbEntity
  8
0
  6
Continuous
 62
     7
370
    25
100
AcDbLine
 10
566.002884142
 20
492.5917760999
 30
0.0
 11
566.002884142
 21
485.9917760999
 31
0.0
  0
LINE
  5
E3
330
1F
100
AcDbEntity
  8
0
  6
Continuous
 62
     7
370
    25
100
AcDbLine
 10
569.1359780326
 20
492.5917760999
 30
0.0
 11
566.002884142
 21
492.5917760999
 31
0.0
  0
LINE
  5
E4
330
1F
100
AcDbEntity
  8
0
  6
Continuous
 62
     7
370
    25
100
AcDbLine
 10
569.1359780326
 20
487.9626268602
 30
0.0
 11
569.1359780326
 21
492.5917760999
 31
0.0
  0
LINE
  5
E5
330
1F
100
AcDbEntity
  8
0
  6
Continuous
 62
     7
370
    25
100
AcDbLine
 10
559.0738543236
 20
485.9917760999
 30
0.0
 11
565.602884142
 21
485.9917760999
 31
0.0
  0
LINE
  5
E6
330
1F
100
AcDbEntity
  8
0
  6
Continuous
 62
     7
370
    25
100
AcDbLine
 10
559.0738543236
 20
490.1792702298
 30
0.0
 11
559.0738543236
 21
485.9917760999
 31
0.0
  0
LINE
  5
E7
330
1F
100
AcDbEntity
  8
0
  6
Continuous
 62
     7
370
    25
100
AcDbLine
 10
563.6738543236
 20
490.1792702298
 30
0.0
 11
559.0738543236
 21
490.1792702298
 31
0.0
  0
LINE
  5
E8
330
1F
100
AcDbEntity
  8
0
  6
Continuous
 62
     7
370
    25
100
AcDbLine
 10
563.6738543236
 20
490.5917760999
 30
0.0
 11
563.6738543236
 21
490.1792702298
 31
0.0
  0
LINE
  5
E9
330
1F
100
AcDbEntity
  8
0
  6
Continuous
 62
     7
370
    25
100
AcDbLine
 10
559.0738543236
 20
490.5917760999
 30
0.0
 11
563.6738543236
 21
490.5917760999
 31
0.0
  0
LINE
  5
EA
330
1F
100
AcDbEntity
  8
0
  6
Continuous
 62
     7
370
    25
100
AcDbLine
 10
559.0738543236
 20
492.5917760999
 30
0.0
 11
559.0738543236
 21
490.5917760999
 31
0.0
  0
LINE
  5
EB
330
1F
100
AcDbEntity
  8
0
  6
Continuous
 62
     7
370
    25
100
AcDbLine
 10
565.602884142
 20
492.5917760999
 30
0.0
 11
559.0738543236
 21
492.5917760999
 31
0.0
  0
LINE
  5
EC
330
1F
100
AcDbEntity
  8
0
  6
Continuous
 62
     7
370
    25
100
AcDbLine
 10
565.602884142
 20
485.9917760999
 30
0.0
 11
565.602884142
 21
492.5917760999
 31
0.0
  0
LINE
  5
ED
330
1F
100
AcDbEntity
  8
0
  6
Continuous
 62
     7
370
    25
100
AcDbLine
 10
561.0821912849
 20
488.3717760999
 30
0.0
 11
563.6639682248
 21
488.3717760999
 31
0.0
  0
LINE
  5
EE
330
1F
100
AcDbEntity
  8
0
  6
Continuous
 62
     7
370
    25
100
AcDbLine
 10
561.0821912849
 20
487.9626268602
 30
0.0
 11
561.0821912849
 21
488.3717760999
 31
0.0
  0
LINE
  5
EF
330
1F
100
AcDbEntity
  8
0
  6
Continuous
 62
     7
370
    25
100
AcDbLine
 10
563.6639682248
 20
487.9626268602
 30
0.0
 11
561.0821912849
 21
487.9626268602
 31
0.0
  0
LINE
  5
F0
330
1F
100
AcDbEntity
  8
0
  6
Continuous
 62
     7
370
    25
100
AcDbLine
 10
563.6639682248
 20
488.3717760999
 30
0.0
 11
563.6639682248
 21
487.9626268602
 31
0.0
  0
LINE
  5
F1
330
1F
100
AcDbEntity
  8
0
  6
Continuous
 62
     7
370
    25
100
AcDbLine
 10
554.0022703536
 20
485.9917760999
 30
0.0
 11
557.0454382937
 21
485.9917760999
 31
0.0
  0
LINE
  5
F2
330
1F
100
AcDbEntity
  8
0
  6
Continuous
 62
     7
370
    25
100
AcDbLine
 10
552.3738543236
 20
490.5917760999
 30
0.0
 11
554.0022703536
 21
490.5917760999
 31
0.0
  0
LINE
  5
F3
330
1F
100
AcDbEntity
  8
0
  6
Continuous
 62
     7
370
    25
100
AcDbLine
 10
552.3738543236
 20
492.5917760999
 30
0.0
 11
552.3738543236
 21
490.5917760999
 31
0.0
  0
LINE
  5
F4
330
1F
100
AcDbEntity
  8
0
  6
Continuous
 62
     7
370
    25
100
AcDbLine
 10
558.6738543236
 20
492.5917760999
 30
0.0
 11
552.3738543236
 21
492.5917760999
 31
0.0
  0
LINE
  5
F5
330
1F
100
AcDbEntity
  8
0
  6
Continuous
 62
     7
370
    25
100
AcDbLine
 10
558.6738543236
 20
490.5917760999
 30
0.0
 11
558.6738543236
 21
492.5917760999
 31
0.0
  0
LINE
  5
F6
330
1F
100
AcDbEntity
  8
0
  6
Continuous
 62
     7
370
    25
100
AcDbLine
 10
557.0454382937
 20
490.5917760999
 30
0.0
 11
558.6738543236
 21
490.5917760999
 31
0.0
  0
LINE
  5
F7
330
1F
100
AcDbEntity
  8
0
  6
Continuous
 62
     7
370
    25
100
AcDbLine
 10
557.0454382937
 20
485.9917760999
 30
0.0
 11
557.0454382937
 21
490.5917760999
 31
0.0
  0
LINE
  5
F8
330
1F
100
AcDbEntity
  8
0
  6
Continuous
 62
     7
370
    25
100
AcDbLine
 10
554.0022703536
 20
490.5917760999
 30
0.0
 11
554.0022703536
 21
485.9917760999
 31
0.0
  0
LINE
  5
F9
330
1F
100
AcDbEntity
  8
0
  6
Continuous
 62
     7
370
    25
100
AcDbLine
 10
572.816884142
 20
485.9917760999
 30
0.0
 11
579.0204544311
 21
485.9917760999
 31
0.0
  0
LINE
  5
FA
330
1F
100
AcDbEntity
  8
0
  6
Continuous
 62
     7
370
    25
100
AcDbLine
 10
572.816884142
 20
490.1792702298
 30
0.0
 11
572.816884142
 21
485.9917760999
 31
0.0
  0
LINE
  5
FB
330
1F
100
AcDbEntity
  8
0
  6
Continuous
 62
     7
370
    25
100
AcDbLine
 10
577.416884142
 20
490.1792702298
 30
0.0
 11
572.816884142
 21
490.1792702298
 31
0.0
  0
LINE
  5
FC
330
1F
100
AcDbEntity
  8
0
  6
Continuous
 62
     7
370
    25
100
AcDbLine
 10
577.416884142
 20
490.5917760999
 30
0.0
 11
577.416884142
 21
490.1792702298
 31
0.0
  0
LINE
  5
FD
330
1F
100
AcDbEntity
  8
0
  6
Continuous
 62
     7
370
    25
100
AcDbLine
 10
572.816884142
 20
490.5917760999
 30
0.0
 11
577.416884142
 21
490.5917760999
 31
0.0
  0
LINE
  5
FE
330
1F
100
AcDbEntity
  8
0
  6
Continuous
 62
     7
370
    25
100
AcDbLine
 10
572.816884142
 20
492.5917760999
 30
0.0
 11
572.816884142
 21
490.5917760999
 31
0.0
  0
LINE
  5
FF
330
1F
100
AcDbEntity
  8
0
  6
Continuous
 62
     7
370
    25
100
AcDbLine
 10
579.0204544311
 20
492.5917760999
 30
0.0
 11
572.816884142
 21
492.5917760999
 31
0.0
  0
ARC
  5
100
330
1F
100
AcDbEntity
  8
0
  6
Continuous
 62
     7
370
    25
100
AcDbCircle
 10
579.0204544311
 20
492.2917760999
 30
0.0
 40
0.3000000000000114
100
AcDbArc
 50
0.0
 51
90.0
  0
LINE
  5
101
330
1F
100
AcDbEntity
  8
0
  6
Continuous
 62
     7
370
    25
100
AcDbLine
 10
579.3204544311
 20
486.2917760999
 30
0.0
 11
579.3204544311
 21
492.2917760999
 31
0.0
  0
ARC
  5
102
330
1F
100
AcDbEntity
  8
0
  6
Continuous
 62
     7
370
    25
100
AcDbCircle
 10
579.0204544311
 20
486.2917760999
 30
0.0
 40
0.3000000000000114
100
AcDbArc
 50
270.0
 51
0.0
  0
LINE
  5
103
330
1F
100
AcDbEntity
  8
0
  6
Continuous
 62
     7
370
    25
100
AcDbLine
 10
574.7479442837
 20
488.3717760999
 30
0.0
 11
577.3297212236
 21
488.3717760999
 31
0.0
  0
LINE
  5
104
330
1F
100
AcDbEntity
  8
0
  6
Continuous
 62
     7
370
    25
100
AcDbLine
 10
574.7479442837
 20
487.9626268602
 30
0.0
 11
574.7479442837
 21
488.3717760999
 31
0.0
  0
LINE
  5
105
330
1F
100
AcDbEntity
  8
0
  6
Continuous
 62
     7
370
    25
100
AcDbLine
 10
577.3297212236
 20
487.9626268602
 30
0.0
 11
574.7479442837
 21
487.9626268602
 31
0.0
  0
LINE
  5
106
330
1F
100
AcDbEntity
  8
0
  6
Continuous
 62
     7
370
    25
100
AcDbLine
 10
577.3297212236
 20
488.3717760999
 30
0.0
 11
577.3297212236
 21
487.9626268602
 31
0.0
  0
LINE
  5
107
330
1F
100
AcDbEntity
  8
0
  6
Continuous
 62
     7
370
    25
100
AcDbLine
 10
545.6204544311
 20
485.9917760999
 30
0.0
 11
551.9738543236
 21
485.9917760999
 31
0.0
  0
ARC
  5
108
330
1F
100
AcDbEntity
  8
0
  6
Continuous
 62
     7
370
    25
100
AcDbCircle
 10
545.6204544311
 20
486.2917760999
 30
0.0
 40
0.3000000000000114
100
AcDbArc
 50
180.0
 51
270.0
  0
LINE
  5
109
330
1F
100
AcDbEntity
  8
0
  6
Continuous
 62
     7
370
    25
100
AcDbLine
 10
545.3204544311
 20
487.9626268602
 30
0.0
 11
545.3204544311
 21
486.2917760999
 31
0.0
  0
LINE
  5
10A
330
1F
100
AcDbEntity
  8
0
  6
Continuous
 62
     7
370
    25
100
AcDbLine
 10
549.9204544311
 20
487.9626268602
 30
0.0
 11
545.3204544311
 21
487.9626268602
 31
0.0
  0
LINE
  5
10B
330
1F
100
AcDbEntity
  8
0
  6
Continuous
 62
     7
370
    25
100
AcDbLine
 10
549.9204544311
 20
488.3717760999
 30
0.0
 11
549.9204544311
 21
487.9626268602
 31
0.0
  0
LINE
  5
10C
330
1F
100
AcDbEntity
  8
0
  6
Continuous
 62
     7
370
    25
100
AcDbLine
 10
545.3204544311
 20
488.3717760999
 30
0.0
 11
549.9204544311
 21
488.3717760999
 31
0.0
  0
LINE
  5
10D
330
1F
100
AcDbEntity
  8
0
  6
Continuous
 62
     7
370
    25
100
AcDbLine
 10
547.3738543236
 20
490.1792702298
 30
0.0
 11
547.3738543236
 21
490.5917760999
 31
0.0
  0
LINE
  5
10E
330
1F
100
AcDbEntity
  8
0
  6
Continuous
 62
     7
370
    25
100
AcDbLine
 10
551.9738543236
 20
490.1792702298
 30
0.0
 11
547.3738543236
 21
490.1792702298
 31
0.0
  0
LINE
  5
10F
330
1F
100
AcDbEntity
  8
0
  6
Continuous
 62
     7
370
    25
100
AcDbLine
 10
551.9738543236
 20
485.9917760999
 30
0.0
 11
551.9738543236
 21
490.1792702298
 31
0.0
  0
LINE
  5
110
330
1F
100
AcDbEntity
  8
0
  6
Continuous
 62
     7
370
    25
100
AcDbLine
 10
547.3738543236
 20
490.5917760999
 30
0.0
 11
551.9738543236
 21
490.5917760999
 31
0.0
  0
LINE
  5
111
330
1F
100
AcDbEntity
  8
0
  6
Continuous
 62
     7
370
    25
100
AcDbLine
 10
551.9738543236
 20
490.5917760999
 30
0.0
 11
551.9738543236
 21
492.5917760999
 31
0.0
  0
LINE
  5
112
330
1F
100
AcDbEntity
  8
0
  6
Continuous
 62
     7
370
    25
100
AcDbLine
 10
551.9738543236
 20
492.5917760999
 30
0.0
 11
545.6204544311
 21
492.5917760999
 31
0.0
  0
LINE
  5
113
330
1F
100
AcDbEntity
  8
0
  6
Continuous
 62
     7
370
    25
100
AcDbLine
 10
545.3204544311
 20
492.2917760999
 30
0.0
 11
545.3204544311
 21
488.3717760999
 31
0.0
  0
ARC
  5
114
330
1F
100
AcDbEntity
  8
0
  6
Continuous
 62
     7
370
    25
100
AcDbCircle
 10
545.6204544311
 20
492.2917760999
 30
0.0
 40
0.3000000000000114
100
AcDbArc
 50
90.0
 51
180.0
  0
SPLINE
  5
115
330
1F
100
AcDbEntity
  8
0
  6
Continuous
 62
     7
370
    25
100
AcDbSpline
210
0.0
220
0.0
230
1.0
 70
     8
 71
     3
 72
    11
 73
     7
 74
     0
 42
0.00000001
 43
0.00000001
 40
0.0
 40
0.0
 40
0.0
 40
0.0
 40
0.2756918024460785
 40
0.5515451782923589
 40
0.7721424434266597
 40
1.0
 40
1.0
 40
1.0
 40
1.0
 10
595.93120630292
 20
326.405738227372
 30
0.0
 10
596.0070055530184
 20
316.8259562349865
 30
0.0
 10
596.1586484765256
 20
297.6607778723633
 30
0.0
 10
596.1531457636582
 20
270.8292659812358
 30
0.0
 10
596.02357615045
 20
245.6603637729922
 30
0.0
 10
595.8243797052662
 20
230.0781714621057
 30
0.0
 10
595.7231690301201
 20
222.160940797722
 30
0.0
  0
ARC
  5
116
330
1F
100
AcDbEntity
  8
0
  6
Continuous
 62
     7
370
    25
100
AcDbCircle
 10
598.455489577
 20
718.0848845559
 30
0.0
 40
391.6872804606506
100
AcDbArc
 50
269.6307468067
 51
270.3692531963
  0
LWPOLYLINE
  5
117
330
1F
100
AcDbEntity
  8
0
  6
Continuous
 62
     7
370
    25
100
AcDbPolyline
 90
        9
 70
   128
 43
0.0
 10
595.7231690301
 20
222.1609407977
 10
596.5311148641
 20
222.161203652
 10
597.3252365395
 20
222.161394685
 10
598.091946408
 20
222.1615106281
 10
598.8181258456
 20
222.1615494974
 10
599.4913497151
 20
222.161510628
 10
600.1000989644
 20
222.1613946849
 10
600.6339577204
 20
222.1612036518
 10
601.0837915077
 20
222.1609407973
  0
SPLINE
  5
118
330
1F
100
AcDbEntity
  8
0
  6
Continuous
 62
     7
370
    25
100
AcDbSpline
210
0.0
220
0.0
230
1.0
 70
     8
 71
     3
 72
    14
 73
    10
 74
     0
 42
0.00000001
 43
0.00000001
 40
0.0
 40
0.0
 40
0.0
 40
0.0
 40
0.1170490954626084
 40
0.2413903210342196
 40
0.3728925221961787
 40
0.5117668134042108
 40
0.6656619199157204
 40
0.8284507139786131
 40
1.0
 40
1.0
 40
1.0
 40
1.0
 10
595.7231690301201
 20
222.160940797722
 30
0.0
 10
595.7253288203594
 20
217.5035852632165
 30
0.0
 10
595.7297829552439
 20
207.8987220799388
 30
0.0
 10
595.7424871492534
 20
193.0614213474207
 30
0.0
 10
595.760117515034
 20
177.3557058736563
 30
0.0
 10
595.783659023007
 20
160.4740548789228
 30
0.0
 10
595.8133259937897
 20
142.3475256321351
 30
0.0
 10
595.8490527134995
 20
122.9208746065446
 30
0.0
 10
595.8758767163771
 20
109.6176680047563
 30
0.0
 10
595.88964014572
 20
102.791776099902
 30
0.0
  0
LWPOLYLINE
  5
119
330
1F
100
AcDbEntity
  8
0
  6
Continuous
 62
     7
370
    25
100
AcDbPolyline
 90
        9
 70
   128
 43
0.0
 10
595.8896401457
 20
102.7917760999
 10
596.6599497698
 20
102.7931730506
 10
597.4170797323
 20
102.7941883041
 10
598.1480751507
 20
102.7948044892
 10
598.8404283178
 20
102.7950110624
 10
599.4822927151
 20
102.7948044892
 10
600.062685713
 20
102.7941883041
 10
600.5716764892
 20
102.7931730506
 10
601.0005559499
 20
102.7917760999
  0
SPLINE
  5
11A
330
1F
100
AcDbEntity
  8
0
  6
Continuous
 62
     7
370
    25
100
AcDbSpline
210
0.0
220
0.0
230
1.0
 70
     8
 71
     3
 72
     9
 73
     5
 74
     0
 42
0.00000001
 43
0.00000001
 40
0.0
 40
0.0
 40
0.0
 40
0.0
 40
0.5767207329406987
 40
1.0
 40
1.0
 40
1.0
 40
1.0
 10
595.8087554917199
 20
466.833865825002
 30
0.0
 10
596.046016380236
 20
466.8273891842714
 30
0.0
 10
596.457412875913
 20
466.8161590682714
 30
0.0
 10
596.861552363728
 20
466.7398369607388
 30
0.0
 10
597.0326162299201
 20
466.707531395002
 30
0.0
  0
LWPOLYLINE
  5
11B
330
1F
100
AcDbEntity
  8
0
  6
Continuous
 62
     7
370
    25
100
AcDbPolyline
 90
        9
 70
   128
 43
0.0
 10
595.8087554917
 20
466.833865825
 10
595.8087554986
 20
466.979209951
 10
595.8087555191
 20
467.1517030681
 10
595.8087555529
 20
467.3483937712
 10
595.8087555995
 20
467.5659166278
 10
595.8087556579
 20
467.8005497616
 10
595.8087557273
 20
468.0482785345
 10
595.8087558064
 20
468.3048642387
 10
595.808756296
 20
468.5659166215
  0
SPLINE
  5
11C
330
1F
100
AcDbEntity
  8
0
  6
Continuous
 62
     7
370
    25
100
AcDbSpline
210
0.0
220
0.0
230
1.0
 70
     8
 71
     3
 72
     9
 73
     5
 74
     0
 42
0.00000001
 43
0.00000001
 40
0.0
 40
0.0
 40
0.0
 40
0.0
 40
0.5216832804019537
 40
1.0
 40
1.0
 40
1.0
 40
1.0
 10
599.87427434622
 20
467.291397462602
 30
0.0
 10
599.219249942851
 20
467.6829074708104
 30
0.0
 10
597.9636520964635
 20
468.4333819884272
 30
0.0
 10
596.5059835387884
 20
468.5230343824763
 30
0.0
 10
595.8087562960202
 20
468.565916621502
 30
0.0
  0
SPLINE
  5
11D
330
1F
100
AcDbEntity
  8
0
  6
Continuous
 62
     7
370
    25
100
AcDbSpline
210
0.0
220
0.0
230
1.0
 70
     8
 71
     3
 72
     9
 73
     5
 74
     0
 42
0.00000001
 43
0.00000001
 40
0.0
 40
0.0
 40
0.0
 40
0.0
 40
0.544086648181172
 40
1.0
 40
1.0
 40
1.0
 40
1.0
 10
99.64413470612004
 20
466.707534887202
 30
0.0
 10
99.86441114700834
 20
466.7475333801066
 30
0.0
 10
100.2692665898401
 20
466.8210483120356
 30
0.0
 10
100.6804971794435
 20
466.8298520710302
 30
0.0
 10
100.86798269592
 20
466.833865822302
 30
0.0
  0
SPLINE
  5
11E
330
1F
100
AcDbEntity
  8
0
  6
Continuous
 62
     7
370
    25
100
AcDbSpline
210
0.0
220
0.0
230
1.0
 70
     8
 71
     3
 72
     9
 73
     5
 74
     0
 42
0.00000001
 43
0.00000001
 40
0.0
 40
0.0
 40
0.0
 40
0.0
 40
0.5893628029428943
 40
1.0
 40
1.0
 40
1.0
 40
1.0
 10
100.86798216962
 20
468.565916621502
 30
0.0
 10
100.0058611961538
 20
468.4988406894699
 30
0.0
 10
98.54305938857225
 20
468.3850297538337
 30
0.0
 10
97.30915877948331
 20
467.6097594722097
 30
0.0
 10
96.80247329192
 20
467.2914046568019
 30
0.0
  0
LWPOLYLINE
  5
11F
330
1F
100
AcDbEntity
  8
0
  6
Continuous
 62
     7
370
    25
100
AcDbPolyline
 90
        9
 70
   128
 43
0.0
 10
100.8679826959
 20
466.8338658223
 10
100.8679826904
 20
466.9792099486
 10
100.8679826753
 20
467.1517030659
 10
100.8679826508
 20
467.3483937693
 10
100.8679826173
 20
467.5659166263
 10
100.8679825755
 20
467.8005497604
 10
100.8679825261
 20
468.0482785338
 10
100.8679824699
 20
468.3048642383
 10
100.8679821696
 20
468.5659166215
  0
LINE
  5
120
330
1F
100
AcDbEntity
  8
0
  6
Continuous
 62
     7
370
    25
100
AcDbLine
 10
100.8439732551
 20
102.7917760999
 30
0.0
 11
100.9254804787
 21
222.9343802867
 31
0.0
  0
LWPOLYLINE
  5
121
330
1F
100
AcDbEntity
  8
0
  6
Continuous
 62
     7
370
    25
100
AcDbPolyline
 90
        9
 70
   128
 43
0.0
 10
100.8439732551
 20
102.79177612
 10
100.0608046807
 20
102.7918265899
 10
99.291036337
 20
102.7918632701
 10
98.5478391741
 20
102.7918855328
 10
97.8439295016
 20
102.7918929973
 10
97.1913514095
 20
102.7918855357
 10
96.60127069
 20
102.7918632757
 10
96.0837837881
 20
102.7918265983
 10
95.6477450481
 20
102.7917761309
  0
SPLINE
  5
122
330
1F
100
AcDbEntity
  8
0
  6
Continuous
 62
     7
370
    25
100
AcDbSpline
210
0.0
220
0.0
230
1.0
 70
     8
 71
     3
 72
    11
 73
     7
 74
     0
 42
0.00000001
 43
0.00000001
 40
0.0
 40
0.0
 40
0.0
 40
0.0
 40
0.2499999999999833
 40
0.4999999999999945
 40
0.7500000000000027
 40
1.0
 40
1.0
 40
1.0
 40
1.0
 10
100.9254804788205
 20
222.9343800347279
 30
0.0
 10
100.38938738301
 20
222.9346961286072
 30
0.0
 10
99.31720119138876
 20
222.935328316366
 30
0.0
 10
97.82499329316657
 20
222.9355798939691
 30
0.0
 10
96.51819820836471
 20
222.9353283163064
 30
0.0
 10
95.91193465569691
 20
222.9346961285081
 30
0.0
 10
95.60880287936303
 20
222.9343800346089
 30
0.0
  0
ARC
  5
123
330
1F
100
AcDbEntity
  8
0
  6
Continuous
 62
     7
370
    25
100
AcDbCircle
 10
98.2171184219
 20
732.4795984434
 30
0.0
 40
406.5914188948726
100
AcDbArc
 50
269.6460286319
 51
270.3539713681
  0
SPLINE
  5
124
330
1F
100
AcDbEntity
  8
0
  6
Continuous
 62
     7
370
    25
100
AcDbSpline
210
0.0
220
0.0
230
1.0
 70
     8
 71
     3
 72
     9
 73
     5
 74
     0
 42
0.00000001
 43
0.00000001
 40
0.0
 40
0.0
 40
0.0
 40
0.0
 40
0.5082133651360206
 40
1.0
 40
1.0
 40
1.0
 40
1.0
 10
100.92548047872
 20
222.9343802866823
 30
0.0
 10
100.7380901731953
 20
240.3762479723561
 30
0.0
 10
100.369366486689
 20
274.6962184457923
 30
0.0
 10
100.6104491195039
 20
309.0172930029651
 30
0.0
 10
100.72901033622
 20
325.8959387643528
 30
0.0
  0
SPLINE
  5
125
330
1F
100
AcDbEntity
  8
0
  6
Continuous
 62
     7
370
    25
100
AcDbSpline
210
0.0
220
0.0
230
1.0
 70
     8
 71
     3
 72
    15
 73
    11
 74
     0
 42
0.00000001
 43
0.00000001
 40
0.0
 40
0.0
 40
0.0
 40
0.0
 40
0.1250071840825399
 40
0.2500107865763975
 40
0.3750115068520254
 40
0.5000099315752029
 40
0.6250066012271058
 40
0.7500020101175675
 40
0.8749966083393989
 40
1.0
 40
1.0
 40
1.0
 40
1.0
 10
110.33836923992
 20
93.296149692402
 30
0.0
 10
109.7169076269836
 20
93.33158731372245
 30
0.0
 10
108.4740022066462
 20
93.4024615410379
 30
0.0
 10
106.6814032238692
 20
93.96728698428097
 30
0.0
 10
105.0292615732813
 20
94.84495981450733
 30
0.0
 10
103.5816830115849
 20
96.03496518853407
 30
0.0
 10
102.3918860334961
 20
97.48268199682286
 30
0.0
 10
101.5144800201066
 20
99.13487357426936
 30
0.0
 10
100.9499281337501
 20
100.9274683198163
 30
0.0
 10
100.8792923761784
 20
102.1703256011037
 30
0.0
 10
100.84397325512
 20
102.791776099902
 30
0.0
  0
SPLINE
  5
126
330
1F
100
AcDbEntity
  8
0
  6
Continuous
 62
     7
370
    25
100
AcDbSpline
210
0.0
220
0.0
230
1.0
 70
     8
 71
     3
 72
    11
 73
     7
 74
     0
 42
0.00000001
 43
0.00000001
 40
0.0
 40
0.0
 40
0.0
 40
0.0
 40
0.2500000000004726
 40
0.5000000000006432
 40
0.7500000000004877
 40
1.0
 40
1.0
 40
1.0
 40
1.0
 10
110.338369333011
 20
93.29614969244399
 30
0.0
 10
110.3381762750094
 20
92.77252964167567
 30
0.0
 10
110.337790159006
 20
91.7252895401397
 30
0.0
 10
110.3376365129819
 20
90.26780033513742
 30
0.0
 10
110.3377901805721
 20
88.99141005316926
 30
0.0
 10
110.338176310953
 20
88.39925225855228
 30
0.0
 10
110.3383693761435
 20
88.10317336124399
 30
0.0
  0
LINE
  5
127
330
1F
100
AcDbEntity
  8
0
  6
Continuous
 62
     7
370
    25
100
AcDbLine
 10
233.9365381177
 20
93.2437168401
 30
0.0
 11
110.3383692399
 21
93.2961496924
 31
0.0
  0
LWPOLYLINE
  5
128
330
1F
100
AcDbEntity
  8
0
  6
Continuous
 62
     7
370
    25
100
AcDbPolyline
 90
        9
 70
   128
 43
0.0
 10
233.9365375259
 20
93.2437167955
 10
233.9361087967
 20
92.4726803866
 10
233.9357972117
 20
91.7148365734
 10
233.9356081024
 20
90.9831522901
 10
233.9355447043
 20
90.2901468739
 10
233.9356081024
 20
89.6476778548
 10
233.9357972117
 20
89.0667380699
 10
233.9361087967
 20
88.5572675728
 10
233.936537526
 20
88.1279835562
  0
LINE
  5
129
330
1F
100
AcDbEntity
  8
0
  6
Continuous
 62
     7
370
    25
100
AcDbLine
 10
595.808756296
 20
468.5659166215
 30
0.0
 11
100.8679821696
 21
468.5659166215
 31
0.0
  0
ARC
  5
12A
330
1F
100
AcDbEntity
  8
0
  6
Continuous
 62
     7
370
    25
100
AcDbCircle
 10
348.3383692328
 20
501.2917760999
 30
0.0
 40
17.5
100
AcDbArc
 50
180.0
 51
0.0
  0
ARC
  5
12B
330
1F
100
AcDbEntity
  8
0
  6
Continuous
 62
     7
370
    25
100
AcDbCircle
 10
348.3383692328
 20
501.2917760999
 30
0.0
 40
17.5
100
AcDbArc
 50
0.0
 51
180.0
  0
LINE
  5
12C
330
1F
100
AcDbEntity
  8
0
  6
Continuous
 62
     7
370
    25
100
AcDbLine
 10
100.8679826959
 20
466.8338658223
 30
0.0
 11
264.8073125837
 21
466.833865657
 31
0.0
  0
LINE
  5
12D
330
1F
100
AcDbEntity
  8
0
  6
Continuous
 62
     7
370
    25
100
AcDbLine
 10
431.8694258819
 20
466.8338656563
 30
0.0
 11
595.8087554917
 21
466.833865825
 31
0.0
  0
SPLINE
  5
12E
330
1F
100
AcDbEntity
  8
0
  6
Continuous
 62
     7
370
    25
100
AcDbSpline
210
0.0
220
0.0
230
1.0
 70
     8
 71
     3
 72
    16
 73
    12
 74
     0
 42
0.00000001
 43
0.00000001
 40
0.0
 40
0.0
 40
0.0
 40
0.0
 40
0.1229580314292112
 40
0.2385271874487165
 40
0.3487965213708265
 40
0.453015493869841
 40
0.5564103414503242
 40
0.6607959800088293
 40
0.7681132146873318
 40
0.8805625611509446
 40
1.0
 40
1.0
 40
1.0
 40
1.0
 10
264.8073125837
 20
466.833865657002
 30
0.0
 10
271.6545262979844
 20
466.8320233953428
 30
0.0
 10
284.9374864279116
 20
466.8284495784313
 30
0.0
 10
304.3610318261374
 20
466.8114927396059
 30
0.0
 10
322.7410547830514
 20
466.7982847814827
 30
0.0
 10
340.4431386799516
 20
466.7911101120402
 30
0.0
 10
357.8175821718859
 20
466.7914545892789
 30
0.0
 10
375.3645512426697
 20
466.7991856478758
 30
0.0
 10
393.4157259506784
 20
466.812438263615
 30
0.0
 10
412.3050913422841
 20
466.8287519987979
 30
0.0
 10
425.2182647905631
 20
466.8321271990211
 30
0.0
 10
431.86942588194
 20
466.833865656302
 30
0.0
  0
SPLINE
  5
12F
330
1F
100
AcDbEntity
  8
0
  6
Continuous
 62
     7
370
    25
100
AcDbSpline
210
0.0
220
0.0
230
1.0
 70
     8
 71
     3
 72
    19
 73
    15
 74
     0
 42
0.00000001
 43
0.00000001
 40
0.0
 40
0.0
 40
0.0
 40
0.0
 40
0.0925526706984243
 40
0.1806566262301914
 40
0.2643300996219942
 40
0.3457711141832745
 40
0.423492154068788
 40
0.4991173490904728
 40
0.574884242544234
 40
0.6529722105980281
 40
0.7350254833067054
 40
0.818946905331779
 40
0.9072657577994468
 40
1.0
 40
1.0
 40
1.0
 40
1.0
 10
461.322065019319
 20
93.13652209600201
 30
0.0
 10
454.3086187427656
 20
92.94919498786899
 30
0.0
 10
440.6188404467145
 20
92.58354499526058
 30
0.0
 10
420.5845296046689
 20
92.23374221899722
 30
0.0
 10
401.3912570016073
 20
91.99683785174742
 30
0.0
 10
382.9840312431306
 20
91.85583964376451
 30
0.0
 10
365.1863521364683
 20
91.78299596972944
 30
0.0
 10
347.8185196317544
 20
91.76411951304294
 30
0.0
 10
330.422886818115
 20
91.7933046893972
 30
0.0
 10
312.5402926957934
 20
91.8782033973696
 30
0.0
 10
294.0401588825956
 20
92.03428221536674
 30
0.0
 10
274.7656216040463
 20
92.2905577414748
 30
0.0
 10
254.6828507967383
 20
92.66333006366675
 30
0.0
 10
240.96350118361
 20
93.04713460048767
 30
0.0
 10
233.9365376722196
 20
93.243716840302
 30
0.0
  0
LWPOLYLINE
  5
130
330
1F
100
AcDbEntity
  8
0
  6
Continuous
 62
     7
370
    25
100
AcDbPolyline
 90
        9
 70
   128
 43
0.0
 10
461.3220650191
 20
93.1365220961
 10
461.3220928408
 20
92.3897199813
 10
461.3221130607
 20
91.6556958575
 10
461.3221253327
 20
90.947009081
 10
461.3221294468
 20
90.2757854792
 10
461.3221253327
 20
89.6535098741
 10
461.3221130607
 20
89.0908295738
 10
461.3220928408
 20
88.5973721943
 10
461.3220650191
 20
88.1815809283
  0
SPLINE
  5
131
330
1F
100
AcDbEntity
  8
0
  6
Continuous
 62
     7
370
    25
100
AcDbSpline
210
0.0
220
0.0
230
1.0
 70
     8
 71
     3
 72
    12
 73
     8
 74
     0
 42
0.00000001
 43
0.00000001
 40
0.0
 40
0.0
 40
0.0
 40
0.0
 40
0.1865287075279954
 40
0.3731811886011285
 40
0.5599483020133331
 40
0.7799008319190669
 40
1.0
 40
1.0
 40
1.0
 40
1.0
 10
595.8896401457201
 20
102.791776099902
 30
0.0
 10
595.8119604016923
 20
101.8582063526764
 30
0.0
 10
595.656549368234
 20
99.99044737590135
 30
0.0
 10
594.4081330727063
 20
97.42074156521058
 30
0.0
 10
592.4178506703913
 20
95.20064791283839
 30
0.0
 10
589.6456150343985
 20
93.55055573670646
 30
0.0
 10
587.4410293776178
 20
93.32495301132585
 30
0.0
 10
586.33836923282
 20
93.21211405990198
 30
0.0
  0
LWPOLYLINE
  5
132
330
1F
100
AcDbEntity
  8
0
  6
Continuous
 62
     7
370
    25
100
AcDbPolyline
 90
        9
 70
   128
 43
0.0
 10
586.3383692328
 20
93.2121140599
 10
586.3395213996
 20
92.4482228001
 10
586.3403587531
 20
91.6974015544
 10
586.3408669656
 20
90.9724972053
 10
586.3410373415
 20
90.285913186
 10
586.3408669656
 20
89.6493972516
 10
586.3403587531
 20
89.0738404703
 10
586.3395213997
 20
88.5690908726
 10
586.3383692328
 20
88.1437849464
  0
SPLINE
  5
133
330
1F
100
AcDbEntity
  8
0
  6
Continuous
 62
     7
370
    25
100
AcDbSpline
210
0.0
220
0.0
230
1.0
 70
     8
 71
     3
 72
    14
 73
    10
 74
     0
 42
0.00000001
 43
0.00000001
 40
0.0
 40
0.0
 40
0.0
 40
0.0
 40
0.1160474361492678
 40
0.2399681040945734
 40
0.3717573386721831
 40
0.5113431445519696
 40
0.6658502630985716
 40
0.8287399826013336
 40
1.0
 40
1.0
 40
1.0
 40
1.0
 10
586.33836923282
 20
93.21211405990198
 30
0.0
 10
581.5024333173683
 20
93.20441906549509
 30
0.0
 10
571.5024676855455
 20
93.18850701021746
 30
0.0
 10
556.0105631544427
 20
93.17078670204079
 30
0.0
 10
539.5377611498802
 20
93.15674699923568
 30
0.0
 10
521.7903538686302
 20
93.14673361612068
 30
0.0
 10
502.7469219280425
 20
93.14048927826626
 30
0.0
 10
482.3835578955209
 20
93.13748595286653
 30
0.0
 10
468.4588319806444
 20
93.13684870256631
 30
0.0
 10
461.3220650193201
 20
93.13652209600198
 30
0.0
  0
LWPOLYLINE
  5
134
330
1F
100
AcDbEntity
  8
0
  6
Continuous
 62
     7
370
    25
100
AcDbPolyline
 90
        9
 70
   128
 43
0.0
 10
596.9875157744
 20
462.4743496781
 10
597.5096241375
 20
462.4743617706
 10
598.022798952
 20
462.4743736396
 10
598.5182595304
 20
462.4743850819
 10
598.9875282848
 20
462.4743959017
 10
599.4225757833
 20
462.4744059139
 10
599.8159581372
 20
462.4744149473
 10
600.1609443702
 20
462.4744228471
 10
600.4516315886
 20
462.4744294783
  0
SPLINE
  5
135
330
1F
100
AcDbEntity
  8
0
  6
Continuous
 62
     7
370
    25
100
AcDbSpline
210
0.0
220
0.0
230
1.0
 70
     8
 71
     3
 72
    19
 73
    15
 74
     0
 42
0.00000001
 43
0.00000001
 40
0.0
 40
0.0
 40
0.0
 40
0.0
 40
0.051270843972465
 40
0.1039838222106774
 40
0.1608137425256111
 40
0.224197096467781
 40
0.2943765341532275
 40
0.3714735676007183
 40
0.4551943809263557
 40
0.5548233732471053
 40
0.6604972178614215
 40
0.7698171026470448
 40
0.8826796836760691
 40
1.0
 40
1.0
 40
1.0
 40
1.0
 10
596.98751577412
 20
462.474360795402
 30
0.0
 10
596.9858818058627
 20
460.1488314994785
 30
0.0
 10
596.9825679094727
 20
455.4323609654087
 30
0.0
 10
596.9558622886665
 20
448.1382545506229
 30
0.0
 10
596.911105902969
 20
440.2948372100695
 30
0.0
 10
596.8453946635555
 20
431.6593018666769
 30
0.0
 10
596.7568037659248
 20
422.1046591165795
 30
0.0
 10
596.6473700729191
 20
411.6277179833015
 30
0.0
 10
596.5163945403815
 20
399.815168246328
 30
0.0
 10
596.3764129115906
 20
386.7064590013244
 30
0.0
 10
596.2416558191484
 20
372.4365195261022
 30
0.0
 10
596.1220268335468
 20
357.5661810815188
 30
0.0
 10
596.0158131458197
 20
342.1674681456835
 30
0.0
 10
595.9597703598309
 20
331.7270448140445
 30
0.0
 10
595.93120630292
 20
326.405738227372
 30
0.0
  0
SPLINE
  5
136
330
1F
100
AcDbEntity
  8
0
  6
Continuous
 62
     7
370
    25
100
AcDbSpline
210
0.0
220
0.0
230
1.0
 70
     8
 71
     3
 72
    19
 73
    15
 74
     0
 42
0.00000001
 43
0.00000001
 40
0.0
 40
0.0
 40
0.0
 40
0.0
 40
0.1054613510020321
 40
0.2068520926887627
 40
0.3045091421603173
 40
0.3991023538589858
 40
0.4911991865870902
 40
0.5802805641430518
 40
0.6631815561864494
 40
0.7451735356123522
 40
0.8182560202897472
 40
0.8834759056579843
 40
0.9427434071573264
 40
1.0
 40
1.0
 40
1.0
 40
1.0
 10
100.72901033622
 20
325.895938764352
 30
0.0
 10
100.704389317121
 20
330.6972779440991
 30
0.0
 10
100.6560976038405
 20
340.1146336635426
 30
0.0
 10
100.5655874862821
 20
353.977911771191
 30
0.0
 10
100.4641852043764
 20
367.3462986624118
 30
0.0
 10
100.3498036562291
 20
380.291436901632
 30
0.0
 10
100.2230158158772
 20
392.8460091645285
 30
0.0
 10
100.0920178435022
 20
404.8681868460121
 30
0.0
 10
99.96873295563482
 20
416.4303716485427
 30
0.0
 10
99.86352782460777
 20
427.2643143573807
 30
0.0
 10
99.78252308941288
 20
437.2934658243356
 30
0.0
 10
99.72788161387156
 20
446.2881857569509
 30
0.0
 10
99.6951816489115
 20
454.5625003908853
 30
0.0
 10
99.69118516065262
 20
459.8675636559694
 30
0.0
 10
99.68922140112002
 20
462.474319358202
 30
0.0
  0
LINE
  5
137
330
1F
100
AcDbEntity
  8
0
  6
Continuous
 62
     7
370
    25
100
AcDbLine
 10
99.6892214012
 20
462.4743495083
 30
0.0
 11
96.2250736942
 21
462.4743547688
 31
0.0
  0
SPLINE
  5
138
330
1F
100
AcDbEntity
  8
0
  6
Continuous
 62
     7
370
    25
100
AcDbSpline
210
0.0
220
0.0
230
1.0
 70
     8
 71
     3
 72
    17
 73
    13
 74
     0
 42
0.00000001
 43
0.00000001
 40
0.0
 40
0.0
 40
0.0
 40
0.0
 40
0.1017631511376696
 40
0.1983857947222299
 40
0.2908480367994296
 40
0.3805234316817446
 40
0.468675414462247
 40
0.5564358695731374
 40
0.6608615262431831
 40
0.7681987755709913
 40
0.8806324898473635
 40
1.0
 40
1.0
 40
1.0
 40
1.0
 10
264.8073119417101
 20
463.369764163202
 30
0.0
 10
270.4737905130708
 20
463.4580155536492
 30
0.0
 10
281.5205087218561
 20
463.6300603658771
 30
0.0
 10
297.7169188452075
 20
463.7932354467107
 30
0.0
 10
313.2405312347526
 20
463.9039322408391
 30
0.0
 10
328.2927075726844
 20
463.968841902579
 30
0.0
 10
343.0831831506541
 20
463.9975775360913
 30
0.0
 10
358.6951338966653
 20
463.9924618198125
 30
0.0
 10
375.3754333004918
 20
463.9460916750053
 30
0.0
 10
393.4294655112689
 20
463.8403274140425
 30
0.0
 10
412.315209080879
 20
463.6694013142442
 30
0.0
 10
425.2226552750106
 20
463.4716153165758
 30
0.0
 10
431.86942652662
 20
463.369764163102
 30
0.0
  0
LWPOLYLINE
  5
139
330
1F
100
AcDbEntity
  8
0
  6
Continuous
 62
     7
370
    25
100
AcDbPolyline
 90
        9
 70
   128
 43
0.0
 10
264.8073119417
 20
463.3697641632
 10
264.8073119329
 20
463.8918688954
 10
264.8073119359
 20
464.4050402625
 10
264.8073119508
 20
464.9004977615
 10
264.8073119771
 20
465.3697639785
 10
264.8073120146
 20
465.8048096399
 10
264.8073120625
 20
466.198190995
 10
264.80731212
 20
466.5431771807
 10
264.8073125837
 20
466.833865657
  0
LWPOLYLINE
  5
13A
330
1F
100
AcDbEntity
  8
0
  6
Continuous
 62
     7
370
    25
100
AcDbPolyline
 90
        9
 70
   128
 43
0.0
 10
431.8694265266
 20
463.3697641631
 10
431.8694265211
 20
463.8918689367
 10
431.8694265047
 20
464.4050403533
 10
431.8694264775
 20
464.9004979076
 10
431.8694264402
 20
465.3697641833
 10
431.8694263934
 20
465.8048099042
 10
431.8694263378
 20
466.1981913172
 10
431.8694262744
 20
466.5431775572
 10
431.8694258819
 20
466.8338656563
  0
SPLINE
  5
13B
330
1F
100
AcDbEntity
  8
0
  6
Continuous
 62
     7
370
    25
100
AcDbSpline
210
0.0
220
0.0
230
1.0
 70
     8
 71
     3
 72
    11
 73
     7
 74
     0
 42
0.00000001
 43
0.00000001
 40
0.0
 40
0.0
 40
0.0
 40
0.0
 40
0.2847832724841503
 40
0.5577289501214845
 40
0.774332240470121
 40
0.9999999999999999
 40
0.9999999999999999
 40
0.9999999999999999
 40
0.9999999999999999
 10
99.68922140112002
 20
462.474319358202
 30
0.0
 10
99.70010993252248
 20
462.5869478324909
 30
0.0
 10
99.72143439141537
 20
462.8075231498927
 30
0.0
 10
99.8940552620159
 20
463.0706849588179
 30
0.0
 10
100.1198235630713
 20
463.2458498284342
 30
0.0
 10
100.2874773025037
 20
463.2955997288928
 30
0.0
 10
100.37302222742
 20
463.3209844982021
 30
0.0
  0
LINE
  5
13C
330
1F
100
AcDbEntity
  8
0
  6
Continuous
 62
     7
370
    25
100
AcDbLine
 10
100.373020067
 20
463.3209840332
 30
0.0
 11
99.6441419598
 21
466.7075360932
 31
0.0
  0
SPLINE
  5
13D
330
1F
100
AcDbEntity
  8
0
  6
Continuous
 62
     7
370
    25
100
AcDbSpline
210
0.0
220
0.0
230
1.0
 70
     8
 71
     3
 72
    11
 73
     7
 74
     0
 42
0.00000001
 43
0.00000001
 40
0.0
 40
0.0
 40
0.0
 40
0.0
 40
0.2847770617012296
 40
0.5577196409425788
 40
0.7743330142401055
 40
1.0
 40
1.0
 40
1.0
 40
1.0
 10
596.3037061316201
 20
463.320986592502
 30
0.0
 10
596.4115163547303
 20
463.2866436038699
 30
0.0
 10
596.6226565307115
 20
463.2193848184384
 30
0.0
 10
596.8435992463203
 20
462.9952622675306
 30
0.0
 10
596.967337733316
 20
462.7376965094744
 30
0.0
 10
596.9806985935711
 20
462.563329150915
 30
0.0
 10
596.98751577412
 20
462.474360795402
 30
0.0
  0
LINE
  5
13E
330
1F
100
AcDbEntity
  8
0
  6
Continuous
 62
     7
370
    25
100
AcDbLine
 10
596.3037113476
 20
463.3209854699
 30
0.0
 11
597.032594965
 21
466.7075362727
 31
0.0
  0
SPLINE
  5
13F
330
1F
100
AcDbEntity
  8
0
  6
Continuous
 62
     7
370
    25
100
AcDbSpline
210
0.0
220
0.0
230
1.0
 70
     8
 71
     3
 72
     9
 73
     5
 74
     0
 42
0.00000001
 43
0.00000001
 40
0.0
 40
0.0
 40
0.0
 40
0.0
 40
0.6089544588683211
 40
1.0
 40
1.0
 40
1.0
 40
1.0
 10
595.80874450612
 20
463.369764198802
 30
0.0
 10
595.910036033911
 20
463.3673135372788
 30
0.0
 10
596.0763728203744
 20
463.3632891615844
 30
0.0
 10
596.2397990379378
 20
463.3328785331531
 30
0.0
 10
596.3037061316201
 20
463.320986592502
 30
0.0
  0
LWPOLYLINE
  5
140
330
1F
100
AcDbEntity
  8
0
  6
Continuous
 62
     7
370
    25
100
AcDbPolyline
 90
        9
 70
   128
 43
0.0
 10
595.8087445061
 20
463.3697641988
 10
595.8087480425
 20
463.8918689644
 10
595.8087514648
 20
464.405040372
 10
595.8087547146
 20
464.9004979167
 10
595.8087577362
 20
465.3697641826
 10
595.8087604779
 20
465.8048098938
 10
595.8087628927
 20
466.1981912978
 10
595.8087649395
 20
466.5431775297
 10
595.8087554917
 20
466.833865825
  0
SPLINE
  5
141
330
1F
100
AcDbEntity
  8
0
  6
Continuous
 62
     7
370
    25
100
AcDbSpline
210
0.0
220
0.0
230
1.0
 70
     8
 71
     3
 72
     9
 73
     5
 74
     0
 42
0.00000001
 43
0.00000001
 40
0.0
 40
0.0
 40
0.0
 40
0.0
 40
0.5117581467092353
 40
1.0
 40
1.0
 40
1.0
 40
1.0
 10
100.37302222742
 20
463.3209844982021
 30
0.0
 10
100.4568156311369
 20
463.335895165277
 30
0.0
 10
100.6205519668567
 20
463.3650313249471
 30
0.0
 10
100.7868139854367
 20
463.3682115028492
 30
0.0
 10
100.86799006152
 20
463.369764198802
 30
0.0
  0
LWPOLYLINE
  5
142
330
1F
100
AcDbEntity
  8
0
  6
Continuous
 62
     7
370
    25
100
AcDbPolyline
 90
        9
 70
   128
 43
0.0
 10
100.8679900615
 20
463.3697641988
 10
100.8679900425
 20
463.8918689676
 10
100.8679899859
 20
464.4050403791
 10
100.8679898925
 20
464.9004979281
 10
100.8679897641
 20
465.3697641986
 10
100.8679896028
 20
465.8048099146
 10
100.8679894113
 20
466.1981913233
 10
100.867989193
 20
466.5431775597
 10
100.8679826959
 20
466.8338658223
  0
LINE
  5
143
330
1F
100
AcDbEntity
  8
0
  6
Continuous
 62
     7
370
    25
100
AcDbLine
 10
431.8694265266
 20
463.3697641631
 30
0.0
 11
595.8087445061
 21
463.3697641988
 31
0.0
  0
LINE
  5
144
330
1F
100
AcDbEntity
  8
0
  6
Continuous
 62
     7
370
    25
100
AcDbLine
 10
100.8679900615
 20
463.3697641988
 30
0.0
 11
264.8073119417
 21
463.3697641632
 31
0.0
  0
ARC
  5
145
330
1F
100
AcDbEntity
  8
0
  6
Continuous
 62
     7
370
    25
100
AcDbCircle
 10
1608.3383692328
 20
277.2917760999
 30
0.0
 40
1508.392635775
100
AcDbArc
 50
177.0039724639
 51
178.153467835
  0
LINE
  5
146
330
1F
100
AcDbEntity
  8
0
  6
Continuous
 62
     7
370
    25
100
AcDbLine
 10
102.0074634285
 20
356.1305094727
 30
0.0
 11
110.9732682953
 21
355.6612548776
 31
0.0
  0
ARC
  5
147
330
1F
100
AcDbEntity
  8
0
  6
Continuous
 62
     7
370
    25
100
AcDbCircle
 10
1608.3383692328
 20
277.2917760999
 30
0.0
 40
1499.414559322891
100
AcDbArc
 50
177.0039724639
 51
182.9960275361
  0
LINE
  5
148
330
1F
100
AcDbEntity
  8
0
  6
Continuous
 62
     7
370
    25
100
AcDbLine
 10
102.0074634285
 20
198.4530427271
 30
0.0
 11
110.9732682953
 21
198.9222973222
 31
0.0
  0
ARC
  5
149
330
1F
100
AcDbEntity
  8
0
  6
Continuous
 62
     7
370
    25
100
AcDbCircle
 10
1608.3383692328
 20
277.2917760999
 30
0.0
 40
1508.392635775
100
AcDbArc
 50
182.0651942848
 51
182.9960275361
  0
ARC
  5
14A
330
1F
100
AcDbEntity
  8
0
  6
Continuous
 62
     7
370
    25
100
AcDbCircle
 10
348.3383692328
 20
1597.2917760999
 30
0.0
 40
1508.392635775
100
AcDbArc
 50
264.3395327562
 51
265.6503085899
  0
ARC
  5
14B
330
1F
100
AcDbEntity
  8
0
  6
Continuous
 62
     7
370
    25
100
AcDbCircle
 10
210.2519439155
 20
204.1183701152
 30
0.0
 40
108.3926357752909
100
AcDbArc
 50
182.9960275361
 51
264.3395327561
  0
LINE
  5
14C
330
1F
100
AcDbEntity
  8
0
  6
Continuous
 62
     7
370
    25
100
AcDbLine
 10
199.5608356262
 20
96.2542718533
 30
0.0
 11
200.4463716859
 21
105.1885699606
 31
0.0
  0
ARC
  5
14D
330
1F
100
AcDbEntity
  8
0
  6
Continuous
 62
     7
370
    25
100
AcDbCircle
 10
348.3383692328
 20
1597.2917760999
 30
0.0
 40
1499.414559322935
100
AcDbArc
 50
264.3395327562
 51
275.6604672438
  0
LINE
  5
14E
330
1F
100
AcDbEntity
  8
0
  6
Continuous
 62
     7
370
    25
100
AcDbLine
 10
497.1159028394
 20
96.2542718533
 30
0.0
 11
496.2303667797
 21
105.1885699606
 31
0.0
  0
ARC
  5
14F
330
1F
100
AcDbEntity
  8
0
  6
Continuous
 62
     7
370
    25
100
AcDbCircle
 10
348.3383692328
 20
1597.2917760999
 30
0.0
 40
1508.392635775
100
AcDbArc
 50
274.2956703519
 51
275.6604672438
  0
ARC
  5
150
330
1F
100
AcDbEntity
  8
0
  6
Continuous
 62
     7
370
    25
100
AcDbCircle
 10
348.3383692328
 20
-1042.7082239001
 30
0.0
 40
1508.392635775238
100
AcDbArc
 50
93.1745226532
 51
95.6604672438
  0
ARC
  5
151
330
1F
100
AcDbEntity
  8
0
  6
Continuous
 62
     7
370
    25
100
AcDbCircle
 10
210.2519439155
 20
350.4651820846
 30
0.0
 40
108.3926357752904
100
AcDbArc
 50
95.6604672439
 51
177.0039724639
  0
ARC
  5
152
330
1F
100
AcDbEntity
  8
0
  6
Continuous
 62
     7
370
    25
100
AcDbCircle
 10
486.4247945501
 20
204.1183701152
 30
0.0
 40
108.3926357752909
100
AcDbArc
 50
275.6604672439
 51
357.0039724639
  0
ARC
  5
153
330
1F
100
AcDbEntity
  8
0
  6
Continuous
 62
     7
370
    25
100
AcDbCircle
 10
-911.6616307672
 20
277.2917760999
 30
0.0
 40
1508.392635775269
100
AcDbArc
 50
357.0039724639
 51
357.9054075121
  0
ARC
  5
154
330
1F
100
AcDbEntity
  8
0
  6
Continuous
 62
     7
370
    25
100
AcDbCircle
 10
-911.6616307672
 20
277.2917760999
 30
0.0
 40
1508.392635775259
100
AcDbArc
 50
1.8659068905
 51
2.9960275361
  0
ARC
  5
155
330
1F
100
AcDbEntity
  8
0
  6
Continuous
 62
     7
370
    25
100
AcDbCircle
 10
486.4247945501
 20
350.4651820846
 30
0.0
 40
108.3926357752904
100
AcDbArc
 50
2.9960275361
 51
84.3395327561
  0
ARC
  5
156
330
1F
100
AcDbEntity
  8
0
  6
Continuous
 62
     7
370
    25
100
AcDbCircle
 10
348.3383692328
 20
-1042.7082239001
 30
0.0
 40
1508.392635775287
100
AcDbArc
 50
84.3395327562
 51
86.8254773467
  0
LINE
  5
157
330
1F
100
AcDbEntity
  8
0
  6
Continuous
 62
     7
370
    25
100
AcDbLine
 10
594.6692750371
 20
198.4530427271
 30
0.0
 11
585.7034701703
 21
198.9222973222
 31
0.0
  0
ARC
  5
158
330
1F
100
AcDbEntity
  8
0
  6
Continuous
 62
     7
370
    25
100
AcDbCircle
 10
-911.6616307672
 20
277.2917760999
 30
0.0
 40
1499.41455932289
100
AcDbArc
 50
357.0039724639
 51
2.9960275361
  0
LINE
  5
159
330
1F
100
AcDbEntity
  8
0
  6
Continuous
 62
     7
370
    25
100
AcDbLine
 10
594.6692750371
 20
356.1305094727
 30
0.0
 11
585.7034701703
 21
355.6612548776
 31
0.0
  0
LINE
  5
15A
330
1F
100
AcDbEntity
  8
0
  6
Continuous
 62
     7
370
    25
100
AcDbLine
 10
497.1159028394
 20
458.3292803465
 30
0.0
 11
496.2303667797
 21
449.3949822392
 31
0.0
  0
ARC
  5
15B
330
1F
100
AcDbEntity
  8
0
  6
Continuous
 62
     7
370
    25
100
AcDbCircle
 10
348.3383692328
 20
-1042.7082239001
 30
0.0
 40
1499.414559322935
100
AcDbArc
 50
84.3395327562
 51
95.6604672438
  0
LINE
  5
15C
330
1F
100
AcDbEntity
  8
0
  6
Continuous
 62
     7
370
    25
100
AcDbLine
 10
199.5608356262
 20
458.3292803465
 30
0.0
 11
200.4463716859
 21
449.3949822392
 31
0.0
  0
ARC
  5
15D
330
1F
100
AcDbEntity
  8
0
  6
Continuous
 62
     7
370
    25
100
AcDbCircle
 10
210.2519439155
 20
350.4651820846
 30
0.0
 40
99.41455932293347
100
AcDbArc
 50
95.6604672438
 51
177.0039724639
  0
ARC
  5
15E
330
1F
100
AcDbEntity
  8
0
  6
Continuous
 62
     7
370
    25
100
AcDbCircle
 10
486.4247945501
 20
350.4651820846
 30
0.0
 40
99.41455932293347
100
AcDbArc
 50
2.9960275361
 51
84.3395327562
  0
ARC
  5
15F
330
1F
100
AcDbEntity
  8
0
  6
Continuous
 62
     7
370
    25
100
AcDbCircle
 10
210.2519439155
 20
204.1183701152
 30
0.0
 40
99.41455932296331
100
AcDbArc
 50
182.9960275361
 51
264.3395327562
  0
ARC
  5
160
330
1F
100
AcDbEntity
  8
0
  6
Continuous
 62
     7
370
    25
100
AcDbCircle
 10
486.4247945501
 20
204.1183701152
 30
0.0
 40
99.41455932296331
100
AcDbArc
 50
275.6604672438
 51
357.0039724639
  0
LINE
  5
161
330
1F
100
AcDbEntity
  8
0
  6
Continuous
 62
     7
370
    25
100
AcDbLine
 10
496.2303667797
 20
449.3949822392
 30
0.0
 11
495.5873340623
 21
442.9073345281
 31
0.0
  0
SPLINE
  5
162
330
1F
100
AcDbEntity
  8
0
  6
Continuous
 62
     7
370
    25
100
AcDbSpline
210
0.0
220
0.0
230
1.0
 70
     8
 71
     3
 72
    33
 73
    29
 74
     0
 42
0.00000001
 43
0.00000001
 40
0.0
 40
0.0
 40
0.0
 40
0.0
 40
0.0490327074206779
 40
0.094333738421179
 40
0.1359034605135919
 40
0.1760822617871093
 40
0.2159352037566589
 40
0.2520396348670491
 40
0.2851349270086052
 40
0.316792211159612
 40
0.3465401951307039
 40
0.3873281534812664
 40
0.4266951642803086
 40
0.4653122853474014
 40
0.5038202043595749
 40
0.5426262862434104
 40
0.5747571396508616
 40
0.6076823257808176
 40
0.6418309836997936
 40
0.6774770780557984
 40
0.7154742462447758
 40
0.7564055279061669
 40
0.7915974948679595
 40
0.8294576365371756
 40
0.8672088869028612
 40
0.9079902700960122
 40
0.9522538624374246
 40
1.0
 40
1.0
 40
1.0
 40
1.0
 10
201.0894044034422
 20
442.9073345278786
 30
0.0
 10
205.8872281383692
 20
443.3540621084515
 30
0.0
 10
215.1177331014839
 20
444.2135186824021
 30
0.0
 10
228.4303204914051
 20
445.2942686276414
 30
0.0
 10
240.8835077095577
 20
446.2069446511988
 30
0.0
 10
252.8100815195641
 20
446.9832646326252
 30
0.0
 10
264.2067479365874
 20
447.636433042941
 30
0.0
 10
274.9133070039977
 20
448.1707557875305
 30
0.0
 10
284.8191113874226
 20
448.5987921749827
 30
0.0
 10
294.1037955578808
 20
448.9422270304891
 30
0.0
 10
304.1472731402913
 20
449.2548880583823
 30
0.0
 10
314.9519172239183
 20
449.519188876021
 30
0.0
 10
326.6320580543924
 20
449.717592490686
 30
0.0
 10
338.0905383768009
 20
449.8300564218059
 30
0.0
 10
349.495159660411
 20
449.8619612683842
 30
0.0
 10
360.2615680288633
 20
449.816619053923
 30
0.0
 10
370.477445683727
 20
449.7075557925417
 30
0.0
 10
380.2333941498047
 20
449.544992852001
 30
0.0
 10
390.3325216648357
 20
449.3136550090521
 30
0.0
 10
400.9271172846181
 20
449.0013123698624
 30
0.0
 10
412.1843803842276
 20
448.5904678265908
 30
0.0
 10
423.392346836659
 20
448.0963970719957
 30
0.0
 10
434.581926411855
 20
447.520583297586
 30
0.0
 10
445.4543402816364
 20
446.8835907880128
 30
0.0
 10
456.8693271098501
 20
446.130879964709
 30
0.0
 10
468.9051049368874
 20
445.2423805555434
 30
0.0
 10
481.9123981232956
 20
444.181606397934
 30
0.0
 10
490.9154345252828
 20
443.3426762498589
 30
0.0
 10
495.5873340621982
 20
442.9073345278782
 30
0.0
  0
LINE
  5
163
330
1F
100
AcDbEntity
  8
0
  6
Continuous
 62
     7
370
    25
100
AcDbLine
 10
200.4463716859
 20
449.3949822392
 30
0.0
 11
201.0894044034
 21
442.9073345281
 31
0.0
  0
LWPOLYLINE
  5
164
330
1F
100
AcDbEntity
  8
0
  6
Continuous
 62
     7
370
    25
100
AcDbPolyline
 90
        3
 70
   128
 43
0.0
 10
274.1383672495
 20
454.1672068438
 10
274.1383631381
 20
453.492665271
 10
274.1383672495
 20
452.9629877226
  0
SPLINE
  5
165
330
1F
100
AcDbEntity
  8
0
  6
Continuous
 62
     7
370
    25
100
AcDbSpline
210
0.0
220
0.0
230
1.0
 70
     8
 71
     3
 72
    15
 73
    11
 74
     0
 42
0.00000001
 43
0.00000001
 40
0.0
 40
0.0
 40
0.0
 40
0.0
 40
0.0750786560177811
 40
0.2175676078343175
 40
0.3599399045190489
 40
0.5018921119921714
 40
0.6434156517164565
 40
0.7847587769547766
 40
0.9262327936256965
 40
1.0
 40
1.0
 40
1.0
 40
1.0
 10
268.4429102942661
 20
453.9107639611153
 30
0.0
 10
268.4706618593545
 20
453.9261895030823
 30
0.0
 10
268.5510820739692
 20
453.9708905998162
 30
0.0
 10
269.1503330837811
 20
454.0590399017317
 30
0.0
 10
270.1007044578994
 20
454.1544031252654
 30
0.0
 10
271.2432365746076
 20
454.2293573971893
 30
0.0
 10
272.3840177566673
 20
454.2717419347712
 30
0.0
 10
273.3304222939518
 20
454.2740080987124
 30
0.0
 10
273.92542022986
 20
454.247642602592
 30
0.0
 10
274.0051140404148
 20
454.2115935452721
 30
0.0
 10
274.0324266048334
 20
454.1992388568286
 30
0.0
  0
LWPOLYLINE
  5
166
330
1F
100
AcDbEntity
  8
0
  6
Continuous
 62
     7
370
    25
100
AcDbPolyline
 90
        3
 70
   128
 43
0.0
 10
268.3383713712
 20
452.6639752229
 10
268.3383757703
 20
453.3382942036
 10
268.3383713712
 20
453.8684349444
  0
LINE
  5
167
330
1F
100
AcDbEntity
  8
0
  6
Continuous
 62
     7
370
    25
100
AcDbLine
 10
274.1383672495
 20
452.9629877226
 30
0.0
 11
274.0337290222
 21
452.921017667
 31
0.0
  0
SPLINE
  5
168
330
1F
100
AcDbEntity
  8
0
  6
Continuous
 62
     7
370
    25
100
AcDbSpline
210
0.0
220
0.0
230
1.0
 70
     8
 71
     3
 72
    13
 73
     9
 74
     0
 42
0.00000001
 43
0.00000001
 40
0.0
 40
0.0
 40
0.0
 40
0.0
 40
0.1673804669339037
 40
0.3346240180264039
 40
0.5014154874052956
 40
0.6677272520048935
 40
0.8338039929758628
 40
1.0
 40
1.0
 40
1.0
 40
1.0
 10
273.9169515936788
 20
452.8741786170146
 30
0.0
 10
273.7307640321875
 20
452.8414793953081
 30
0.0
 10
273.3585412090947
 20
452.7761076995886
 30
0.0
 10
272.3679226216418
 20
452.6817859452542
 30
0.0
 10
271.2333408263599
 20
452.6077710587325
 30
0.0
 10
270.1006170661783
 20
452.5651347873493
 30
0.0
 10
269.1140457212413
 20
452.5576166491212
 30
0.0
 10
268.7440822407837
 20
452.584581302055
 30
0.0
 10
268.5590341031685
 20
452.5980684678711
 30
0.0
  0
LINE
  5
169
330
1F
100
AcDbEntity
  8
0
  6
Continuous
 62
     7
370
    25
100
AcDbLine
 10
268.4443599161
 20
452.6323189436
 30
0.0
 11
268.3383713712
 21
452.6639752229
 31
0.0
  0
LWPOLYLINE
  5
16A
330
1F
100
AcDbEntity
  8
0
  6
Continuous
 62
     7
370
    25
100
AcDbPolyline
 90
        3
 70
   128
 43
0.0
 10
284.4383675248
 20
454.6422645428
 10
284.4383639874
 20
453.9679372033
 10
284.4383675248
 20
453.4384277863
  0
SPLINE
  5
16B
330
1F
100
AcDbEntity
  8
0
  6
Continuous
 62
     7
370
    25
100
AcDbSpline
210
0.0
220
0.0
230
1.0
 70
     8
 71
     3
 72
    15
 73
    11
 74
     0
 42
0.00000001
 43
0.00000001
 40
0.0
 40
0.0
 40
0.0
 40
0.0
 40
0.0750164407413724
 40
0.2174630522285694
 40
0.3597537270274174
 40
0.5016378818653591
 40
0.6431509584392335
 40
0.7845505222615103
 40
0.9261180654659648
 40
1.0
 40
1.0
 40
1.0
 40
1.0
 10
278.7430439019723
 20
454.4251375751862
 30
0.0
 10
278.7707735262848
 20
454.4403522616241
 30
0.0
 10
278.851158155048
 20
454.4844576886317
 30
0.0
 10
279.4501752071509
 20
454.5684243181116
 30
0.0
 10
280.4002816256861
 20
454.6572046126765
 30
0.0
 10
281.5425843647542
 20
454.7242788142598
 30
0.0
 10
282.6833708201736
 20
454.7588243401138
 30
0.0
 10
283.6300424744801
 20
454.7546030065743
 30
0.0
 10
284.2253775375141
 20
454.7241528316919
 30
0.0
 10
284.3051331567195
 20
454.6875418319848
 30
0.0
 10
284.3324829535197
 20
454.6749871880286
 30
0.0
  0
LWPOLYLINE
  5
16C
330
1F
100
AcDbEntity
  8
0
  6
Continuous
 62
     7
370
    25
100
AcDbPolyline
 90
        3
 70
   128
 43
0.0
 10
278.6383710959
 20
453.1794469589
 10
278.6383749324
 20
453.8535337047
 10
278.6383710959
 20
454.3834919664
  0
LINE
  5
16D
330
1F
100
AcDbEntity
  8
0
  6
Continuous
 62
     7
370
    25
100
AcDbLine
 10
284.4383675248
 20
453.4384277863
 30
0.0
 11
284.3335987348
 21
453.397142362
 31
0.0
  0
SPLINE
  5
16E
330
1F
100
AcDbEntity
  8
0
  6
Continuous
 62
     7
370
    25
100
AcDbSpline
210
0.0
220
0.0
230
1.0
 70
     8
 71
     3
 72
    13
 73
     9
 74
     0
 42
0.00000001
 43
0.00000001
 40
0.0
 40
0.0
 40
0.0
 40
0.0
 40
0.1673416949309087
 40
0.3345025242781406
 40
0.5012257961050038
 40
0.6675337812981155
 40
0.8336842615993174
 40
1.0
 40
1.0
 40
1.0
 40
1.0
 10
284.2169250513068
 20
453.3511656687483
 30
0.0
 10
284.0307836793897
 20
453.3197656864761
 30
0.0
 10
283.6587021201314
 20
453.2569996595356
 30
0.0
 10
282.668363790788
 20
453.169540285004
 30
0.0
 10
281.5340146937369
 20
453.1033593507957
 30
0.0
 10
280.401274454603
 20
453.0685158899266
 30
0.0
 10
279.4144408010231
 20
453.0677704320091
 30
0.0
 10
279.044315779904
 20
453.0972705192762
 30
0.0
 10
278.8591612808144
 20
453.1120278946747
 30
0.0
  0
LINE
  5
16F
330
1F
100
AcDbEntity
  8
0
  6
Continuous
 62
     7
370
    25
100
AcDbLine
 10
278.7443070534
 20
453.1470990394
 30
0.0
 11
278.6383710959
 21
453.1794469589
 31
0.0
  0
SPLINE
  5
170
330
1F
100
AcDbEntity
  8
0
  6
Continuous
 62
     7
370
    25
100
AcDbSpline
210
0.0
220
0.0
230
1.0
 70
     8
 71
     3
 72
    15
 73
    11
 74
     0
 42
0.00000001
 43
0.00000001
 40
0.0
 40
0.0
 40
0.0
 40
0.0
 40
0.1251470507388559
 40
0.250650737483706
 40
0.3759025534189694
 40
0.5007410608303215
 40
0.6253116417580673
 40
0.7499124767788963
 40
0.8747950473629549
 40
1.0
 40
1.0
 40
1.0
 40
1.0
 10
290.08836923282
 20
454.270877613002
 30
0.0
 10
290.1372390791545
 20
454.3025487106269
 30
0.0
 10
290.2351180379644
 20
454.3659811601311
 30
0.0
 10
290.9877591774127
 20
454.470820572376
 30
0.0
 10
292.0634299627701
 20
454.5622436166981
 30
0.0
 10
293.3405356934653
 20
454.6274000279321
 30
0.0
 10
294.6164373201217
 20
454.6559060569325
 30
0.0
 10
295.6898583578381
 20
454.6434473672317
 30
0.0
 10
296.4417648824506
 20
454.5939276624472
 30
0.0
 10
296.5394591375605
 20
454.5377819168785
 30
0.0
 10
296.58836923282
 20
454.5096728560019
 30
0.0
  0
SPLINE
  5
171
330
1F
100
AcDbEntity
  8
0
  6
Continuous
 62
     7
370
    25
100
AcDbSpline
210
0.0
220
0.0
230
1.0
 70
     8
 71
     3
 72
    15
 73
    11
 74
     0
 42
0.00000001
 43
0.00000001
 40
0.0
 40
0.0
 40
0.0
 40
0.0
 40
0.1251614706361575
 40
0.2506455230829179
 40
0.3758810637390223
 40
0.5007300764153649
 40
0.6253238222174666
 40
0.7499303835734799
 40
0.8747983922536089
 40
1.0
 40
1.0
 40
1.0
 40
1.0
 10
296.58836923282
 20
454.5096728560019
 30
0.0
 10
296.5394948596256
 20
454.4782242410731
 30
0.0
 10
296.4416201480837
 20
454.4152459579078
 30
0.0
 10
295.688922620628
 20
454.3133091052828
 30
0.0
 10
294.6132147892608
 20
454.2246122952001
 30
0.0
 10
293.3360810167117
 20
454.1605951574398
 30
0.0
 10
292.0601800874837
 20
454.1309194982937
 30
0.0
 10
290.9868066420356
 20
454.1406469540921
 30
0.0
 10
290.2349476498015
 20
454.1872769887675
 30
0.0
 10
290.137272138998
 20
454.2429859658718
 30
0.0
 10
290.08836923282
 20
454.270877613002
 30
0.0
  0
SPLINE
  5
172
330
1F
100
AcDbEntity
  8
0
  6
Continuous
 62
     7
370
    25
100
AcDbSpline
210
0.0
220
0.0
230
1.0
 70
     8
 71
     3
 72
    15
 73
    11
 74
     0
 42
0.00000001
 43
0.00000001
 40
0.0
 40
0.0
 40
0.0
 40
0.0
 40
0.1253489496549316
 40
0.250707154585266
 40
0.3758671470674827
 40
0.5007090643883068
 40
0.6253399491318468
 40
0.7499929618553727
 40
0.8748507556686251
 40
1.0
 40
1.0
 40
1.0
 40
1.0
 10
302.23837046506
 20
455.295943507602
 30
0.0
 10
302.2821213507866
 20
455.3238870112129
 30
0.0
 10
302.3696263526336
 20
455.3797760816737
 30
0.0
 10
303.0415830560574
 20
455.4678628314861
 30
0.0
 10
304.0012877953458
 20
455.541679516115
 30
0.0
 10
305.141102729157
 20
455.590757760727
 30
0.0
 10
306.2798889537432
 20
455.6072305127634
 30
0.0
 10
307.2374823726911
 20
455.5886578314841
 30
0.0
 10
307.9076407974308
 20
455.5393152454392
 30
0.0
 10
307.9947585164975
 20
455.4885892307572
 30
0.0
 10
308.03836815561
 20
455.463196656002
 30
0.0
  0
LWPOLYLINE
  5
173
330
1F
100
AcDbEntity
  8
0
  6
Continuous
 62
     7
370
    25
100
AcDbPolyline
 90
        3
 70
   128
 43
0.0
 10
302.2383704651
 20
454.0926324874
 10
302.238373007
 20
454.7663082085
 10
302.2383704651
 20
455.2959435076
  0
SPLINE
  5
174
330
1F
100
AcDbEntity
  8
0
  6
Continuous
 62
     7
370
    25
100
AcDbSpline
210
0.0
220
0.0
230
1.0
 70
     8
 71
     3
 72
    15
 73
    11
 74
     0
 42
0.00000001
 43
0.00000001
 40
0.0
 40
0.0
 40
0.0
 40
0.0
 40
0.1253612374357926
 40
0.2506997652244978
 40
0.3758456695289988
 40
0.5007012253098481
 40
0.6253557736008527
 40
0.7500124546667448
 40
0.8748539268266257
 40
1.0
 40
1.0
 40
1.0
 40
1.0
 10
308.03836815561
 20
454.260020079402
 30
0.0
 10
307.99461382489
 20
454.232252482068
 30
0.0
 10
307.9071130897073
 20
454.176722317602
 30
0.0
 10
307.2351281744752
 20
454.090930418444
 30
0.0
 10
306.27541144693
 20
454.0192606874601
 30
0.0
 10
305.1355602850339
 20
453.9710626775561
 30
0.0
 10
303.9967469165075
 20
453.9536331495931
 30
0.0
 10
303.0391865174909
 20
453.9700110571495
 30
0.0
 10
302.3690749374882
 20
454.0170401457625
 30
0.0
 10
302.2819739990107
 20
454.0674145803644
 30
0.0
 10
302.23837046506
 20
454.092632487402
 30
0.0
  0
LWPOLYLINE
  5
175
330
1F
100
AcDbEntity
  8
0
  6
Continuous
 62
     7
370
    25
100
AcDbPolyline
 90
        3
 70
   128
 43
0.0
 10
308.0383681556
 20
455.463196656
 10
308.0383659282
 20
454.7892392053
 10
308.0383681556
 20
454.2600200794
  0
SPLINE
  5
176
330
1F
100
AcDbEntity
  8
0
  6
Continuous
 62
     7
370
    25
100
AcDbSpline
210
0.0
220
0.0
230
1.0
 70
     8
 71
     3
 72
    15
 73
    11
 74
     0
 42
0.00000001
 43
0.00000001
 40
0.0
 40
0.0
 40
0.0
 40
0.0
 40
0.125346629386111
 40
0.2506539412356881
 40
0.3757444698699381
 40
0.5005398535373742
 40
0.6251745984737676
 40
0.7498791645747263
 40
0.8748054495259963
 40
1.0
 40
1.0
 40
1.0
 40
1.0
 10
312.53837018975
 20
455.577481673402
 30
0.0
 10
312.5821106374597
 20
455.6051177690903
 30
0.0
 10
312.6695778127921
 20
455.6603812918399
 30
0.0
 10
313.3413643507883
 20
455.7438245132355
 30
0.0
 10
314.3008170192812
 20
455.8110273502525
 30
0.0
 10
315.440450469982
 20
455.8522742758296
 30
0.0
 10
316.5793007216433
 20
455.8609380332377
 30
0.0
 10
317.5371459061752
 20
455.835800249169
 30
0.0
 10
318.2075632248917
 20
455.7818603598184
 30
0.0
 10
318.2947355302153
 20
455.7305285446122
 30
0.0
 10
318.33836843093
 20
455.704835109202
 30
0.0
  0
LWPOLYLINE
  5
177
330
1F
100
AcDbEntity
  8
0
  6
Continuous
 62
     7
370
    25
100
AcDbPolyline
 90
        3
 70
   128
 43
0.0
 10
312.5383701897
 20
454.3743969454
 10
312.5383721648
 20
455.0481245077
 10
312.5383701898
 20
455.5774816734
  0
SPLINE
  5
178
330
1F
100
AcDbEntity
  8
0
  6
Continuous
 62
     7
370
    25
100
AcDbSpline
210
0.0
220
0.0
230
1.0
 70
     8
 71
     3
 72
    15
 73
    11
 74
     0
 42
0.00000001
 43
0.00000001
 40
0.0
 40
0.0
 40
0.0
 40
0.0
 40
0.1253571122493769
 40
0.250645180713773
 40
0.3757237357840992
 40
0.5005338872230336
 40
0.625191030651004
 40
0.7498971410473623
 40
0.8748067388122194
 40
1.0
 40
1.0
 40
1.0
 40
1.0
 10
318.33836843093
 20
454.5018527163019
 30
0.0
 10
318.2946256528834
 20
454.4743923755645
 30
0.0
 10
318.2071641892958
 20
454.4194868186073
 30
0.0
 10
317.5353583188466
 20
454.3383400676586
 30
0.0
 10
316.5758990387253
 20
454.2732889597231
 30
0.0
 10
315.4362305596151
 20
454.2329308885685
 30
0.0
 10
314.2973521869538
 20
454.2233200241922
 30
0.0
 10
313.3395346567285
 20
454.2462696789439
 30
0.0
 10
312.6691551244661
 20
454.297898896888
 30
0.0
 10
312.5819981187643
 20
454.3488783224959
 30
0.0
 10
312.53837018974
 20
454.374396945402
 30
0.0
  0
LWPOLYLINE
  5
179
330
1F
100
AcDbEntity
  8
0
  6
Continuous
 62
     7
370
    25
100
AcDbPolyline
 90
        3
 70
   128
 43
0.0
 10
318.3383684309
 20
455.7048351092
 10
318.3383667735
 20
455.0311649837
 10
318.3383684309
 20
454.5018527163
  0
SPLINE
  5
17A
330
1F
100
AcDbEntity
  8
0
  6
Continuous
 62
     7
370
    25
100
AcDbSpline
210
0.0
220
0.0
230
1.0
 70
     8
 71
     3
 72
    24
 73
    20
 74
     0
 42
0.00000001
 43
0.00000001
 40
0.0
 40
0.0
 40
0.0
 40
0.0
 40
0.0622324194657423
 40
0.1246010506629796
 40
0.1871054236280525
 40
0.2497450631451557
 40
0.3113476455780509
 40
0.3734297517764472
 40
0.435990855694168
 40
0.4990304134336009
 40
0.5476530336800076
 40
0.596896637892369
 40
0.6467608836434393
 40
0.6972454145027208
 40
0.7483498601470041
 40
0.8082228140220487
 40
0.8701229600416103
 40
0.934049109653198
 40
1.0
 40
1.0
 40
1.0
 40
1.0
 10
117.375069429048
 20
355.3261957675606
 30
0.0
 10
117.5879869395143
 20
358.057066731118
 30
0.0
 10
118.0142879854385
 20
363.5247858750218
 30
0.0
 10
119.57158920827
 20
371.6228218501317
 30
0.0
 10
121.7932539344665
 20
379.5746418988691
 30
0.0
 10
124.7143452667117
 20
387.2645090297642
 30
0.0
 10
128.2900171035123
 20
394.6501118962797
 30
0.0
 10
132.4994741315357
 20
401.6903930630197
 30
0.0
 10
137.3519782663268
 20
408.3819058553876
 30
0.0
 10
142.3927603610561
 20
414.1676875910613
 30
0.0
 10
147.4537654481991
 20
419.1221090809452
 30
0.0
 10
152.4054743665663
 20
423.337313563459
 30
0.0
 10
157.7074534371185
 20
427.2421308636111
 30
0.0
 10
163.3434881491788
 20
430.8032860390399
 30
0.0
 10
169.6100354889068
 20
434.1556424012605
 30
0.0
 10
176.5837880782091
 20
437.2098182396604
 30
0.0
 10
184.3316721450388
 20
439.8164840920194
 30
0.0
 10
192.5378005627388
 20
441.8390229313841
 30
0.0
 10
198.2093970096504
 20
442.5475487668652
 30
0.0
 10
201.0894044034238
 20
442.9073345280642
 30
0.0
  0
LINE
  5
17B
330
1F
100
AcDbEntity
  8
0
  6
Continuous
 62
     7
370
    25
100
AcDbLine
 10
110.9732682953
 20
355.6612548776
 30
0.0
 11
117.375069429
 21
355.3261957676
 31
0.0
  0
LINE
  5
17C
330
1F
100
AcDbEntity
  8
0
  6
Continuous
 62
     7
370
    25
100
AcDbLine
 10
585.7034701703
 20
355.6612548776
 30
0.0
 11
579.3016690366
 21
355.3261957676
 31
0.0
  0
SPLINE
  5
17D
330
1F
100
AcDbEntity
  8
0
  6
Continuous
 62
     7
370
    25
100
AcDbSpline
210
0.0
220
0.0
230
1.0
 70
     8
 71
     3
 72
    23
 73
    19
 74
     0
 42
0.00000001
 43
0.00000001
 40
0.0
 40
0.0
 40
0.0
 40
0.0
 40
0.0525267035160625
 40
0.1037702916102743
 40
0.1537301434188708
 40
0.2024056670541776
 40
0.2497962998749489
 40
0.3135914790065609
 40
0.3764096436767606
 40
0.4382500666456442
 40
0.4991120551868632
 40
0.5621641409857416
 40
0.6247321276165074
 40
0.6868154696606942
 40
0.7484136397608988
 40
0.8325273525339827
 40
0.916389855015067
 40
1.0
 40
1.0
 40
1.0
 40
1.0
 10
495.5873340622162
 20
442.9073345280642
 30
0.0
 10
497.8818916412717
 20
442.6334856476088
 30
0.0
 10
502.4149556478935
 20
442.0924774312202
 30
0.0
 10
509.0320075853181
 20
440.6648023452126
 30
0.0
 10
515.3717562317008
 20
438.847490755786
 30
0.0
 10
521.4079346196659
 20
436.6397848255651
 30
0.0
 10
527.8356106043576
 20
433.7806679988781
 30
0.0
 10
534.5694248345488
 20
430.1226116348877
 30
0.0
 10
541.4761858779846
 20
425.5221461213218
 30
0.0
 10
547.8481649166997
 20
420.4094545294616
 30
0.0
 10
553.757939242949
 20
414.7544415434623
 30
0.0
 10
559.1692779416624
 20
408.576695972803
 30
0.0
 10
564.0402428932955
 20
401.8978791560331
 30
0.0
 10
568.2672336613476
 20
394.8689853578521
 30
0.0
 10
572.2811810917881
 20
386.6445370365907
 30
0.0
 10
575.7342931160633
 20
377.1350392796229
 30
0.0
 10
578.3453164290307
 20
366.3413094777957
 30
0.0
 10
578.9832052366861
 20
358.9942099924629
 30
0.0
 10
579.301669036592
 20
355.3261957675605
 30
0.0
  0
SPLINE
  5
17E
330
1F
100
AcDbEntity
  8
0
  6
Continuous
 62
     7
370
    25
100
AcDbSpline
210
0.0
220
0.0
230
1.0
 70
     8
 71
     3
 72
     9
 73
     5
 74
     0
 42
0.00000001
 43
0.00000001
 40
0.0
 40
0.0
 40
0.0
 40
0.0
 40
0.5598144222952219
 40
1.0
 40
1.0
 40
1.0
 40
1.0
 10
116.75709071662
 20
342.469219953632
 30
0.0
 10
116.8651449869389
 20
344.8687428050968
 30
0.0
 10
117.058163005081
 20
349.155025465745
 30
0.0
 10
117.278208552575
 20
353.4400081772453
 30
0.0
 10
117.37506942902
 20
355.326195767562
 30
0.0
  0
SPLINE
  5
17F
330
1F
100
AcDbEntity
  8
0
  6
Continuous
 62
     7
370
    25
100
AcDbSpline
210
0.0
220
0.0
230
1.0
 70
     8
 71
     3
 72
    14
 73
    10
 74
     0
 42
0.00000001
 43
0.00000001
 40
0.0
 40
0.0
 40
0.0
 40
0.0
 40
0.1524144909690083
 40
0.2982494136622453
 40
0.4404519218543787
 40
0.5797171847761314
 40
0.717493385424723
 40
0.8585903411551797
 40
1.0
 40
1.0
 40
1.0
 40
1.0
 10
117.204710195825
 20
199.2484401270236
 30
0.0
 10
116.8691210845265
 20
206.5182237867048
 30
0.0
 10
116.2124298799048
 20
220.7439624298379
 30
0.0
 10
115.6200607476049
 20
241.7691244160725
 30
0.0
 10
115.3023043538867
 20
262.1730907274135
 30
0.0
 10
115.2598425612961
 20
282.1963085367861
 30
0.0
 10
115.4810486410933
 20
302.1665109890151
 30
0.0
 10
115.9472798846298
 20
322.2364273850641
 30
0.0
 10
116.486954653154
 20
335.7199808373267
 30
0.0
 10
116.7570907171145
 20
342.4692199536104
 30
0.0
  0
LINE
  5
180
330
1F
100
AcDbEntity
  8
0
  6
Continuous
 62
     7
370
    25
100
AcDbLine
 10
110.9732682953
 20
198.9222973222
 30
0.0
 11
117.2047101954
 21
199.2484401269
 31
0.0
  0
LINE
  5
181
330
1F
100
AcDbEntity
  8
0
  6
Continuous
 62
     7
370
    25
100
AcDbLine
 10
585.7034701703
 20
198.9222973222
 30
0.0
 11
579.4720282702
 21
199.2484401269
 31
0.0
  0
SPLINE
  5
182
330
1F
100
AcDbEntity
  8
0
  6
Continuous
 62
     7
370
    25
100
AcDbSpline
210
0.0
220
0.0
230
1.0
 70
     8
 71
     3
 72
    14
 73
    10
 74
     0
 42
0.00000001
 43
0.00000001
 40
0.0
 40
0.0
 40
0.0
 40
0.0
 40
0.1368268274453472
 40
0.2743441002904262
 40
0.4117149846646717
 40
0.5509148722193258
 40
0.6934105784126103
 40
0.8426611728678286
 40
1.0
 40
1.0
 40
1.0
 40
1.0
 10
579.9196477492995
 20
342.4692199536436
 30
0.0
 10
580.1818229270505
 20
335.9387493529686
 30
0.0
 10
580.7074962515109
 20
322.8448545746885
 30
0.0
 10
581.1764251177323
 20
303.1843820515023
 30
0.0
 10
581.4109477650038
 20
283.4077325404641
 30
0.0
 10
581.3847299688455
 20
263.3928828818495
 30
0.0
 10
581.0806468574851
 20
242.8146050706563
 30
0.0
 10
580.4906132544021
 20
221.3768114050116
 30
0.0
 10
579.8174760141353
 20
206.7531609385296
 30
0.0
 10
579.472028270589
 20
199.2484401269824
 30
0.0
  0
SPLINE
  5
183
330
1F
100
AcDbEntity
  8
0
  6
Continuous
 62
     7
370
    25
100
AcDbSpline
210
0.0
220
0.0
230
1.0
 70
     8
 71
     3
 72
     9
 73
     5
 74
     0
 42
0.00000001
 43
0.00000001
 40
0.0
 40
0.0
 40
0.0
 40
0.0
 40
0.5599944748469416
 40
1.0
 40
1.0
 40
1.0
 40
1.0
 10
579.3016690366201
 20
355.326195767562
 30
0.0
 10
579.4242890881615
 20
352.9265959135857
 30
0.0
 10
579.6432556263132
 20
348.6415538966405
 30
0.0
 10
579.8351938639651
 20
344.3552273269196
 30
0.0
 10
579.9196477490201
 20
342.469219953632
 30
0.0
  0
SPLINE
  5
184
330
1F
100
AcDbEntity
  8
0
  6
Continuous
 62
     7
370
    25
100
AcDbSpline
210
0.0
220
0.0
230
1.0
 70
     8
 71
     3
 72
    21
 73
    17
 74
     0
 42
0.00000001
 43
0.00000001
 40
0.0
 40
0.0
 40
0.0
 40
0.0
 40
0.0633646042840484
 40
0.1261214773744583
 40
0.1882700170862814
 40
0.249809645839893
 40
0.3332039009694145
 40
0.4162976723854658
 40
0.4990897877943866
 40
0.5611246472413748
 40
0.6233594116889174
 40
0.6857935877938346
 40
0.7484266738532311
 40
0.8311118038207324
 40
0.9149700748681071
 40
1.0
 40
1.0
 40
1.0
 40
1.0
 10
201.0615571082278
 20
111.39526238598
 30
0.0
 10
198.2878351335741
 20
111.7405931574377
 30
0.0
 10
192.7669940074913
 20
112.427942625981
 30
0.0
 10
184.6843091252415
 20
114.3850971920868
 30
0.0
 10
176.874360934503
 20
116.9732610751022
 30
0.0
 10
168.4893127094644
 20
120.6130133649236
 30
0.0
 10
159.705183405463
 20
125.5510136645854
 30
0.0
 10
150.8089842036759
 20
132.0458233847475
 30
0.0
 10
143.429020219959
 20
138.9006355118576
 30
0.0
 10
137.4072797904174
 20
145.7759256137646
 30
0.0
 10
132.5445907388406
 20
152.4305246307391
 30
0.0
 10
128.2774600639616
 20
159.5120240285969
 30
0.0
 10
124.2556876916821
 20
167.754865462507
 30
0.0
 10
120.7995961856263
 20
177.2682725537736
 30
0.0
 10
118.1697513916743
 20
188.0831763143032
 30
0.0
 10
117.5278749236493
 20
195.5095122349346
 30
0.0
 10
117.204710195416
 20
199.2484401270018
 30
0.0
  0
LINE
  5
185
330
1F
100
AcDbEntity
  8
0
  6
Continuous
 62
     7
370
    25
100
AcDbLine
 10
200.4463716859
 20
105.1885699606
 30
0.0
 11
201.0615571082
 21
111.3952623859
 31
0.0
  0
LINE
  5
186
330
1F
100
AcDbEntity
  8
0
  6
Continuous
 62
     7
370
    25
100
AcDbLine
 10
496.2303667797
 20
105.1885699606
 30
0.0
 11
495.6151813575
 21
111.3952623859
 31
0.0
  0
SPLINE
  5
187
330
1F
100
AcDbEntity
  8
0
  6
Continuous
 62
     7
370
    25
100
AcDbSpline
210
0.0
220
0.0
230
1.0
 70
     8
 71
     3
 72
    21
 73
    17
 74
     0
 42
0.00000001
 43
0.00000001
 40
0.0
 40
0.0
 40
0.0
 40
0.0
 40
0.0634332410372855
 40
0.1262120558452023
 40
0.1883358267647676
 40
0.249803962486766
 40
0.3332607287311715
 40
0.4163545363014295
 40
0.4990842026367208
 40
0.5611719286771969
 40
0.6234249015935541
 40
0.6858426311864545
 40
0.7484246203347268
 40
0.8311936344211829
 40
0.9150525771398184
 40
1.0
 40
1.0
 40
1.0
 40
1.0
 10
579.4720282702241
 20
199.2484401270018
 30
0.0
 10
579.2558123407525
 20
196.4586585231486
 30
0.0
 10
578.8256111320667
 20
190.9078768537323
 30
0.0
 10
577.2451195081513
 20
182.7402562079317
 30
0.0
 10
575.0231362368875
 20
174.8218105755254
 30
0.0
 10
571.7776261890428
 20
166.2781081882028
 30
0.0
 10
567.2534939929467
 20
157.274265013815
 30
0.0
 10
561.1788683595377
 20
148.0860457307956
 30
0.0
 10
554.6748485114379
 20
140.395759865513
 30
0.0
 10
548.0866733813948
 20
134.0605858419785
 30
0.0
 10
541.6632027375244
 20
128.8925569501128
 30
0.0
 10
534.7893157510906
 20
124.3023463293394
 30
0.0
 10
526.7417206160985
 20
119.9013597883262
 30
0.0
 10
517.3977194826111
 20
116.0063297203588
 30
0.0
 10
506.7163667284453
 20
112.8774237085093
 30
0.0
 10
499.3314493736003
 20
111.8914354101796
 30
0.0
 10
495.6151813574122
 20
111.39526238598
 30
0.0
  0
SPLINE
  5
188
330
1F
100
AcDbEntity
  8
0
  6
Continuous
 62
     7
370
    25
100
AcDbSpline
210
0.0
220
0.0
230
1.0
 70
     8
 71
     3
 72
    20
 73
    16
 74
     0
 42
0.00000001
 43
0.00000001
 40
0.0
 40
0.0
 40
0.0
 40
0.0
 40
0.0845623084699199
 40
0.1658226463510536
 40
0.2449390284409273
 40
0.3236716609082476
 40
0.4012497137117085
 40
0.4790354499086177
 40
0.5565129517523941
 40
0.6279810421825318
 40
0.6994190062052712
 40
0.7718135732111205
 40
0.8455337087959381
 40
0.9211035486394634
 40
1.0
 40
1.0
 40
1.0
 40
1.0
 10
495.615181357381
 20
111.395262386292
 30
0.0
 10
487.3363737663527
 20
110.6304248779528
 30
0.0
 10
471.1020276585493
 20
109.1306150695858
 30
0.0
 10
447.0779716440984
 20
107.4081022476906
 30
0.0
 10
423.6029423401096
 20
106.0645723349206
 30
0.0
 10
400.4695954285218
 20
105.1021418540337
 30
0.0
 10
377.4540685393087
 20
104.4908275460494
 30
0.0
 10
354.5545597318886
 20
104.2265399911144
 30
0.0
 10
332.2544406797143
 20
104.3029758263575
 30
0.0
 10
310.582509754402
 20
104.6885903648061
 30
0.0
 10
289.418510444702
 20
105.3577497020873
 30
0.0
 10
268.0456344323226
 20
106.3296005418842
 30
0.0
 10
246.2851632593609
 20
107.6341832699172
 30
0.0
 10
223.9074247204332
 20
109.2772954195606
 30
0.0
 10
208.7854030960312
 20
110.6792094468315
 30
0.0
 10
201.0615571082586
 20
111.395262386292
 30
0.0
  0
LINE
  5
189
330
1F
100
AcDbEntity
  8
0
  6
Continuous
 62
     7
370
    25
100
AcDbLine
 10
274.1383632828
 20
452.9629875269
 30
0.0
 11
274.1087301634
 21
453.560843677
 31
0.0
  0
LWPOLYLINE
  5
18A
330
1F
100
AcDbEntity
  8
0
  6
Continuous
 62
     7
370
    25
100
AcDbPolyline
 90
        3
 70
   128
 43
0.0
 10
274.1087309422
 20
454.1761676216
 10
274.1087307573
 20
454.0904656061
 10
274.1087242442
 20
453.560843385
  0
LINE
  5
18B
330
1F
100
AcDbEntity
  8
0
  6
Continuous
 62
     7
370
    25
100
AcDbLine
 10
284.4383641087
 20
453.4384276412
 30
0.0
 11
284.4128444817
 21
454.0364755493
 31
0.0
  0
LWPOLYLINE
  5
18C
330
1F
100
AcDbEntity
  8
0
  6
Continuous
 62
     7
370
    25
100
AcDbPolyline
 90
        3
 70
   128
 43
0.0
 10
284.4128451521
 20
454.6501519955
 10
284.4128449948
 20
454.5659289384
 10
284.4128393909
 20
454.0364753331
  0
LINE
  5
18D
330
1F
100
AcDbEntity
  8
0
  6
Continuous
 62
     7
370
    25
100
AcDbLine
 10
308.0383681556
 20
454.2600200794
 30
0.0
 11
308.0222682708
 21
454.8584001612
 31
0.0
  0
LWPOLYLINE
  5
18E
330
1F
100
AcDbEntity
  8
0
  6
Continuous
 62
     7
370
    25
100
AcDbPolyline
 90
        3
 70
   128
 43
0.0
 10
308.022271935
 20
455.4684187352
 10
308.0222716896
 20
455.3875626371
 10
308.0222682708
 20
454.8584001612
  0
SPLINE
  5
18F
330
1F
100
AcDbEntity
  8
0
  6
Continuous
 62
     7
370
    25
100
AcDbSpline
210
0.0
220
0.0
230
1.0
 70
     8
 71
     3
 72
     9
 73
     5
 74
     0
 42
0.00000001
 43
0.00000001
 40
0.0
 40
0.0
 40
0.0
 40
0.0
 40
0.5599997522682837
 40
1.0
 40
1.0
 40
1.0
 40
1.0
 10
318.33836843093
 20
454.5018527163019
 30
0.0
 10
318.3361316550459
 20
454.6135855386859
 30
0.0
 10
318.3321374106287
 20
454.8131085240648
 30
0.0
 10
318.3281415827823
 20
455.0125686993596
 30
0.0
 10
318.3263834175401
 20
455.100331225902
 30
0.0
  0
LWPOLYLINE
  5
190
330
1F
100
AcDbEntity
  8
0
  6
Continuous
 62
     7
370
    25
100
AcDbPolyline
 90
        3
 70
   128
 43
0.0
 10
318.3263853741
 20
455.7088036633
 10
318.3263850911
 20
455.6295864384
 10
318.3263834175
 20
455.1003312259
  0
LINE
  5
191
330
1F
100
AcDbEntity
  8
0
  6
Continuous
 62
     7
370
    25
100
AcDbLine
 10
274.1087242442
 20
453.5608433847
 30
0.0
 11
274.0040075429
 21
453.518817828
 31
0.0
  0
SPLINE
  5
192
330
1F
100
AcDbEntity
  8
0
  6
Continuous
 62
     7
370
    25
100
AcDbSpline
210
0.0
220
0.0
230
1.0
 70
     8
 71
     3
 72
    14
 73
    10
 74
     0
 42
0.00000001
 43
0.00000001
 40
0.0
 40
0.0
 40
0.0
 40
0.0
 40
0.1540412899417903
 40
0.30797998161182
 40
0.4615190438142365
 40
0.6146163798497819
 40
0.7674806640165454
 40
0.9204318690251232
 40
1.0
 40
1.0
 40
1.0
 40
1.0
 10
273.8873995511186
 20
453.4720199847646
 30
0.0
 10
273.7011910451766
 20
453.4393137770566
 30
0.0
 10
273.3288980563445
 20
453.3739231454129
 30
0.0
 10
272.3369222321452
 20
453.2795042591358
 30
0.0
 10
271.2046736017497
 20
453.2056804385184
 30
0.0
 10
270.0603217697738
 20
453.1621912601178
 30
0.0
 10
269.1143424359904
 20
453.1577612306912
 30
0.0
 10
268.5191650502497
 20
453.1820514370661
 30
0.0
 10
268.4396632896476
 20
453.2177799598699
 30
0.0
 10
268.4124577823139
 20
453.2300062625555
 30
0.0
  0
LINE
  5
193
330
1F
100
AcDbEntity
  8
0
  6
Continuous
 62
     7
370
    25
100
AcDbLine
 10
284.4128393909
 20
454.0364753328
 30
0.0
 11
284.3079926904
 21
453.9951329106
 31
0.0
  0
SPLINE
  5
194
330
1F
100
AcDbEntity
  8
0
  6
Continuous
 62
     7
370
    25
100
AcDbSpline
210
0.0
220
0.0
230
1.0
 70
     8
 71
     3
 72
    14
 73
    10
 74
     0
 42
0.00000001
 43
0.00000001
 40
0.0
 40
0.0
 40
0.0
 40
0.0
 40
0.1539851730249803
 40
0.3078272852702651
 40
0.4612832064767833
 40
0.6143567742888159
 40
0.7672686829210046
 40
0.9203097818528195
 40
1.0
 40
1.0
 40
1.0
 40
1.0
 10
284.1915006789455
 20
453.9491985904049
 30
0.0
 10
284.0053412885734
 20
453.9177917435839
 30
0.0
 10
283.6331954602441
 20
453.8550072286472
 30
0.0
 10
282.6415057207096
 20
453.7674597082957
 30
0.0
 10
281.5094862893361
 20
453.7014528454778
 30
0.0
 10
280.3651242206449
 20
453.6658365135231
 30
0.0
 10
279.4188663252726
 20
453.6678980484924
 30
0.0
 10
278.8233361447998
 20
453.6962771717952
 30
0.0
 10
278.7437672998702
 20
453.7325661165017
 30
0.0
 10
278.7165218965022
 20
453.7449919213151
 30
0.0
  0
SPLINE
  5
195
330
1F
100
AcDbEntity
  8
0
  6
Continuous
 62
     7
370
    25
100
AcDbSpline
210
0.0
220
0.0
230
1.0
 70
     8
 71
     3
 72
    15
 73
    11
 74
     0
 42
0.00000001
 43
0.00000001
 40
0.0
 40
0.0
 40
0.0
 40
0.0
 40
0.0747400724929604
 40
0.2170815115037971
 40
0.3592257370558276
 40
0.5010554770525585
 40
0.6426568184448443
 40
0.7842451684455537
 40
0.9260221329097323
 40
1.0
 40
1.0
 40
1.0
 40
1.0
 10
307.9171445915948
 20
454.8186254419946
 30
0.0
 10
307.8895343336824
 20
454.8040217240501
 30
0.0
 10
307.8093407197255
 20
454.7616054263507
 30
0.0
 10
307.2107136891025
 20
454.6892250878037
 30
0.0
 10
306.2607155866383
 20
454.617567212622
 30
0.0
 10
305.1181985173711
 20
454.5693761457559
 30
0.0
 10
303.9766849461015
 20
454.5517901020509
 30
0.0
 10
303.029002530465
 20
454.5687259717325
 30
0.0
 10
302.4328809170747
 20
454.6064911176345
 30
0.0
 10
302.3531510539786
 20
454.6440723196521
 30
0.0
 10
302.325813333786
 20
454.65695813615
 30
0.0
  0
SPLINE
  5
196
330
1F
100
AcDbEntity
  8
0
  6
Continuous
 62
     7
370
    25
100
AcDbSpline
210
0.0
220
0.0
230
1.0
 70
     8
 71
     3
 72
    15
 73
    11
 74
     0
 42
0.00000001
 43
0.00000001
 40
0.0
 40
0.0
 40
0.0
 40
0.0
 40
0.0746718687402404
 40
0.2169581858025962
 40
0.3590280696433276
 40
0.5008084020825686
 40
0.6424148745225933
 40
0.7840615673224134
 40
0.9259180753024058
 40
1.0
 40
1.0
 40
1.0
 40
1.0
 10
318.2211659430048
 20
455.0612484250395
 30
0.0
 10
318.193581839348
 20
455.0468506837773
 30
0.0
 10
318.113436569284
 20
455.0050182256294
 30
0.0
 10
317.5150712832197
 20
454.9367898896192
 30
0.0
 10
316.5653466520507
 20
454.8716836986789
 30
0.0
 10
315.4230084149622
 20
454.8313501200637
 30
0.0
 10
314.2814335134539
 20
454.8216008580501
 30
0.0
 10
313.3334739501335
 20
454.8450394365289
 30
0.0
 10
312.7370260265654
 20
454.886907345056
 30
0.0
 10
312.6572347897592
 20
454.9250560939828
 30
0.0
 10
312.6298608372704
 20
454.9381437723098
 30
0.0
  0
SPLINE
  5
197
330
1F
100
AcDbEntity
  8
0
  6
Continuous
 62
     7
370
    25
100
AcDbSpline
210
0.0
220
0.0
230
1.0
 70
     8
 71
     3
 72
    16
 73
    12
 74
     0
 42
0.00000001
 43
0.00000001
 40
0.0
 40
0.0
 40
0.0
 40
0.0
 40
0.1119870940595147
 40
0.2236626840366812
 40
0.3354122138551154
 40
0.4472056450085012
 40
0.5590114311883906
 40
0.6688066333044627
 40
0.7785381431683085
 40
0.8881628549276069
 40
1.0
 40
1.0
 40
1.0
 40
1.0
 10
204.35384503442
 20
158.981022633202
 30
0.0
 10
202.0585364344866
 20
159.3230663470619
 30
0.0
 10
197.4743038810395
 20
160.0062023436004
 30
0.0
 10
190.9128431662668
 20
162.3902920331919
 30
0.0
 10
184.7929284398074
 20
165.6971908895025
 30
0.0
 10
179.2700601228362
 20
169.9465141452951
 30
0.0
 10
174.5105785043393
 20
174.9751722180968
 30
0.0
 10
170.6111306717503
 20
180.6479466155073
 30
0.0
 10
167.6736606801598
 20
186.8132670052435
 30
0.0
 10
165.6339373894598
 20
193.3963354518082
 30
0.0
 10
165.1694129311431
 20
197.9618748348788
 30
0.0
 10
164.93483037152
 20
200.267449698302
 30
0.0
  0
LWPOLYLINE
  5
198
330
1F
100
AcDbEntity
  8
0
  6
Continuous
 62
     7
370
    25
100
AcDbPolyline
 90
       18
 70
   128
 43
0.0
 10
204.353845033
 20
158.9810226333
 10
203.9518704419
 20
154.7321229766
 10
203.5647932245
 20
150.5294580443
 10
203.1954549245
 20
146.4038797065
 10
202.8465668638
 20
142.3856739387
 10
202.5206902385
 20
138.5043384918
 10
202.2202173172
 20
134.7883663478
 10
201.9473538793
 20
131.2650365528
 10
201.7041030222
 20
127.9602139606
 10
201.4922504565
 20
124.8981593576
 10
201.3133513975
 20
122.1013513648
 10
201.1687191476
 20
119.5903214206
 10
201.0594154559
 20
117.3835030597
 10
200.9862427235
 20
115.4970965919
 10
200.9497381133
 20
113.9449501751
 10
200.9501696066
 20
112.7384581555
 10
200.9875340359
 20
111.8864774217
 10
201.0615571078
 20
111.395262386
  0
LWPOLYLINE
  5
199
330
1F
100
AcDbEntity
  8
0
  6
Continuous
 62
     7
370
    25
100
AcDbPolyline
 90
       18
 70
   128
 43
0.0
 10
164.9348303715
 20
200.2674496984
 10
160.6691862726
 20
200.0640042517
 10
156.4501759652
 20
199.8737239419
 10
152.3088051805
 20
199.6980071491
 10
148.2755090727
 20
199.5381452253
 10
144.3799285494
 20
199.3953130044
 10
140.6506924391
 20
199.2705601679
 10
137.1152070963
 20
199.164803531
 10
133.7994549908
 20
199.0788203049
 10
130.7278037614
 20
199.0132423849
 10
127.9228271361
 20
198.9685517066
 10
125.4051390375
 20
198.9450767042
 10
123.1932420893
 20
198.9429898967
 10
121.3033916399
 20
198.9623066203
 10
119.7494763006
 20
199.0028849151
 10
118.542915878
 20
199.0644265693
 10
117.6925774488
 20
199.14647931
 10
117.2047101954
 20
199.2484401271
  0
SPLINE
  5
19A
330
1F
100
AcDbEntity
  8
0
  6
Continuous
 62
     7
370
    25
100
AcDbSpline
210
0.0
220
0.0
230
1.0
 70
     8
 71
     3
 72
    16
 73
    12
 74
     0
 42
0.00000001
 43
0.00000001
 40
0.0
 40
0.0
 40
0.0
 40
0.0
 40
0.1119661427176779
 40
0.2236126880777563
 40
0.33533976356293
 40
0.4471302064848554
 40
0.5589375254590951
 40
0.6687302259592527
 40
0.7784892567995035
 40
0.8881387916538213
 40
1.0
 40
1.0
 40
1.0
 40
1.0
 10
531.74190809412
 20
200.267449698202
 30
0.0
 10
531.506806673571
 20
197.9592451165033
 30
0.0
 10
531.0372749084871
 20
193.3494245169985
 30
0.0
 10
528.9602905751649
 20
186.686124746645
 30
0.0
 10
525.9409431604238
 20
180.4207413992944
 30
0.0
 10
521.9521845266667
 20
174.7075149891402
 30
0.0
 10
517.1492689942036
 20
169.7204346402754
 30
0.0
 10
511.662642358111
 20
165.5621537533581
 30
0.0
 10
505.6389822521245
 20
162.3417069541014
 30
0.0
 10
499.1558702051944
 20
159.9985187919042
 30
0.0
 10
494.6156629196482
 20
159.3224381280992
 30
0.0
 10
492.32289343242
 20
158.981022633302
 30
0.0
  0
LWPOLYLINE
  5
19B
330
1F
100
AcDbEntity
  8
0
  6
Continuous
 62
     7
370
    25
100
AcDbPolyline
 90
       18
 70
   128
 43
0.0
 10
531.7419080941
 20
200.2674496981
 10
536.007552193
 20
200.0640042514
 10
540.2265625004
 20
199.8737239416
 10
544.3679332851
 20
199.6980071487
 10
548.4012293929
 20
199.538145225
 10
552.2968099163
 20
199.395313004
 10
556.0260460266
 20
199.2705601674
 10
559.5615313694
 20
199.1648035305
 10
562.8772834748
 20
199.0788203044
 10
565.9489347043
 20
199.0132423844
 10
568.7539113295
 20
198.9685517061
 10
571.2715994281
 20
198.9450767037
 10
573.4834963763
 20
198.9429898962
 10
575.3733468258
 20
198.9623066197
 10
576.927262165
 20
199.0028849146
 10
578.1338225876
 20
199.0644265688
 10
578.9841610168
 20
199.1464793094
 10
579.4720282702
 20
199.2484401265
  0
LWPOLYLINE
  5
19C
330
1F
100
AcDbEntity
  8
0
  6
Continuous
 62
     7
370
    25
100
AcDbPolyline
 90
       18
 70
   128
 43
0.0
 10
492.3228934323
 20
158.9810226333
 10
492.7248680234
 20
154.7321229766
 10
493.1119452408
 20
150.5294580442
 10
493.4812835408
 20
146.4038797064
 10
493.8301716014
 20
142.3856739387
 10
494.1560482267
 20
138.5043384917
 10
494.456521148
 20
134.7883663477
 10
494.7293845859
 20
131.2650365528
 10
494.972635443
 20
127.9602139605
 10
495.1844880086
 20
124.8981593575
 10
495.3633870677
 20
122.1013513647
 10
495.5080193175
 20
119.5903214205
 10
495.6173230093
 20
117.3835030596
 10
495.6904957417
 20
115.4970965918
 10
495.7270003518
 20
113.944950175
 10
495.7265688585
 20
112.7384581554
 10
495.6892044292
 20
111.8864774216
 10
495.6151813573
 20
111.3952623859
  0
SPLINE
  5
19D
330
1F
100
AcDbEntity
  8
0
  6
Continuous
 62
     7
370
    25
100
AcDbSpline
210
0.0
220
0.0
230
1.0
 70
     8
 71
     3
 72
    21
 73
    17
 74
     0
 42
0.00000001
 43
0.00000001
 40
0.0
 40
0.0
 40
0.0
 40
0.0
 40
0.0736881289689786
 40
0.1449337186130338
 40
0.214727674198324
 40
0.2836445219538532
 40
0.3521228322643011
 40
0.420378946999034
 40
0.4886093767287136
 40
0.5568401045953022
 40
0.6283818287954773
 40
0.7002080086480778
 40
0.772615220221929
 40
0.8461578130929595
 40
0.9216173338349674
 40
1.0
 40
1.0
 40
1.0
 40
1.0
 10
492.32289343242
 20
158.981022633302
 30
0.0
 10
485.2724328448189
 20
158.2891827500677
 30
0.0
 10
471.4052131828045
 20
156.9284353900123
 30
0.0
 10
450.8240789586588
 20
155.2863531949185
 30
0.0
 10
430.6800554906413
 20
153.9441352650298
 30
0.0
 10
410.7829629322713
 20
152.9043542424869
 30
0.0
 10
391.0198970167801
 20
152.1496702100961
 30
0.0
 10
371.3131606969455
 20
151.6781289379321
 30
0.0
 10
351.6249946235216
 20
151.4891897364822
 30
0.0
 10
331.6200842041856
 20
151.5851024895043
 30
0.0
 10
311.2732811416464
 20
151.9818353789462
 30
0.0
 10
290.5341832495236
 20
152.6971817304096
 30
0.0
 10
269.6168974958215
 20
153.7285424739674
 30
0.0
 10
248.370728762499
 20
155.098189473337
 30
0.0
 10
226.5737135613536
 20
156.8065396648906
 30
0.0
 10
211.853699222882
 20
158.2470711618933
 30
0.0
 10
204.35384503442
 20
158.981022633202
 30
0.0
  0
SPLINE
  5
19E
330
1F
100
AcDbEntity
  8
0
  6
Continuous
 62
     7
370
    25
100
AcDbSpline
210
0.0
220
0.0
230
1.0
 70
     8
 71
     3
 72
    13
 73
     9
 74
     0
 42
0.00000001
 43
0.00000001
 40
0.0
 40
0.0
 40
0.0
 40
0.0
 40
0.1612058327730246
 40
0.3212575826864681
 40
0.4827030727757584
 40
0.6469448502575023
 40
0.8187482477742145
 40
1.0
 40
1.0
 40
1.0
 40
1.0
 10
532.7057941085196
 20
340.2917760999019
 30
0.0
 10
532.9950195998679
 20
332.7684387673904
 30
0.0
 10
533.5713999987872
 20
317.7756241551514
 30
0.0
 10
533.9683322592091
 20
295.2352019332424
 30
0.0
 10
534.0300246018423
 20
272.5516797543477
 30
0.0
 10
533.7045321209031
 20
249.3235138942617
 30
0.0
 10
533.0036125250942
 20
225.1796507702186
 30
0.0
 10
532.1699133062212
 20
208.7183607372904
 30
0.0
 10
531.741908094117
 20
200.2674496982042
 30
0.0
  0
LWPOLYLINE
  5
19F
330
1F
100
AcDbEntity
  8
0
  6
Continuous
 62
     7
370
    25
100
AcDbPolyline
 90
       18
 70
   128
 43
0.0
 10
532.7057941085
 20
340.2917761
 10
536.9420229837
 20
340.4784954821
 10
541.1285167883
 20
340.6638597694
 10
545.2348925143
 20
340.8465237012
 10
549.2313486015
 20
341.0251616147
 10
553.0888812194
 20
341.1984770653
 10
556.7794947587
 20
341.3652122356
 10
560.2764050066
 20
341.5241570638
 10
563.5542335302
 20
341.6741580257
 10
566.5891918577
 20
341.8141265063
 10
569.3592541201
 20
341.9430467
 10
571.8443169021
 20
342.059982983
 10
574.0263451401
 20
342.1640867034
 10
575.8895030093
 20
342.2546023401
 10
577.4202688512
 20
342.330872986
 10
578.6075333046
 20
342.3923451156
 10
579.4426799315
 20
342.4385726018
 10
579.9196477489
 20
342.4692199537
  0
SPLINE
  5
1A0
330
1F
100
AcDbEntity
  8
0
  6
Continuous
 62
     7
370
    25
100
AcDbSpline
210
0.0
220
0.0
230
1.0
 70
     8
 71
     3
 72
    13
 73
     9
 74
     0
 42
0.00000001
 43
0.00000001
 40
0.0
 40
0.0
 40
0.0
 40
0.0
 40
0.1756686544187007
 40
0.3446760903891394
 40
0.5085401613348022
 40
0.670381458253919
 40
0.8321319899542241
 40
1.0
 40
1.0
 40
1.0
 40
1.0
 10
164.9348303715225
 20
200.267449698304
 30
0.0
 10
164.5188215660865
 20
208.4579674794344
 30
0.0
 10
163.7025786848528
 20
224.5284249916442
 30
0.0
 10
162.9973759963114
 20
248.2629425511209
 30
0.0
 10
162.6538914679113
 20
271.3610231029082
 30
0.0
 10
162.696689325778
 20
294.124667146134
 30
0.0
 10
163.0825586315817
 20
317.0742999252051
 30
0.0
 10
163.6711743565805
 20
332.4574507102134
 30
0.0
 10
163.9709443571205
 20
340.2917760999019
 30
0.0
  0
LWPOLYLINE
  5
1A1
330
1F
100
AcDbEntity
  8
0
  6
Continuous
 62
     7
370
    25
100
AcDbPolyline
 90
       18
 70
   128
 43
0.0
 10
163.9709443571
 20
340.2917760999
 10
159.7347154819
 20
340.4784954821
 10
155.5482216773
 20
340.6638597693
 10
151.4418459514
 20
340.8465237011
 10
147.4453898641
 20
341.0251616146
 10
143.5878572462
 20
341.1984770652
 10
139.897243707
 20
341.3652122355
 10
136.400333459
 20
341.5241570637
 10
133.1225049354
 20
341.6741580257
 10
130.087546608
 20
341.8141265062
 10
127.3174843456
 20
341.9430466999
 10
124.8324215635
 20
342.0599829829
 10
122.6503933256
 20
342.1640867033
 10
120.7872354563
 20
342.25460234
 10
119.2564696145
 20
342.3308729859
 10
118.069205161
 20
342.3923451155
 10
117.2340585342
 20
342.4385726017
 10
116.7570907167
 20
342.4692199536
  0
SPLINE
  5
1A2
330
1F
100
AcDbEntity
  8
0
  6
Continuous
 62
     7
370
    25
100
AcDbSpline
210
0.0
220
0.0
230
1.0
 70
     8
 71
     3
 72
    16
 73
    12
 74
     0
 42
0.00000001
 43
0.00000001
 40
0.0
 40
0.0
 40
0.0
 40
0.0
 40
0.1114269995102496
 40
0.2226191744437608
 40
0.3340362685037781
 40
0.4456474838648909
 40
0.5574271169659858
 40
0.6673592128046911
 40
0.7773944402527903
 40
0.887472922575792
 40
1.0
 40
1.0
 40
1.0
 40
1.0
 10
493.12009209402
 20
394.185225789892
 30
0.0
 10
495.3915202008034
 20
393.8448486621712
 30
0.0
 10
499.9295895391411
 20
393.1648117276238
 30
0.0
 10
506.4235491627342
 20
390.7849151045382
 30
0.0
 10
512.4811404248803
 20
387.4823736337715
 30
0.0
 10
517.9477875009385
 20
383.2366125889624
 30
0.0
 10
522.6576133854712
 20
378.2105303961794
 30
0.0
 10
526.5142101118086
 20
372.5383746666946
 30
0.0
 10
529.4158462859491
 20
366.3708357038317
 30
0.0
 10
531.4257715844755
 20
359.7799958603223
 30
0.0
 10
531.8751454387552
 20
355.2089732696658
 30
0.0
 10
532.10230385542
 20
352.8983220282919
 30
0.0
  0
LWPOLYLINE
  5
1A3
330
1F
100
AcDbEntity
  8
0
  6
Continuous
 62
     7
370
    25
100
AcDbPolyline
 90
       18
 70
   128
 43
0.0
 10
493.1200920942
 20
394.1852257899
 10
493.5200616726
 20
398.5030496101
 10
493.8984828846
 20
402.7813578541
 10
494.2524969313
 20
406.9878298631
 10
494.5794293987
 20
411.0906876687
 10
494.876810462
 20
415.0589360599
 10
495.1423935433
 20
418.8625967384
 10
495.3741722842
 20
422.4729347906
 10
495.5703957026
 20
425.8626757667
 10
495.7295814203
 20
429.0062117267
 10
495.8505268623
 20
431.8797946969
 10
495.9323183411
 20
434.4617160745
 10
495.9743379597
 20
436.7324706266
 10
495.9762682789
 20
438.6749038429
 10
495.9380947163
 20
440.2743415305
 10
495.8601056554
 20
441.5187006706
 10
495.742890268
 20
442.3985806999
 10
495.5873340626
 20
442.907334528
  0
LWPOLYLINE
  5
1A4
330
1F
100
AcDbEntity
  8
0
  6
Continuous
 62
     7
370
    25
100
AcDbPolyline
 90
       18
 70
   128
 43
0.0
 10
532.1023038554
 20
352.8983220283
 10
536.3367376295
 20
353.1193471697
 10
540.5214968555
 20
353.3374686485
 10
544.6262129258
 20
353.551103567
 10
548.6210981024
 20
353.7587015863
 10
552.4771616848
 20
353.9587561769
 10
556.166420395
 20
354.1498155519
 10
559.6621014499
 20
354.330493202
 10
562.938836851
 20
354.4994779577
 10
565.9728474782
 20
354.6555435043
 10
568.7421156543
 20
354.7975572812
 10
571.2265449259
 20
354.9244887009
 10
573.4081059026
 20
355.0354166279
 10
575.2709670955
 20
355.1295360633
 10
576.8016098055
 20
355.2061639864
 10
577.9889262281
 20
355.2647443121
 10
578.8243000617
 20
355.3048519255
 10
579.3016690366
 20
355.3261957676
  0
SPLINE
  5
1A5
330
1F
100
AcDbEntity
  8
0
  6
Continuous
 62
     7
370
    25
100
AcDbSpline
210
0.0
220
0.0
230
1.0
 70
     8
 71
     3
 72
    16
 73
    12
 74
     0
 42
0.00000001
 43
0.00000001
 40
0.0
 40
0.0
 40
0.0
 40
0.0
 40
0.1126028836581987
 40
0.2247036933599014
 40
0.3367348571830187
 40
0.4486575597880591
 40
0.5604281183110152
 40
0.6700402228182768
 40
0.7794556794425735
 40
0.8886360034398544
 40
0.9999999999999999
 40
0.9999999999999999
 40
0.9999999999999999
 40
0.9999999999999999
 10
164.57443461022
 20
352.8983220282919
 30
0.0
 10
164.801944413447
 20
355.2105008542572
 30
0.0
 10
165.2559495987482
 20
359.8245489587448
 30
0.0
 10
167.3017142478212
 20
366.4945308346199
 30
0.0
 10
170.283775659856
 20
372.7622224519099
 30
0.0
 10
174.2283804539818
 20
378.4751137035239
 30
0.0
 10
178.9810428504357
 20
383.4601418533061
 30
0.0
 10
184.4114217084985
 20
387.6152334650662
 30
0.0
 10
190.3734073167541
 20
390.8318824337528
 30
0.0
 10
196.7906127530852
 20
393.171902225035
 30
0.0
 10
201.2864635959548
 20
393.8452290011002
 30
0.0
 10
203.55664637162
 20
394.185225789882
 30
0.0
  0
LWPOLYLINE
  5
1A6
330
1F
100
AcDbEntity
  8
0
  6
Continuous
 62
     7
370
    25
100
AcDbPolyline
 90
       18
 70
   128
 43
0.0
 10
164.5744346102
 20
352.8983220285
 10
160.3400008361
 20
353.11934717
 10
156.1552416101
 20
353.3374686488
 10
152.0505255398
 20
353.5511035673
 10
148.0556403633
 20
353.7587015865
 10
144.1995767808
 20
353.9587561772
 10
140.5103180707
 20
354.1498155522
 10
137.0146370158
 20
354.3304932023
 10
133.7379016147
 20
354.499477958
 10
130.7038909874
 20
354.6555435047
 10
127.9346228113
 20
354.7975572816
 10
125.4501935398
 20
354.9244887014
 10
123.2686325631
 20
355.0354166284
 10
121.4057713702
 20
355.1295360637
 10
119.8751286601
 20
355.2061639869
 10
118.6878122376
 20
355.2647443126
 10
117.8524384039
 20
355.304851926
 10
117.375069429
 20
355.326195768
  0
LWPOLYLINE
  5
1A7
330
1F
100
AcDbEntity
  8
0
  6
Continuous
 62
     7
370
    25
100
AcDbPolyline
 90
       18
 70
   128
 43
0.0
 10
203.5566463712
 20
394.1852257898
 10
203.1566767928
 20
398.5030496101
 10
202.7782555808
 20
402.781357854
 10
202.4242415342
 20
406.9878298631
 10
202.0973090667
 20
411.0906876687
 10
201.7999280035
 20
415.0589360599
 10
201.5343449222
 20
418.8625967384
 10
201.3025661813
 20
422.4729347906
 10
201.106342763
 20
425.8626757667
 10
200.9471570452
 20
429.0062117267
 10
200.8262116033
 20
431.8797946969
 10
200.7444201244
 20
434.4617160745
 10
200.7024005059
 20
436.7324706266
 10
200.7004701867
 20
438.6749038429
 10
200.7386437493
 20
440.2743415305
 10
200.8166328102
 20
441.5187006706
 10
200.9338481976
 20
442.3985806999
 10
201.089404403
 20
442.907334528
  0
SPLINE
  5
1A8
330
1F
100
AcDbEntity
  8
0
  6
Continuous
 62
     7
370
    25
100
AcDbSpline
210
0.0
220
0.0
230
1.0
 70
     8
 71
     3
 72
     9
 73
     5
 74
     0
 42
0.00000001
 43
0.00000001
 40
0.0
 40
0.0
 40
0.0
 40
0.0
 40
0.5600008500366733
 40
1.0
 40
1.0
 40
1.0
 40
1.0
 10
532.10230385542
 20
352.8983220282919
 30
0.0
 10
532.2227952596515
 20
350.5454675412633
 30
0.0
 10
532.4379581548931
 20
346.343948049151
 30
0.0
 10
532.6239554547066
 20
342.1410483811872
 30
0.0
 10
532.7057941085201
 20
340.2917760999019
 30
0.0
  0
SPLINE
  5
1A9
330
1F
100
AcDbEntity
  8
0
  6
Continuous
 62
     7
370
    25
100
AcDbSpline
210
0.0
220
0.0
230
1.0
 70
     8
 71
     3
 72
     9
 73
     5
 74
     0
 42
0.00000001
 43
0.00000001
 40
0.0
 40
0.0
 40
0.0
 40
0.0
 40
0.5598117880608033
 40
1.0
 40
1.0
 40
1.0
 40
1.0
 10
163.97094435712
 20
340.2917760999019
 30
0.0
 10
164.0757199255873
 20
342.6445828650574
 30
0.0
 10
164.2628820588288
 20
346.8474360656048
 30
0.0
 10
164.4792097226775
 20
351.0488910646981
 30
0.0
 10
164.57443461022
 20
352.8983220282919
 30
0.0
  0
SPLINE
  5
1AA
330
1F
100
AcDbEntity
  8
0
  6
Continuous
 62
     7
370
    25
100
AcDbSpline
210
0.0
220
0.0
230
1.0
 70
     8
 71
     3
 72
    38
 73
    34
 74
     0
 42
0.00000001
 43
0.00000001
 40
0.0
 40
0.0
 40
0.0
 40
0.0
 40
0.0286509063651046
 40
0.0540689540869398
 40
0.077584567386985
 40
0.100619990072679
 40
0.1243082920595202
 40
0.1545258096977847
 40
0.1827100491842144
 40
0.2111145996888229
 40
0.2480176518832408
 40
0.2821051854392003
 40
0.3137904334989808
 40
0.3438028747982997
 40
0.394796839428392
 40
0.4444368425413958
 40
0.4940585352876969
 40
0.5437012756761791
 40
0.5767806728140369
 40
0.6102004560036022
 40
0.6445319709675967
 40
0.680446514031059
 40
0.7188492799827411
 40
0.7608349769645872
 40
0.790596041422909
 40
0.82030608404864
 40
0.8515995197787051
 40
0.8842506134012725
 40
0.9042242485000329
 40
0.9245561755655726
 40
0.9466126353525195
 40
0.9715211540319045
 40
1.0
 40
1.0
 40
1.0
 40
1.0
 10
203.55664637162
 20
394.1852257898819
 30
0.0
 10
206.3124205597037
 20
394.4638472029337
 30
0.0
 10
211.5130179212918
 20
394.9896514549165
 30
0.0
 10
218.9802386483104
 20
395.6976519616045
 30
0.0
 10
225.9096532664811
 20
396.3270614862424
 30
0.0
 10
232.6751830563857
 20
396.9133482329224
 30
0.0
 10
240.0889426094519
 20
397.526140531491
 30
0.0
 10
248.0020046647499
 20
398.144146541352
 30
0.0
 10
256.3731191664302
 20
398.7574095764797
 30
0.0
 10
265.3923269943109
 20
399.3769955122265
 30
0.0
 10
274.9850107814981
 20
399.986220056322
 30
0.0
 10
284.8985699785562
 20
400.5605952497689
 30
0.0
 10
294.1504584043679
 20
401.0479418089012
 30
0.0
 10
305.0393527019086
 20
401.5642587636049
 30
0.0
 10
317.669514088313
 20
402.0671649369735
 30
0.0
 10
332.2043996398048
 20
402.4662458091751
 30
0.0
 10
346.6152508786091
 20
402.6299793704013
 30
0.0
 10
359.4241691515241
 20
402.5397626379997
 30
0.0
 10
370.6612373787678
 20
402.3023125856637
 30
0.0
 10
380.4133992221249
 20
402.0022121517842
 30
0.0
 10
390.43559303301
 20
401.6123337824804
 30
0.0
 10
400.9349790907011
 20
401.1305491930311
 30
0.0
 10
412.168999195311
 20
400.5430193823391
 30
0.0
 10
422.80355766113
 20
399.9186350120146
 30
0.0
 10
432.5945485987764
 20
399.2886013393548
 30
0.0
 10
441.3503990837775
 20
398.6839258993314
 30
0.0
 10
450.3813504858597
 20
398.0154328085121
 30
0.0
 10
458.4697855190701
 20
397.3738969299525
 30
0.0
 10
465.4988689701283
 20
396.784761159066
 30
0.0
 10
471.5053060624659
 20
396.2606080627622
 30
0.0
 10
477.9847140157723
 20
395.6704788646276
 30
0.0
 10
485.2458348393102
 20
394.9814082028765
 30
0.0
 10
490.3808696751022
 20
394.4621942257265
 30
0.0
 10
493.12009209402
 20
394.185225789892
 30
0.0
  0
ARC
  5
1AB
330
1F
100
AcDbEntity
  8
0
  6
Continuous
 62
     7
370
    25
100
AcDbCircle
 10
348.3383692328
 20
340.2917760999
 30
0.0
 40
60.64239980322003
100
AcDbArc
 50
180.0
 51
0.0
  0
LINE
  5
1AC
330
1F
100
AcDbEntity
  8
0
  6
Continuous
 62
     7
370
    25
100
AcDbLine
 10
532.7057941085
 20
340.2917760999
 30
0.0
 11
408.980769036
 21
340.2917760999
 31
0.0
  0
LINE
  5
1AD
330
1F
100
AcDbEntity
  8
0
  6
Continuous
 62
     7
370
    25
100
AcDbLine
 10
163.9709443571
 20
340.2917760999
 30
0.0
 11
287.6959694296
 21
340.2917760999
 31
0.0
  0
ARC
  5
1AE
330
1F
100
AcDbEntity
  8
0
  6
Continuous
 62
     7
370
    25
100
AcDbCircle
 10
348.3383692328
 20
340.2917760999
 30
0.0
 40
60.64239980322003
100
AcDbArc
 50
0.0
 51
180.0
  0
LINE
  5
1AF
330
1F
100
AcDbEntity
  8
0
  6
Continuous
 62
     7
370
    25
100
AcDbLine
 10
408.980769036
 20
340.2917760999
 30
0.0
 11
407.8360508534
 21
340.2917760999
 31
0.0
  0
ARC
  5
1B0
330
1F
100
AcDbEntity
  8
0
  6
Continuous
 62
     7
370
    25
100
AcDbCircle
 10
348.3383692328
 20
340.2917760999
 30
0.0
 40
59.49768162059001
100
AcDbArc
 50
0.0
 51
180.0
  0
LINE
  5
1B1
330
1F
100
AcDbEntity
  8
0
  6
Continuous
 62
     7
370
    25
100
AcDbLine
 10
287.6959694296
 20
340.2917760999
 30
0.0
 11
288.8406876122
 21
340.2917760999
 31
0.0
  0
ARC
  5
1B2
330
1F
100
AcDbEntity
  8
0
  6
Continuous
 62
     7
370
    25
100
AcDbCircle
 10
348.3383692328
 20
340.2917760999
 30
0.0
 40
59.49768162059001
100
AcDbArc
 50
180.0
 51
0.0
  0
ARC
  5
1B3
330
1F
100
AcDbEntity
  8
0
  6
Continuous
 62
     7
370
    25
100
AcDbCircle
 10
348.3383692328
 20
340.2917760999
 30
0.0
 40
57.67042515468
100
AcDbArc
 50
0.0
 51
180.0
  0
LINE
  5
1B4
330
1F
100
AcDbEntity
  8
0
  6
Continuous
 62
     7
370
    25
100
AcDbLine
 10
288.8406876122
 20
340.2917760999
 30
0.0
 11
290.6679440781
 21
340.2917760999
 31
0.0
  0
LINE
  5
1B5
330
1F
100
AcDbEntity
  8
0
  6
Continuous
 62
     7
370
    25
100
AcDbLine
 10
407.8360508534
 20
340.2917760999
 30
0.0
 11
406.0087943875
 21
340.2917760999
 31
0.0
  0
ARC
  5
1B6
330
1F
100
AcDbEntity
  8
0
  6
Continuous
 62
     7
370
    25
100
AcDbCircle
 10
348.3383692328
 20
340.2917760999
 30
0.0
 40
57.67042515468
100
AcDbArc
 50
180.0
 51
0.0
  0
LINE
  5
1B7
330
1F
100
AcDbEntity
  8
0
  6
Continuous
 62
     7
370
    25
100
AcDbLine
 10
406.0087943875
 20
340.2917760999
 30
0.0
 11
405.626634965
 21
340.2917760999
 31
0.0
  0
ARC
  5
1B8
330
1F
100
AcDbEntity
  8
0
  6
Continuous
 62
     7
370
    25
100
AcDbCircle
 10
348.3383692328
 20
340.2917760999
 30
0.0
 40
57.28826573216003
100
AcDbArc
 50
0.0
 51
180.0
  0
LINE
  5
1B9
330
1F
100
AcDbEntity
  8
0
  6
Continuous
 62
     7
370
    25
100
AcDbLine
 10
290.6679440781
 20
340.2917760999
 30
0.0
 11
291.0501035007
 21
340.2917760999
 31
0.0
  0
ARC
  5
1BA
330
1F
100
AcDbEntity
  8
0
  6
Continuous
 62
     7
370
    25
100
AcDbCircle
 10
348.3383692328
 20
340.2917760999
 30
0.0
 40
57.28826573216003
100
AcDbArc
 50
180.0
 51
0.0
  0
LINE
  5
1BB
330
1F
100
AcDbEntity
  8
0
  6
Continuous
 62
     7
370
    25
100
AcDbLine
 10
405.626634965
 20
340.2917760999
 30
0.0
 11
393.8383692328
 21
340.2917760999
 31
0.0
  0
ARC
  5
1BC
330
1F
100
AcDbEntity
  8
0
  6
Continuous
 62
     7
370
    25
100
AcDbCircle
 10
348.3383692328
 20
340.2917760999
 30
0.0
 40
45.5
100
AcDbArc
 50
0.0
 51
180.0
  0
LINE
  5
1BD
330
1F
100
AcDbEntity
  8
0
  6
Continuous
 62
     7
370
    25
100
AcDbLine
 10
291.0501035007
 20
340.2917760999
 30
0.0
 11
302.8383692328
 21
340.2917760999
 31
0.0
  0
ARC
  5
1BE
330
1F
100
AcDbEntity
  8
0
  6
Continuous
 62
     7
370
    25
100
AcDbCircle
 10
348.3383692328
 20
340.2917760999
 30
0.0
 40
45.5
100
AcDbArc
 50
180.0
 51
0.0
  0
ARC
  5
1BF
330
1F
100
AcDbEntity
  8
0
  6
Continuous
 62
     7
370
    25
100
AcDbCircle
 10
348.3383692328
 20
340.2917760999
 30
0.0
 40
45.0
100
AcDbArc
 50
0.0
 51
180.0
  0
ARC
  5
1C0
330
1F
100
AcDbEntity
  8
0
  6
Continuous
 62
     7
370
    25
100
AcDbCircle
 10
348.3383692328
 20
340.2917760999
 30
0.0
 40
45.0
100
AcDbArc
 50
180.0
 51
0.0
  0
LINE
  5
1C1
330
1F
100
AcDbEntity
  8
0
  6
Continuous
 62
     7
370
    25
100
AcDbLine
 10
593.3383692328
 20
559.2917760999
 30
0.0
 11
593.3383692328
 21
560.2917760999
 31
0.0
  0
LINE
  5
1C2
330
1F
100
AcDbEntity
  8
0
  6
Continuous
 62
     7
370
    25
100
AcDbLine
 10
103.3383692328
 20
559.2917760999
 30
0.0
 11
103.3383692328
 21
560.2917760999
 31
0.0
  0
LINE
  5
1C3
330
1F
100
AcDbEntity
  8
0
  6
Continuous
 62
     7
370
    25
100
AcDbLine
 10
627.3383692328
 20
525.2917760999
 30
0.0
 11
628.3383692328
 21
525.2917760999
 31
0.0
  0
LINE
  5
1C4
330
1F
100
AcDbEntity
  8
0
  6
Continuous
 62
     7
370
    25
100
AcDbLine
 10
69.3383692328
 20
525.2917760999
 30
0.0
 11
68.3383692328
 21
525.2917760999
 31
0.0
  0
LINE
  5
1C5
330
1F
100
AcDbEntity
  8
0
  6
Continuous
 62
     7
370
    25
100
AcDbLine
 10
69.3383692328
 20
95.2917760999
 30
0.0
 11
68.3383692328
 21
95.2917760999
 31
0.0
  0
LINE
  5
1C6
330
1F
100
AcDbEntity
  8
0
  6
Continuous
 62
     7
370
    25
100
AcDbLine
 10
627.3383692328
 20
95.2917760999
 30
0.0
 11
628.3383692328
 21
95.2917760999
 31
0.0
  0
LINE
  5
1C7
330
1F
100
AcDbEntity
  8
0
  6
Continuous
 62
     7
370
    25
100
AcDbLine
 10
103.3383692328
 20
61.2917760999
 30
0.0
 11
103.3383692328
 21
60.2917760999
 31
0.0
  0
LINE
  5
1C8
330
1F
100
AcDbEntity
  8
0
  6
Continuous
 62
     7
370
    25
100
AcDbLine
 10
593.3383692328
 20
61.2917760999
 30
0.0
 11
593.3383692328
 21
60.2917760999
 31
0.0
  0
ENDSEC
  0
SECTION
  2
OBJECTS
  0
DICTIONARY
  5
C
330
0
100
AcDbDictionary
281
     1
  3
ACAD_GROUP
350
D
  3
ACAD_LAYOUT
350
1A
  3
ACAD_MLINESTYLE
350
17
  3
ACAD_PLOTSETTINGS
350
19
  3
ACAD_PLOTSTYLENAME
350
E
  3
ACAD_SCALELIST
350
47
  3
DWGPROPS
350
1C9
  0
DICTIONARY
  5
D
102
{ACAD_REACTORS
330
C
102
}
330
C
100
AcDbDictionary
281
     1
  0
DICTIONARY
  5
1A
102
{ACAD_REACTORS
330
C
102
}
330
C
100
AcDbDictionary
281
     1
  3
Layout1
350
1E
  3
Layout2
350
26
  3
Model
350
22
  0
DICTIONARY
  5
17
102
{ACAD_REACTORS
330
C
102
}
330
C
100
AcDbDictionary
281
     1
  3
Standard
350
18
  0
DICTIONARY
  5
19
102
{ACAD_REACTORS
330
C
102
}
330
C
100
AcDbDictionary
281
     1
  0
ACDBDICTIONARYWDFLT
  5
E
102
{ACAD_REACTORS
330
C
102
}
330
C
100
AcDbDictionary
281
     1
  3
Normal
350
F
100
AcDbDictionaryWithDefault
340
F
  0
DICTIONARY
  5
47
102
{ACAD_REACTORS
330
C
102
}
330
C
100
AcDbDictionary
281
     1
  3
A0
350
48
  3
A1
350
49
  3
A2
350
4A
  3
A3
350
4B
  3
A4
350
4C
  3
A5
350
4D
  3
A6
350
4E
  3
A7
350
4F
  3
A8
350
50
  3
A9
350
51
  3
B0
350
52
  3
B1
350
53
  3
B2
350
54
  3
B3
350
55
  3
B4
350
56
  3
B5
350
57
  3
B6
350
58
  0
XRECORD
  5
1C9
102
{ACAD_REACTORS
330
C
102
}
330
C
100
AcDbXrecord
280
     1
  1
DWGPROPS COOKIE
  2

  3

  4

  6

  7

  8
villesi
  9

300
=
301
=
302
=
303
=
304
=
305
=
306
=
307
=
308
=
309
=
 40
0.0
 41
2460832.282087651
 42
2460832.282088264
  1

 90
        0
  0
LAYOUT
  5
1E
102
{ACAD_REACTORS
330
1A
102
}
330
1A
100
AcDbPlotSettings
  1

  2
none_device
  4

  6

 40
0.0
 41
0.0
 42
0.0
 43
0.0
 44
0.0
 45
0.0
 46
0.0
 47
0.0
 48
0.0
 49
0.0
140
0.0
141
0.0
142
1.0
143
1.0
 70
   688
 72
     1
 73
     0
 74
     5
  7

 75
    16
147
1.0
148
0.0
149
0.0
100
AcDbLayout
  1
Layout1
 70
     1
 71
     1
 10
0.0
 20
0.0
 11
420.0
 21
297.0
 12
0.0
 22
0.0
 32
0.0
 14
1.0000000000E+20
 24
1.0000000000E+20
 34
1.0000000000E+20
 15
-1.0000000000E+20
 25
-1.0000000000E+20
 35
-1.0000000000E+20
146
0.0
 13
0.0
 23
0.0
 33
0.0
 16
1.0
 26
0.0
 36
0.0
 17
0.0
 27
1.0
 37
0.0
 76
     0
330
1B
  0
LAYOUT
  5
26
102
{ACAD_REACTORS
330
1A
102
}
330
1A
100
AcDbPlotSettings
  1

  2
none_device
  4

  6

 40
0.0
 41
0.0
 42
0.0
 43
0.0
 44
0.0
 45
0.0
 46
0.0
 47
0.0
 48
0.0
 49
0.0
140
0.0
141
0.0
142
1.0
143
1.0
 70
   688
 72
     1
 73
     0
 74
     5
  7

 75
    16
147
1.0
148
0.0
149
0.0
100
AcDbLayout
  1
Layout2
 70
     1
 71
     2
 10
0.0
 20
0.0
 11
0.0
 21
0.0
 12
0.0
 22
0.0
 32
0.0
 14
0.0
 24
0.0
 34
0.0
 15
0.0
 25
0.0
 35
0.0
146
0.0
 13
0.0
 23
0.0
 33
0.0
 16
1.0
 26
0.0
 36
0.0
 17
0.0
 27
1.0
 37
0.0
 76
     0
330
23
  0
LAYOUT
  5
22
102
{ACAD_REACTORS
330
1A
102
}
330
1A
100
AcDbPlotSettings
  1

  2
none_device
  4
Letter_(8.50_x_11.00_Inches)
  6

 40
6.35
 41
6.35
 42
6.35000508
 43
6.35000508
 44
215.9
 45
279.4
 46
0.0
 47
0.0
 48
0.0
 49
0.0
140
0.0
141
0.0
142
1.0
143
1.0
 70
  1712
 72
     1
 73
     0
 74
     0
  7

 75
     0
147
1.0
148
0.0
149
0.0
100
AcDbLayout
  1
Model
 70
     1
 71
     0
 10
0.0
 20
0.0
 11
700.0
 21
600.0
 12
0.0
 22
0.0
 32
0.0
 14
0.0
 24
0.0
 34
0.0
 15
700.0
 25
600.0
 35
0.0
146
0.0
 13
0.0
 23
0.0
 33
0.0
 16
1.0
 26
0.0
 36
0.0
 17
0.0
 27
1.0
 37
0.0
 76
     0
330
1F
331
29
  0
MLINESTYLE
  5
18
102
{ACAD_REACTORS
330
17
102
}
330
17
100
AcDbMlineStyle
  2
Standard
 70
     0
  3

 62
   256
 51
90.0
 52
90.0
 71
     2
 49
0.5
 62
   256
  6
BYLAYER
 49
-0.5
 62
   256
  6
BYLAYER
  0
ACDBPLACEHOLDER
  5
F
102
{ACAD_REACTORS
330
E
102
}
330
E
  0
SCALE
  5
48
102
{ACAD_REACTORS
330
47
102
}
330
47
100
AcDbScale
 70
     0
300
1:1
140
1.0
141
1.0
290
     1
  0
SCALE
  5
49
102
{ACAD_REACTORS
330
47
102
}
330
47
100
AcDbScale
 70
     0
300
1:2
140
1.0
141
2.0
290
     0
  0
SCALE
  5
4A
102
{ACAD_REACTORS
330
47
102
}
330
47
100
AcDbScale
 70
     0
300
1:4
140
1.0
141
4.0
290
     0
  0
SCALE
  5
4B
102
{ACAD_REACTORS
330
47
102
}
330
47
100
AcDbScale
 70
     0
300
1:5
140
1.0
141
5.0
290
     0
  0
SCALE
  5
4C
102
{ACAD_REACTORS
330
47
102
}
330
47
100
AcDbScale
 70
     0
300
1:8
140
1.0
141
8.0
290
     0
  0
SCALE
  5
4D
102
{ACAD_REACTORS
330
47
102
}
330
47
100
AcDbScale
 70
     0
300
1:10
140
1.0
141
10.0
290
     0
  0
SCALE
  5
4E
102
{ACAD_REACTORS
330
47
102
}
330
47
100
AcDbScale
 70
     0
300
1:16
140
1.0
141
16.0
290
     0
  0
SCALE
  5
4F
102
{ACAD_REACTORS
330
47
102
}
330
47
100
AcDbScale
 70
     0
300
1:20
140
1.0
141
20.0
290
     0
  0
SCALE
  5
50
102
{ACAD_REACTORS
330
47
102
}
330
47
100
AcDbScale
 70
     0
300
1:30
140
1.0
141
30.0
290
     0
  0
SCALE
  5
51
102
{ACAD_REACTORS
330
47
102
}
330
47
100
AcDbScale
 70
     0
300
1:40
140
1.0
141
40.0
290
     0
  0
SCALE
  5
52
102
{ACAD_REACTORS
330
47
102
}
330
47
100
AcDbScale
 70
     0
300
1:50
140
1.0
141
50.0
290
     0
  0
SCALE
  5
53
102
{ACAD_REACTORS
330
47
102
}
330
47
100
AcDbScale
 70
     0
300
1:100
140
1.0
141
100.0
290
     0
  0
SCALE
  5
54
102
{ACAD_REACTORS
330
47
102
}
330
47
100
AcDbScale
 70
     0
300
2:1
140
2.0
141
1.0
290
     0
  0
SCALE
  5
55
102
{ACAD_REACTORS
330
47
102
}
330
47
100
AcDbScale
 70
     0
300
4:1
140
4.0
141
1.0
290
     0
  0
SCALE
  5
56
102
{ACAD_REACTORS
330
47
102
}
330
47
100
AcDbScale
 70
     0
300
8:1
140
8.0
141
1.0
290
     0
  0
SCALE
  5
57
102
{ACAD_REACTORS
330
47
102
}
330
47
100
AcDbScale
 70
     0
300
10:1
140
10.0
141
1.0
290
     0
  0
SCALE
  5
58
102
{ACAD_REACTORS
330
47
102
}
330
47
100
AcDbScale
 70
     0
300
100:1
140
100.0
141
1.0
290
     0
  0
ENDSEC
  0
EOF
