  0
SECTION
  2
HEADER
  9
$ACADVER
  1
AC1015
  9
$ACADMAINTVER
 70
     6
  9
$DWGCODEPAGE
  3
ANSI_1252
  9
$INSBASE
 10
0.0
 20
0.0
 30
0.0
  9
$EXTMIN
 10
0.0
 20
0.0
 30
0.0
  9
$EXTMAX
 10
800.0
 20
700.0
 30
0.0
  9
$LIMMIN
 10
0.0
 20
0.0
  9
$LIMMAX
 10
800.0
 20
700.0
  9
$ORTHOMODE
 70
     0
  9
$REGENMODE
 70
     1
  9
$FILLMODE
 70
     1
  9
$QTEXTMODE
 70
     0
  9
$MIRRTEXT
 70
     1
  9
$LTSCALE
 40
1.0
  9
$ATTMODE
 70
     1
  9
$TEXTSIZE
 40
3.5
  9
$TRACEWID
 40
1.0
  9
$TEXTSTYLE
  7
Standard
  9
$CLAYER
  8
0
  9
$CELTYPE
  6
ByLayer
  9
$CECOLOR
 62
   256
  9
$CELTSCALE
 40
1.0
  9
$DISPSILH
 70
     0
  9
$DIMSCALE
 40
1.0
  9
$DIMASZ
 40
3.302
  9
$DIMEXO
 40
1.0
  9
$DIMDLI
 40
3.75
  9
$DIMRND
 40
0.0
  9
$DIMDLE
 40
0.0
  9
$DIMEXE
 40
1.0
  9
$DIMTP
 40
0.0
  9
$DIMTM
 40
0.0
  9
$DIMTXT
 40
3.5
  9
$DIMCEN
 40
2.5
  9
$DIMTSZ
 40
0.0
  9
$DIMTOL
 70
     0
  9
$DIMLIM
 70
     0
  9
$DIMTIH
 70
     1
  9
$DIMTOH
 70
     1
  9
$DIMSE1
 70
     0
  9
$DIMSE2
 70
     0
  9
$DIMTAD
 70
     1
  9
$DIMZIN
 70
     1
  9
$DIMBLK
  1

  9
$DIMASO
 70
     1
  9
$DIMSHO
 70
     1
  9
$DIMPOST
  1

  9
$DIMAPOST
  1

  9
$DIMALT
 70
     0
  9
$DIMALTD
 70
     3
  9
$DIMALTF
 40
0.0393700787
  9
$DIMLFAC
 40
1.0
  9
$DIMTOFL
 70
     1
  9
$DIMTVP
 40
0.0
  9
$DIMTIX
 70
     0
  9
$DIMSOXD
 70
     0
  9
$DIMSAH
 70
     0
  9
$DIMBLK1
  1

  9
$DIMBLK2
  1

  9
$DIMSTYLE
  2
ISO-25
  9
$DIMCLRD
 70
     0
  9
$DIMCLRE
 70
     0
  9
$DIMCLRT
 70
     0
  9
$DIMTFAC
 40
1.0
  9
$DIMGAP
 40
1.524
  9
$DIMJUST
 70
     0
  9
$DIMSD1
 70
     0
  9
$DIMSD2
 70
     0
  9
$DIMTOLJ
 70
     0
  9
$DIMTZIN
 70
     1
  9
$DIMALTZ
 70
     0
  9
$DIMALTTZ
 70
     0
  9
$DIMUPT
 70
     0
  9
$DIMDEC
 70
     2
  9
$DIMTDEC
 70
     2
  9
$DIMALTU
 70
     2
  9
$DIMALTTD
 70
     3
  9
$DIMTXSTY
  7
Standard
  9
$DIMAUNIT
 70
     0
  9
$DIMADEC
 70
     0
  9
$DIMALTRND
 40
0.0
  9
$DIMAZIN
 70
     0
  9
$DIMDSEP
 70
    44
  9
$DIMATFIT
 70
     3
  9
$DIMFRAC
 70
     0
  9
$DIMLDRBLK
  1

  9
$DIMLUNIT
 70
     2
  9
$DIMLWD
 70
    -2
  9
$DIMLWE
 70
    -2
  9
$DIMTMOVE
 70
     0
  9
$LUNITS
 70
     2
  9
$LUPREC
 70
     4
  9
$SKETCHINC
 40
1.0
  9
$FILLETRAD
 40
0.0
  9
$AUNITS
 70
     0
  9
$AUPREC
 70
     2
  9
$MENU
  1
.
  9
$ELEVATION
 40
0.0
  9
$PELEVATION
 40
0.0
  9
$THICKNESS
 40
0.0
  9
$LIMCHECK
 70
     0
  9
$CHAMFERA
 40
0.0
  9
$CHAMFERB
 40
0.0
  9
$CHAMFERC
 40
0.0
  9
$CHAMFERD
 40
0.0
  9
$SKPOLY
 70
     0
  9
$TDCREATE
 40
2460832.429617373
  9
$TDUCREATE
 40
2460832.304617373
  9
$TDUPDATE
 40
2460832.429617755
  9
$TDUUPDATE
 40
2460832.304617755
  9
$TDINDWG
 40
0.0000000116
  9
$TDUSRTIMER
 40
0.0000000116
  9
$USRTIMER
 70
     1
  9
$ANGBASE
 50
0.0
  9
$ANGDIR
 70
     0
  9
$PDMODE
 70
     0
  9
$PDSIZE
 40
-1.0
  9
$PLINEWID
 40
0.0
  9
$SPLFRAME
 70
     0
  9
$SPLINETYPE
 70
     6
  9
$SPLINESEGS
 70
     8
  9
$HANDSEED
  5
172
  9
$SURFTAB1
 70
     6
  9
$SURFTAB2
 70
     6
  9
$SURFTYPE
 70
     6
  9
$SURFU
 70
     6
  9
$SURFV
 70
     6
  9
$UCSBASE
  2

  9
$UCSNAME
  2

  9
$UCSORG
 10
0.0
 20
0.0
 30
0.0
  9
$UCSXDIR
 10
1.0
 20
0.0
 30
0.0
  9
$UCSYDIR
 10
0.0
 20
1.0
 30
0.0
  9
$UCSORTHOREF
  2

  9
$UCSORTHOVIEW
 70
     0
  9
$UCSORGTOP
 10
0.0
 20
0.0
 30
0.0
  9
$UCSORGBOTTOM
 10
0.0
 20
0.0
 30
0.0
  9
$UCSORGLEFT
 10
0.0
 20
0.0
 30
0.0
  9
$UCSORGRIGHT
 10
0.0
 20
0.0
 30
0.0
  9
$UCSORGFRONT
 10
0.0
 20
0.0
 30
0.0
  9
$UCSORGBACK
 10
0.0
 20
0.0
 30
0.0
  9
$PUCSBASE
  2

  9
$PUCSNAME
  2

  9
$PUCSORG
 10
0.0
 20
0.0
 30
0.0
  9
$PUCSXDIR
 10
1.0
 20
0.0
 30
0.0
  9
$PUCSYDIR
 10
0.0
 20
1.0
 30
0.0
  9
$PUCSORTHOREF
  2

  9
$PUCSORTHOVIEW
 70
     0
  9
$PUCSORGTOP
 10
0.0
 20
0.0
 30
0.0
  9
$PUCSORGBOTTOM
 10
0.0
 20
0.0
 30
0.0
  9
$PUCSORGLEFT
 10
0.0
 20
0.0
 30
0.0
  9
$PUCSORGRIGHT
 10
0.0
 20
0.0
 30
0.0
  9
$PUCSORGFRONT
 10
0.0
 20
0.0
 30
0.0
  9
$PUCSORGBACK
 10
0.0
 20
0.0
 30
0.0
  9
$USERI1
 70
     0
  9
$USERI2
 70
     0
  9
$USERI3
 70
     0
  9
$USERI4
 70
     0
  9
$USERI5
 70
     0
  9
$USERR1
 40
0.0
  9
$USERR2
 40
0.0
  9
$USERR3
 40
0.0
  9
$USERR4
 40
0.0
  9
$USERR5
 40
0.0
  9
$WORLDVIEW
 70
     1
  9
$SHADEDGE
 70
     3
  9
$SHADEDIF
 70
    70
  9
$TILEMODE
 70
     1
  9
$MAXACTVP
 70
    64
  9
$PINSBASE
 10
0.0
 20
0.0
 30
0.0
  9
$PLIMCHECK
 70
     0
  9
$PEXTMIN
 10
1.0000000000E+20
 20
1.0000000000E+20
 30
1.0000000000E+20
  9
$PEXTMAX
 10
-1.0000000000E+20
 20
-1.0000000000E+20
 30
-1.0000000000E+20
  9
$PLIMMIN
 10
0.0
 20
0.0
  9
$PLIMMAX
 10
420.0
 20
297.0
  9
$UNITMODE
 70
     0
  9
$VISRETAIN
 70
     1
  9
$PLINEGEN
 70
     0
  9
$PSLTSCALE
 70
     1
  9
$TREEDEPTH
 70
  3020
  9
$CMLSTYLE
  2
Standard
  9
$CMLJUST
 70
     0
  9
$CMLSCALE
 40
20.0
  9
$PROXYGRAPHICS
 70
     1
  9
$MEASUREMENT
 70
     1
  9
$CELWEIGHT
370
    -1
  9
$ENDCAPS
280
     0
  9
$JOINSTYLE
280
     0
  9
$LWDISPLAY
290
     1
  9
$INSUNITS
 70
     4
  9
$HYPERLINKBASE
  1

  9
$STYLESHEET
  1

  9
$XEDIT
290
     1
  9
$CEPSNTYPE
380
     0
  9
$PSTYLEMODE
290
     1
  9
$FINGERPRINTGUID
  2
{1261ec50-82c8-4103-8763-c0be835abd24}
  9
$VERSIONGUID
  2
{FAEB1C32-E019-11D5-929B-00C0DF256EC4}
  9
$EXTNAMES
290
     1
  9
$PSVPSCALE
 40
0.0
  9
$OLESTARTUP
290
     0
  0
ENDSEC
  0
SECTION
  2
CLASSES
  0
CLASS
  1
ACDBDICTIONARYWDFLT
  2
AcDbDictionaryWithDefault
  3
ObjectDBX Classes
 90
        0
280
     0
281
     0
  0
CLASS
  1
VISUALSTYLE
  2
AcDbVisualStyle
  3
ObjectDBX Classes
 90
     4095
280
     0
281
     0
  0
CLASS
  1
MATERIAL
  2
AcDbMaterial
  3
ObjectDBX Classes
 90
     1153
280
     0
281
     0
  0
CLASS
  1
SCALE
  2
AcDbScale
  3
ObjectDBX Classes
 90
     1153
280
     0
281
     0
  0
CLASS
  1
TABLESTYLE
  2
AcDbTableStyle
  3
ObjectDBX Classes
 90
     4095
280
     0
281
     0
  0
CLASS
  1
MLEADERSTYLE
  2
AcDbMLeaderStyle
  3
ACDB_MLEADERSTYLE_CLASS
 90
     4095
280
     0
281
     0
  0
CLASS
  1
SUN
  2
AcDbSun
  3
SCENEOE
 90
     1153
280
     0
281
     0
  0
CLASS
  1
ACDBPLACEHOLDER
  2
AcDbPlaceHolder
  3
ObjectDBX Classes
 90
        0
280
     0
281
     0
  0
CLASS
  1
LAYOUT
  2
AcDbLayout
  3
ObjectDBX Classes
 90
        0
280
     0
281
     0
  0
ENDSEC
  0
SECTION
  2
TABLES
  0
TABLE
  2
VPORT
  5
8
330
0
100
AcDbSymbolTable
 70
     1
  0
VPORT
  5
29
330
8
100
AcDbSymbolTableRecord
100
AcDbViewportTableRecord
  2
*Active
 70
     0
 10
0.0
 20
0.0
 11
1.0
 21
1.0
 12
400.0
 22
350.0
 13
0.0
 23
0.0
 14
10.0
 24
10.0
 15
10.0
 25
10.0
 16
0.0
 26
0.0
 36
1.0
 17
0.0
 27
0.0
 37
0.0
 40
700.0
 41
1.1428571429
 42
50.0
 43
0.0
 44
0.0
 50
0.0
 51
0.0
 71
     0
 72
  2000
 73
     1
 74
     3
 75
     0
 76
     0
 77
     0
 78
     0
281
     0
 65
     1
110
0.0
120
0.0
130
0.0
111
1.0
121
0.0
131
0.0
112
0.0
122
1.0
132
0.0
 79
     0
146
0.0
  0
ENDTAB
  0
TABLE
  2
LTYPE
  5
5
330
0
100
AcDbSymbolTable
 70
     6
  0
LTYPE
  5
14
330
5
100
AcDbSymbolTableRecord
100
AcDbLinetypeTableRecord
  2
ByBlock
 70
     0
  3

 72
    65
 73
     0
 40
0.0
  0
LTYPE
  5
15
330
5
100
AcDbSymbolTableRecord
100
AcDbLinetypeTableRecord
  2
ByLayer
 70
     0
  3

 72
    65
 73
     0
 40
0.0
  0
LTYPE
  5
16
330
5
100
AcDbSymbolTableRecord
100
AcDbLinetypeTableRecord
  2
Continuous
 70
     0
  3
Solid line
 72
    65
 73
     0
 40
0.0
  0
LTYPE
  5
5E
330
5
100
AcDbSymbolTableRecord
100
AcDbLinetypeTableRecord
  2
HIDDEN
 70
     0
  3
Hidden __ __ __ __ __ __ __ __ __ __ __ __ __ __
 72
    65
 73
     2
 40
1.905
 49
1.27
 74
     0
 49
-0.635
 74
     0
  0
LTYPE
  5
5F
330
5
100
AcDbSymbolTableRecord
100
AcDbLinetypeTableRecord
  2
PHANTOM
 70
     0
  3
Phantom ______  __  __  ______  __  __  ______
 72
    65
 73
     6
 40
12.7
 49
6.35
 74
     0
 49
-1.27
 74
     0
 49
1.27
 74
     0
 49
-1.27
 74
     0
 49
1.27
 74
     0
 49
-1.27
 74
     0
  0
LTYPE
  5
60
330
5
100
AcDbSymbolTableRecord
100
AcDbLinetypeTableRecord
  2
CENTER
 70
     0
  3
Center ____ _ ____ _ ____ _ ____ _ ____ _ ____
 72
    65
 73
     4
 40
10.16
 49
6.35
 74
     0
 49
-1.27
 74
     0
 49
1.27
 74
     0
 49
-1.27
 74
     0
  0
LTYPE
  5
61
330
5
100
AcDbSymbolTableRecord
100
AcDbLinetypeTableRecord
  2
CENTERX2
 70
     0
  3
Center (2x) ________  __  ________  __  _____
 72
    65
 73
     4
 40
20.32
 49
12.7
 74
     0
 49
-2.54
 74
     0
 49
2.54
 74
     0
 49
-2.54
 74
     0
  0
LTYPE
  5
62
330
5
100
AcDbSymbolTableRecord
100
AcDbLinetypeTableRecord
  2
DOT2
 70
     0
  3
Dot (.5x) ........................................
 72
    65
 73
     2
 40
0.635
 49
0.0
 74
     0
 49
-0.635
 74
     0
  0
ENDTAB
  0
TABLE
  2
LAYER
  5
2
330
0
100
AcDbSymbolTable
 70
     2
  0
LAYER
  5
10
330
2
100
AcDbSymbolTableRecord
100
AcDbLayerTableRecord
  2
0
 70
     0
 62
     7
  6
Continuous
370
    -3
390
F
  0
LAYER
  5
63
330
2
100
AcDbSymbolTableRecord
100
AcDbLayerTableRecord
  2
TABLE_BL1
 70
     0
 62
   179
  6
Continuous
370
    -3
390
F
  0
ENDTAB
  0
TABLE
  2
STYLE
  5
3
330
0
100
AcDbSymbolTable
 70
     1
  0
STYLE
  5
11
330
3
100
AcDbSymbolTableRecord
100
AcDbTextStyleTableRecord
  2
Standard
 70
     0
 40
0.0
 41
1.0
 50
0.0
 71
     0
 42
3.5
  3
txt
  4

  0
ENDTAB
  0
TABLE
  2
VIEW
  5
6
330
0
100
AcDbSymbolTable
 70
     0
  0
ENDTAB
  0
TABLE
  2
UCS
  5
7
330
0
100
AcDbSymbolTable
 70
     0
  0
ENDTAB
  0
TABLE
  2
APPID
  5
9
330
0
100
AcDbSymbolTable
 70
     1
  0
APPID
  5
12
330
9
100
AcDbSymbolTableRecord
100
AcDbRegAppTableRecord
  2
ACAD
 70
     0
  0
ENDTAB
  0
TABLE
  2
DIMSTYLE
  5
A
330
0
100
AcDbSymbolTable
 70
     1
100
AcDbDimStyleTable
  0
DIMSTYLE
105
27
330
A
100
AcDbSymbolTableRecord
100
AcDbDimStyleTableRecord
  2
ISO-25
 70
     0
 41
2.5
 42
0.625
 43
3.75
 44
1.25
 73
     0
 74
     0
 77
     1
 78
     8
140
2.5
141
2.5
143
0.0393700787
147
0.625
171
     3
172
     1
178
     0
271
     2
272
     2
274
     3
278
    44
283
     0
284
     8
340
11
  0
ENDTAB
  0
TABLE
  2
BLOCK_RECORD
  5
1
330
0
100
AcDbSymbolTable
 70
     1
  0
BLOCK_RECORD
  5
1F
330
1
100
AcDbSymbolTableRecord
100
AcDbBlockTableRecord
  2
*Model_Space
340
22
  0
BLOCK_RECORD
  5
1B
330
1
100
AcDbSymbolTableRecord
100
AcDbBlockTableRecord
  2
*Paper_Space
340
1E
  0
BLOCK_RECORD
  5
23
330
1
100
AcDbSymbolTableRecord
100
AcDbBlockTableRecord
  2
*Paper_Space0
340
26
  0
ENDTAB
  0
ENDSEC
  0
SECTION
  2
BLOCKS
  0
BLOCK
  5
20
330
1F
100
AcDbEntity
  8
0
100
AcDbBlockBegin
  2
*Model_Space
 70
     0
 10
0.0
 20
0.0
 30
0.0
  3
*Model_Space
  1

  0
ENDBLK
  5
21
330
1F
100
AcDbEntity
  8
0
100
AcDbBlockEnd
  0
BLOCK
  5
1C
330
1B
100
AcDbEntity
 67
     1
  8
0
100
AcDbBlockBegin
  2
*Paper_Space
 70
     0
 10
0.0
 20
0.0
 30
0.0
  3
*Paper_Space
  1

  0
ENDBLK
  5
1D
330
1B
100
AcDbEntity
 67
     1
  8
0
100
AcDbBlockEnd
  0
BLOCK
  5
24
330
23
100
AcDbEntity
  8
0
100
AcDbBlockBegin
  2
*Paper_Space0
 70
     0
 10
0.0
 20
0.0
 30
0.0
  3
*Paper_Space0
  1

  0
ENDBLK
  5
25
330
23
100
AcDbEntity
  8
0
100
AcDbBlockEnd
  0
ENDSEC
  0
SECTION
  2
ENTITIES
  0
ARC
  5
64
330
1F
100
AcDbEntity
  8
0
  6
Continuous
 62
     7
370
    25
100
AcDbCircle
 10
618.1976982345
 20
552.5990376569
 30
0.0
 40
35.00000000000011
100
AcDbArc
 50
0.0
 51
90.0
  0
LINE
  5
65
330
1F
100
AcDbEntity
  8
0
  6
Continuous
 62
     7
370
    25
100
AcDbLine
 10
163.1976982345
 20
552.5990376569
 30
0.0
 11
163.1976982345
 21
122.5990376569
 31
0.0
  0
ARC
  5
66
330
1F
100
AcDbEntity
  8
0
  6
Continuous
 62
     7
370
    25
100
AcDbCircle
 10
198.1976982345
 20
122.5990376569
 30
0.0
 40
35.00000000000003
100
AcDbArc
 50
180.0
 51
270.0
  0
LINE
  5
67
330
1F
100
AcDbEntity
  8
0
  6
Continuous
 62
     7
370
    25
100
AcDbLine
 10
653.1976982345
 20
122.5990376569
 30
0.0
 11
653.1976982345
 21
552.5990376569
 31
0.0
  0
ARC
  5
68
330
1F
100
AcDbEntity
  8
0
  6
Continuous
 62
     7
370
    25
100
AcDbCircle
 10
198.1976982345
 20
552.5990376569
 30
0.0
 40
35.00000000000003
100
AcDbArc
 50
90.0
 51
180.0
  0
LINE
  5
69
330
1F
100
AcDbEntity
  8
0
  6
Continuous
 62
     7
370
    25
100
AcDbLine
 10
618.1976982345
 20
587.5990376569
 30
0.0
 11
198.1976982345
 21
587.5990376569
 31
0.0
  0
LINE
  5
6A
330
1F
100
AcDbEntity
  8
0
  6
Continuous
 62
     7
370
    25
100
AcDbLine
 10
198.1976982345
 20
87.5990376569
 30
0.0
 11
618.1976982345
 21
87.5990376569
 31
0.0
  0
ARC
  5
6B
330
1F
100
AcDbEntity
  8
0
  6
Continuous
 62
     7
370
    25
100
AcDbCircle
 10
618.1976982345
 20
122.5990376569
 30
0.0
 40
35.00000000000011
100
AcDbArc
 50
270.0
 51
0.0
  0
SPLINE
  5
6C
330
1F
100
AcDbEntity
  8
0
  6
Continuous
 62
     7
370
    25
100
AcDbSpline
210
0.0
220
0.0
230
1.0
 70
     8
 71
     3
 72
    38
 73
    34
 74
     0
 42
0.00000001
 43
0.00000001
 40
0.0
 40
0.0
 40
0.0
 40
0.0
 40
0.0333093066532813
 40
0.0647716702166543
 40
0.0943783663281612
 40
0.1222127177248466
 40
0.1491222211531695
 40
0.1847291119587903
 40
0.2222831555336317
 40
0.2620739843319798
 40
0.2872491468032484
 40
0.3136666799327895
 40
0.3415920599407728
 40
0.3712739628288856
 40
0.4029220330054686
 40
0.4360749418045707
 40
0.4713509739895902
 40
0.5086023749850442
 40
0.5472300247383126
 40
0.5871161395735156
 40
0.626253460455429
 40
0.6635571198076181
 40
0.6987151145651351
 40
0.7316291113195671
 40
0.761910687628326
 40
0.790355882030987
 40
0.8171935226913374
 40
0.842660146696997
 40
0.8771326978176456
 40
0.9098346262385162
 40
0.9410602207608914
 40
0.971078728379764
 40
1.0
 40
1.0
 40
1.0
 40
1.0
 10
184.8523987729135
 20
550.0990376569038
 30
0.0
 10
184.8523972055094
 20
545.3801658146757
 30
0.0
 10
184.8523941576111
 20
536.2040753622092
 30
0.0
 10
184.8523937582214
 20
522.8336555065702
 30
0.0
 10
184.8525244136414
 20
510.2388630533998
 30
0.0
 10
184.8520484428646
 20
498.2890665415021
 30
0.0
 10
184.8543992818149
 20
485.489232362142
 30
0.0
 10
184.8646968672168
 20
471.3124384317242
 30
0.0
 10
184.8837695700945
 20
455.3108010376554
 30
0.0
 10
184.9079383720128
 20
440.7870432400544
 30
0.0
 10
184.9340275120027
 20
427.8410021448076
 30
0.0
 10
184.9595478440708
 20
416.5759291039215
 30
0.0
 10
184.9893962735975
 20
404.672428059534
 30
0.0
 10
185.0239532962203
 20
392.0279651073091
 30
0.0
 10
185.0633220386958
 20
378.6429699446122
 30
0.0
 10
185.1076184516116
 20
364.4655094645532
 30
0.0
 10
185.1566681758715
 20
349.4942794738499
 30
0.0
 10
185.2101322801367
 20
333.7474941503496
 30
0.0
 10
185.2668652457347
 20
317.3476359406986
 30
0.0
 10
185.3248771249884
 20
300.6806140602426
 30
0.0
 10
185.3816409946749
 20
284.2011467670496
 30
0.0
 10
185.4345960962181
 20
268.3914676853966
 30
0.0
 10
185.4826642578469
 20
253.4633908720772
 30
0.0
 10
185.5251167768637
 20
239.5300694598135
 30
0.0
 10
185.5621692089882
 20
226.5476916345111
 30
0.0
 10
185.5941752959515
 20
214.4260981407326
 30
0.0
 10
185.6217658861706
 20
202.9865946501257
 30
0.0
 10
185.648461971101
 20
190.6931887801393
 30
0.0
 10
185.6729362040709
 20
177.5689739999286
 30
0.0
 10
185.6936531290496
 20
163.6288657741723
 30
0.0
 10
185.7079747762288
 20
150.3197238960316
 30
0.0
 10
185.7167709447117
 20
137.5461610670473
 30
0.0
 10
185.7178798328152
 20
129.1962642836561
 30
0.0
 10
185.7184239552136
 20
125.0990376569037
 30
0.0
  0
LWPOLYLINE
  5
6D
330
1F
100
AcDbEntity
  8
0
  6
Continuous
 62
     7
370
    25
100
AcDbPolyline
 90
        9
 70
   128
 43
0.0
 10
185.7184239552
 20
125.0990376569
 10
185.2097195665
 20
125.0990376705
 10
184.6059937189
 20
125.0990376803
 10
183.9175763292
 20
125.0990376863
 10
183.1562464095
 20
125.0990376883
 10
182.3350305261
 20
125.0990376863
 10
181.4679799103
 20
125.0990376803
 10
180.5699300385
 20
125.0990376704
 10
179.6562467931
 20
125.0990376569
  0
SPLINE
  5
6E
330
1F
100
AcDbEntity
  8
0
  6
Continuous
 62
     7
370
    25
100
AcDbSpline
210
0.0
220
0.0
230
1.0
 70
     8
 71
     3
 72
    38
 73
    34
 74
     0
 42
0.00000001
 43
0.00000001
 40
0.0
 40
0.0
 40
0.0
 40
0.0
 40
0.0333093066532813
 40
0.0647716702166544
 40
0.0943783663281612
 40
0.1222127177248465
 40
0.1491222211531709
 40
0.1847291119587909
 40
0.2222831555336318
 40
0.2620739843319801
 40
0.2872491468032485
 40
0.3136666799327896
 40
0.3415920599407731
 40
0.3712739628288858
 40
0.4029220330054687
 40
0.4360749418045706
 40
0.4713509739895899
 40
0.508602374985044
 40
0.5472300247383127
 40
0.587116139573516
 40
0.6262534604554295
 40
0.6635571198076189
 40
0.6987151145651361
 40
0.731629111319568
 40
0.7619106876283266
 40
0.7903558820309872
 40
0.8171935226913372
 40
0.8426601466969967
 40
0.8771326978176454
 40
0.9098346262385163
 40
0.9410602207608915
 40
0.9710787283797638
 40
1.0
 40
1.0
 40
1.0
 40
1.0
 10
181.3882971577135
 20
550.0990376569038
 30
0.0
 10
181.3883003007494
 20
545.3801658146756
 30
0.0
 10
181.3883064125454
 20
536.2040753622092
 30
0.0
 10
181.3883071742588
 20
522.8336555065702
 30
0.0
 10
181.3880458772149
 20
510.2388630533999
 30
0.0
 10
181.3889978195556
 20
498.2890665415015
 30
0.0
 10
181.3842961388879
 20
485.4892323621427
 30
0.0
 10
181.363700969387
 20
471.312438431724
 30
0.0
 10
181.3255555633991
 20
455.3108010376552
 30
0.0
 10
181.2772179595112
 20
440.7870432400545
 30
0.0
 10
181.2250396795362
 20
427.8410021448076
 30
0.0
 10
181.1739990153989
 20
416.5759291039214
 30
0.0
 10
181.1143021563457
 20
404.6724280595341
 30
0.0
 10
181.0451881111015
 20
392.0279651073091
 30
0.0
 10
180.9664506261708
 20
378.6429699446122
 30
0.0
 10
180.8778578003772
 20
364.4655094645532
 30
0.0
 10
180.7797583518708
 20
349.4942794738498
 30
0.0
 10
180.6728301433081
 20
333.7474941503496
 30
0.0
 10
180.5593642120627
 20
317.3476359406986
 30
0.0
 10
180.4433404535075
 20
300.6806140602426
 30
0.0
 10
180.3298127141008
 20
284.2011467670496
 30
0.0
 10
180.2239025110044
 20
268.3914676853965
 30
0.0
 10
180.1277661877467
 20
253.4633908720772
 30
0.0
 10
180.0428611497137
 20
239.5300694598136
 30
0.0
 10
179.9687562854787
 20
226.547691634511
 30
0.0
 10
179.9047441115897
 20
214.4260981407327
 30
0.0
 10
179.8495629311878
 20
202.9865946501256
 30
0.0
 10
179.7961707613399
 20
190.6931887801394
 30
0.0
 10
179.7472222953988
 20
177.5689739999284
 30
0.0
 10
179.7057884454404
 20
163.6288657741724
 30
0.0
 10
179.6771451510174
 20
150.3197238960317
 30
0.0
 10
179.6595528140701
 20
137.5461610670472
 30
0.0
 10
179.6573350378947
 20
129.1962642836562
 30
0.0
 10
179.6562467931136
 20
125.0990376569037
 30
0.0
  0
LWPOLYLINE
  5
6F
330
1F
100
AcDbEntity
  8
0
  6
Continuous
 62
     7
370
    25
100
AcDbPolyline
 90
        9
 70
   128
 43
0.0
 10
184.8523987729
 20
550.0990376569
 10
184.5617105189
 20
550.0990361603
 10
184.2167242825
 20
550.0990350725
 10
183.8233428738
 20
550.0990344124
 10
183.3882971578
 20
550.0990341911
 10
182.9190308872
 20
550.0990344124
 10
182.4235733381
 20
550.0990350725
 10
181.9104019266
 20
550.0990361602
 10
181.3882971577
 20
550.0990376569
  0
SPLINE
  5
70
330
1F
100
AcDbEntity
  8
0
  6
Continuous
 62
     7
370
    25
100
AcDbSpline
210
0.0
220
0.0
230
1.0
 70
     8
 71
     3
 72
    38
 73
    34
 74
     0
 42
0.00000001
 43
0.00000001
 40
0.0
 40
0.0
 40
0.0
 40
0.0
 40
0.035405185120147
 40
0.0700951601548209
 40
0.1058178448331427
 40
0.1439818370010191
 40
0.1691853319094077
 40
0.195623606023902
 40
0.2236175373410274
 40
0.2535044690612879
 40
0.2854972482874345
 40
0.3195951858534217
 40
0.3559056436859165
 40
0.3947552790949959
 40
0.4356580474492903
 40
0.4766032273839133
 40
0.5152636357728121
 40
0.5517781189778532
 40
0.5858708962763421
 40
0.6177344616112261
 40
0.6515348170357498
 40
0.6830470332293946
 40
0.7125995522892433
 40
0.7405943644462002
 40
0.7673562020623734
 40
0.7931148870237169
 40
0.8179242405447273
 40
0.8418073660373466
 40
0.87104568803572
 40
0.9005066431929979
 40
0.9316549090979399
 40
0.9648314699443257
 40
1.0
 40
1.0
 40
1.0
 40
1.0
 10
630.6769722895136
 20
125.0990376569037
 30
0.0
 10
630.6777805971666
 20
130.114829134065
 30
0.0
 10
630.6793808840796
 20
140.0450895098183
 30
0.0
 10
630.6913940839036
 20
155.0361050371458
 30
0.0
 10
630.7107246777148
 20
170.417924308936
 30
0.0
 10
630.7344387461665
 20
184.4557792955796
 30
0.0
 10
630.7602963341855
 20
197.1783014440588
 30
0.0
 10
630.7860743198378
 20
208.4600359600337
 30
0.0
 10
630.8161844556644
 20
220.4052308256871
 30
0.0
 10
630.8511818771252
 20
233.1372822048594
 30
0.0
 10
630.8913653163984
 20
246.7340324006398
 30
0.0
 10
630.9368688393184
 20
261.2407444128821
 30
0.0
 10
630.9878128191604
 20
276.7188053989473
 30
0.0
 10
631.0437928285089
 20
293.1608490501782
 30
0.0
 10
631.1031582417085
 20
310.2594546440757
 30
0.0
 10
631.1624589896907
 20
327.3312530190004
 30
0.0
 10
631.21876492118
 20
343.7813972028878
 30
0.0
 10
631.2702812380569
 20
359.2608160201309
 30
0.0
 10
631.316460654619
 20
373.7773870309821
 30
0.0
 10
631.3590041029923
 20
387.9094899718378
 30
0.0
 10
631.397555176026
 20
401.6760497288695
 30
0.0
 10
631.4318889911501
 20
415.115248116369
 30
0.0
 10
631.4607454245919
 20
427.7320287122188
 30
0.0
 10
631.484710377926
 20
439.6758672402603
 30
0.0
 10
631.5042393534269
 20
451.082269202228
 30
0.0
 10
631.519577904202
 20
462.0374167127471
 30
0.0
 10
631.5309938541504
 20
472.5847602437399
 30
0.0
 10
631.5394364418803
 20
483.6250698845799
 30
0.0
 10
631.5435023699107
 20
495.3243748565231
 30
0.0
 10
631.5429436032617
 20
508.0529210804752
 30
0.0
 10
631.5429310440205
 20
521.339390416538
 30
0.0
 10
631.5430284725983
 20
535.4344421185423
 30
0.0
 10
631.5430081524901
 20
545.1167728672704
 30
0.0
 10
631.5429976963136
 20
550.0990376569038
 30
0.0
  0
LINE
  5
71
330
1F
100
AcDbEntity
  8
0
  6
Continuous
 62
     7
370
    25
100
AcDbLine
 10
631.5429976963
 20
550.0990376569
 30
0.0
 11
635.0070993113
 21
550.0990376569
 31
0.0
  0
SPLINE
  5
72
330
1F
100
AcDbEntity
  8
0
  6
Continuous
 62
     7
370
    25
100
AcDbSpline
210
0.0
220
0.0
230
1.0
 70
     8
 71
     3
 72
    38
 73
    34
 74
     0
 42
0.00000001
 43
0.00000001
 40
0.0
 40
0.0
 40
0.0
 40
0.0
 40
0.0354051851201562
 40
0.0700951601547671
 40
0.1058178448331343
 40
0.143981837000928
 40
0.1691853319092494
 40
0.1956236060237361
 40
0.2236175373409216
 40
0.2535044690612435
 40
0.2854972482874149
 40
0.3195951858534075
 40
0.3559056436859033
 40
0.3947552790949828
 40
0.4356580474492777
 40
0.4766032273839013
 40
0.5152636357728002
 40
0.5517781189778395
 40
0.5858708962763249
 40
0.6177344616112078
 40
0.6515348170357375
 40
0.6830470332293923
 40
0.7125995522892522
 40
0.7405943644462417
 40
0.7673562020624524
 40
0.7931148870237512
 40
0.8179242405446564
 40
0.8418073660372486
 40
0.8710456880356956
 40
0.9005066431929952
 40
0.931654909097938
 40
0.9648314699443244
 40
0.9999999999999999
 40
0.9999999999999999
 40
0.9999999999999999
 40
0.9999999999999999
 10
636.7391501188135
 20
125.0990376569037
 30
0.0
 10
636.7375334918379
 20
130.1148291340608
 30
0.0
 10
636.7343328949088
 20
140.0450895097956
 30
0.0
 10
636.7103065667733
 20
155.0361050371794
 30
0.0
 10
636.6716453317024
 20
170.4179243089019
 30
0.0
 10
636.6242172155688
 20
184.4557792955613
 30
0.0
 10
636.5725020353415
 20
197.1783014440099
 30
0.0
 10
636.5209460629472
 20
208.4600359599776
 30
0.0
 10
636.4607257918011
 20
220.4052308256492
 30
0.0
 10
636.3907309495321
 20
233.1372822048445
 30
0.0
 10
636.3103640707201
 20
246.7340324006364
 30
0.0
 10
636.2193570246279
 20
261.2407444128812
 30
0.0
 10
636.1174690650071
 20
276.7188053989471
 30
0.0
 10
636.0055090464266
 20
293.1608490501783
 30
0.0
 10
635.8867782200867
 20
310.2594546440757
 30
0.0
 10
635.7681767241723
 20
327.3312530190004
 30
0.0
 10
635.655564861235
 20
343.7813972028872
 30
0.0
 10
635.5525322274067
 20
359.2608160201286
 30
0.0
 10
635.4601733940823
 20
373.777387030977
 30
0.0
 10
635.3750864975096
 20
387.9094899718336
 30
0.0
 10
635.2979843524299
 20
401.6760497288727
 30
0.0
 10
635.229316721424
 20
415.1152481163709
 30
0.0
 10
635.1716038516464
 20
427.732028712215
 30
0.0
 10
635.1236739482817
 20
439.6758672402827
 30
0.0
 10
635.0846160035392
 20
451.0822692022737
 30
0.0
 10
635.0539388932615
 20
462.0374167127486
 30
0.0
 10
635.031106982208
 20
472.5847602436953
 30
0.0
 10
635.0142218217366
 20
483.6250698845546
 30
0.0
 10
635.00608997849
 20
495.324374856508
 30
0.0
 10
635.0072074946843
 20
508.0529210804718
 30
0.0
 10
635.0072325875639
 20
521.339390416538
 30
0.0
 10
635.0070378036495
 20
535.4344421185423
 30
0.0
 10
635.007078414217
 20
545.1167728672704
 30
0.0
 10
635.0070993113136
 20
550.0990376569038
 30
0.0
  0
LWPOLYLINE
  5
73
330
1F
100
AcDbEntity
  8
0
  6
Continuous
 62
     7
370
    25
100
AcDbPolyline
 90
        9
 70
   128
 43
0.0
 10
630.6769722895
 20
125.0990376569
 10
631.1856766766
 20
125.0990295641
 10
631.7894025582
 20
125.0990236825
 10
632.4778200131
 20
125.0990201128
 10
633.2391500235
 20
125.0990189161
 10
634.0603660167
 20
125.0990201128
 10
634.9274167541
 20
125.0990236825
 10
635.8254667516
 20
125.0990295641
 10
636.7391501188
 20
125.0990376569
  0
ARC
  5
74
330
1F
100
AcDbEntity
  8
0
  6
Continuous
 62
     7
370
    25
100
AcDbCircle
 10
615.6976982345
 20
125.0990376569
 30
0.0
 40
14.97927405500002
100
AcDbArc
 50
270.0
 51
0.0
  0
SPLINE
  5
75
330
1F
100
AcDbEntity
  8
0
  6
Continuous
 62
     7
370
    25
100
AcDbSpline
210
0.0
220
0.0
230
1.0
 70
     8
 71
     3
 72
    14
 73
    10
 74
     0
 42
0.00000001
 43
0.00000001
 40
0.0
 40
0.0
 40
0.0
 40
0.0
 40
0.139984070293829
 40
0.2799968842578257
 40
0.4200313856784927
 40
0.5600437461665215
 40
0.7066951205875335
 40
0.8533461772494945
 40
1.0
 40
1.0
 40
1.0
 40
1.0
 10
615.6976982345136
 20
104.0575857726037
 30
0.0
 10
617.2397673334349
 20
104.1558616475001
 30
0.0
 10
620.3242221724885
 20
104.3524335767985
 30
0.0
 10
624.7288473040671
 20
105.917981009444
 30
0.0
 10
628.6973443553992
 20
108.3350007316287
 30
0.0
 10
632.0976718330502
 20
111.6299318737665
 30
0.0
 10
634.6987950313204
 20
115.6598140774832
 30
0.0
 10
636.4153047958823
 20
120.2514835649661
 30
0.0
 10
636.631200999148
 20
123.4831761338165
 30
0.0
 10
636.7391501188135
 20
125.0990376569037
 30
0.0
  0
LINE
  5
76
330
1F
100
AcDbEntity
  8
0
  6
Continuous
 62
     7
370
    25
100
AcDbLine
 10
615.6976982345
 20
110.1197636029
 30
0.0
 11
615.6976982345
 21
104.0575857726
 31
0.0
  0
ARC
  5
77
330
1F
100
AcDbEntity
  8
0
  6
Continuous
 62
     7
370
    25
100
AcDbCircle
 10
200.6976982345
 20
125.0990376569
 30
0.0
 40
14.9792742793
100
AcDbArc
 50
180.0
 51
270.0
  0
LINE
  5
78
330
1F
100
AcDbEntity
  8
0
  6
Continuous
 62
     7
370
    25
100
AcDbLine
 10
200.6976982345
 20
110.1197634883
 30
0.0
 11
200.6976982345
 21
104.0575857726
 31
0.0
  0
SPLINE
  5
79
330
1F
100
AcDbEntity
  8
0
  6
Continuous
 62
     7
370
    25
100
AcDbSpline
210
0.0
220
0.0
230
1.0
 70
     8
 71
     3
 72
    14
 73
    10
 74
     0
 42
0.00000001
 43
0.00000001
 40
0.0
 40
0.0
 40
0.0
 40
0.0
 40
0.1400119714528655
 40
0.280024149786495
 40
0.4200363256975091
 40
0.5600485018441973
 40
0.7066990825363323
 40
0.8533496617905494
 40
1.0
 40
1.0
 40
1.0
 40
1.0
 10
179.6562467931136
 20
125.0990376569037
 30
0.0
 10
179.7545607386669
 20
123.556659737892
 30
0.0
 10
179.9511887750417
 20
120.4719016208611
 30
0.0
 10
181.516953542456
 20
116.0672909688499
 30
0.0
 10
183.9339335114564
 20
112.0990858487071
 30
0.0
 10
187.2287114683393
 20
108.6989680305489
 30
0.0
 10
191.2585973586955
 20
106.0978816406154
 30
0.0
 10
195.850226848578
 20
104.3814181700959
 30
0.0
 10
199.0818753244949
 20
104.1655298459596
 30
0.0
 10
200.6976982345136
 20
104.0575857726037
 30
0.0
  0
ARC
  5
7A
330
1F
100
AcDbEntity
  8
0
  6
Continuous
 62
     7
370
    25
100
AcDbCircle
 10
618.1976982345
 20
552.5990376569
 30
0.0
 40
30.92010101270012
100
AcDbArc
 50
0.0
 51
90.0
  0
LINE
  5
7B
330
1F
100
AcDbEntity
  8
0
  6
Continuous
 62
     7
370
    25
100
AcDbLine
 10
649.1177992472
 20
122.5990376569
 30
0.0
 11
649.1177992472
 21
552.5990376569
 31
0.0
  0
ARC
  5
7C
330
1F
100
AcDbEntity
  8
0
  6
Continuous
 62
     7
370
    25
100
AcDbCircle
 10
618.1976982345
 20
122.5990376569
 30
0.0
 40
30.92010101270012
100
AcDbArc
 50
270.0
 51
0.0
  0
LINE
  5
7D
330
1F
100
AcDbEntity
  8
0
  6
Continuous
 62
     7
370
    25
100
AcDbLine
 10
198.1976982345
 20
91.6789366442
 30
0.0
 11
618.1976982345
 21
91.6789366442
 31
0.0
  0
ARC
  5
7E
330
1F
100
AcDbEntity
  8
0
  6
Continuous
 62
     7
370
    25
100
AcDbCircle
 10
198.1976982345
 20
122.5990376569
 30
0.0
 40
30.92010101270003
100
AcDbArc
 50
180.0
 51
270.0
  0
LINE
  5
7F
330
1F
100
AcDbEntity
  8
0
  6
Continuous
 62
     7
370
    25
100
AcDbLine
 10
167.2775972218
 20
552.5990376569
 30
0.0
 11
167.2775972218
 21
122.5990376569
 31
0.0
  0
ARC
  5
80
330
1F
100
AcDbEntity
  8
0
  6
Continuous
 62
     7
370
    25
100
AcDbCircle
 10
198.1976982345
 20
552.5990376569
 30
0.0
 40
30.92010101270003
100
AcDbArc
 50
90.0
 51
180.0
  0
LINE
  5
81
330
1F
100
AcDbEntity
  8
0
  6
Continuous
 62
     7
370
    25
100
AcDbLine
 10
618.1976982345
 20
583.5191386696
 30
0.0
 11
198.1976982345
 21
583.5191386696
 31
0.0
  0
LINE
  5
82
330
1F
100
AcDbEntity
  8
0
  6
Continuous
 62
     7
370
    25
100
AcDbLine
 10
200.6976982345
 20
104.0575857726
 30
0.0
 11
615.6976982345
 21
104.0575857726
 31
0.0
  0
ARC
  5
83
330
1F
100
AcDbEntity
  8
0
  6
Continuous
 62
     7
370
    25
100
AcDbCircle
 10
615.6976982345
 20
550.0990376569
 30
0.0
 40
19.30940107679999
100
AcDbArc
 50
0.0
 51
90.0
  0
LINE
  5
84
330
1F
100
AcDbEntity
  8
0
  6
Continuous
 62
     7
370
    25
100
AcDbLine
 10
615.6976982345
 20
569.4084387337
 30
0.0
 11
200.6976982345
 21
569.4084387337
 31
0.0
  0
ARC
  5
85
330
1F
100
AcDbEntity
  8
0
  6
Continuous
 62
     7
370
    25
100
AcDbCircle
 10
200.6976982345
 20
550.0990376569
 30
0.0
 40
19.30940107680001
100
AcDbArc
 50
90.0
 51
180.0
  0
ARC
  5
86
330
1F
100
AcDbEntity
  8
0
  6
Continuous
 62
     7
370
    25
100
AcDbCircle
 10
615.6976982345
 20
550.0990376569
 30
0.0
 40
15.84529946179998
100
AcDbArc
 50
0.0
 51
90.0
  0
LINE
  5
87
330
1F
100
AcDbEntity
  8
0
  6
Continuous
 62
     7
370
    25
100
AcDbLine
 10
615.6976982345
 20
565.9443371185
 30
0.0
 11
615.6976982345
 21
569.4084387337
 31
0.0
  0
LINE
  5
88
330
1F
100
AcDbEntity
  8
0
  6
Continuous
 62
     7
370
    25
100
AcDbLine
 10
200.6976982345
 20
110.1197634883
 30
0.0
 11
615.6976982345
 21
110.1197636029
 31
0.0
  0
LINE
  5
89
330
1F
100
AcDbEntity
  8
0
  6
Continuous
 62
     7
370
    25
100
AcDbLine
 10
649.1177992472
 20
552.5990376569
 30
0.0
 11
650.1077487408
 21
552.5990376569
 31
0.0
  0
LINE
  5
8A
330
1F
100
AcDbEntity
  8
0
  6
Continuous
 62
     7
370
    25
100
AcDbLine
 10
618.1976982345
 20
583.5191386696
 30
0.0
 11
618.1976982345
 21
584.5090881632
 31
0.0
  0
ARC
  5
8B
330
1F
100
AcDbEntity
  8
0
  6
Continuous
 62
     7
370
    25
100
AcDbCircle
 10
618.1976982345
 20
552.5990376569
 30
0.0
 40
31.91005050630008
100
AcDbArc
 50
0.0
 51
90.0
  0
LINE
  5
8C
330
1F
100
AcDbEntity
  8
0
  6
Continuous
 62
     7
370
    25
100
AcDbLine
 10
649.1177992472
 20
122.5990376569
 30
0.0
 11
650.1077487408
 21
122.5990376569
 31
0.0
  0
LINE
  5
8D
330
1F
100
AcDbEntity
  8
0
  6
Continuous
 62
     7
370
    25
100
AcDbLine
 10
650.1077487408
 20
122.5990376569
 30
0.0
 11
650.1077487408
 21
552.5990376569
 31
0.0
  0
LINE
  5
8E
330
1F
100
AcDbEntity
  8
0
  6
Continuous
 62
     7
370
    25
100
AcDbLine
 10
167.2775972218
 20
552.5990376569
 30
0.0
 11
166.2876477282
 21
552.5990376569
 31
0.0
  0
LINE
  5
8F
330
1F
100
AcDbEntity
  8
0
  6
Continuous
 62
     7
370
    25
100
AcDbLine
 10
167.2775972218
 20
122.5990376569
 30
0.0
 11
166.2876477282
 21
122.5990376569
 31
0.0
  0
LINE
  5
90
330
1F
100
AcDbEntity
  8
0
  6
Continuous
 62
     7
370
    25
100
AcDbLine
 10
166.2876477282
 20
552.5990376569
 30
0.0
 11
166.2876477282
 21
122.5990376569
 31
0.0
  0
LINE
  5
91
330
1F
100
AcDbEntity
  8
0
  6
Continuous
 62
     7
370
    25
100
AcDbLine
 10
615.6976982345
 20
565.9443371185
 30
0.0
 11
200.6976982345
 21
565.9443371185
 31
0.0
  0
LINE
  5
92
330
1F
100
AcDbEntity
  8
0
  6
Continuous
 62
     7
370
    25
100
AcDbLine
 10
200.6976982345
 20
565.9443371185
 30
0.0
 11
200.6976982345
 21
569.4084387337
 31
0.0
  0
ARC
  5
93
330
1F
100
AcDbEntity
  8
0
  6
Continuous
 62
     7
370
    25
100
AcDbCircle
 10
200.6976982345
 20
550.0990376569
 30
0.0
 40
15.84529946159995
100
AcDbArc
 50
90.0
 51
180.0
  0
LINE
  5
94
330
1F
100
AcDbEntity
  8
0
  6
Continuous
 62
     7
370
    25
100
AcDbLine
 10
198.1976982345
 20
583.5191386696
 30
0.0
 11
198.1976982345
 21
584.5090881632
 31
0.0
  0
LINE
  5
95
330
1F
100
AcDbEntity
  8
0
  6
Continuous
 62
     7
370
    25
100
AcDbLine
 10
618.1976982345
 20
584.5090881632
 30
0.0
 11
198.1976982345
 21
584.5090881632
 31
0.0
  0
ARC
  5
96
330
1F
100
AcDbEntity
  8
0
  6
Continuous
 62
     7
370
    25
100
AcDbCircle
 10
198.1976982345
 20
552.5990376569
 30
0.0
 40
31.91005050630008
100
AcDbArc
 50
90.0
 51
180.0
  0
LINE
  5
97
330
1F
100
AcDbEntity
  8
0
  6
Continuous
 62
     7
370
    25
100
AcDbLine
 10
198.1976982345
 20
91.6789366442
 30
0.0
 11
198.1976982345
 21
90.6889871506
 31
0.0
  0
LINE
  5
98
330
1F
100
AcDbEntity
  8
0
  6
Continuous
 62
     7
370
    25
100
AcDbLine
 10
618.1976982345
 20
91.6789366442
 30
0.0
 11
618.1976982345
 21
90.6889871506
 31
0.0
  0
LINE
  5
99
330
1F
100
AcDbEntity
  8
0
  6
Continuous
 62
     7
370
    25
100
AcDbLine
 10
198.1976982345
 20
90.6889871506
 30
0.0
 11
618.1976982345
 21
90.6889871506
 31
0.0
  0
ARC
  5
9A
330
1F
100
AcDbEntity
  8
0
  6
Continuous
 62
     7
370
    25
100
AcDbCircle
 10
198.1976982345
 20
122.5990376569
 30
0.0
 40
31.91005050630002
100
AcDbArc
 50
180.0
 51
270.0
  0
ARC
  5
9B
330
1F
100
AcDbEntity
  8
0
  6
Continuous
 62
     7
370
    25
100
AcDbCircle
 10
618.1976982345
 20
122.5990376569
 30
0.0
 40
31.91005050630008
100
AcDbArc
 50
270.0
 51
0.0
  0
LINE
  5
9C
330
1F
100
AcDbEntity
  8
0
  6
Continuous
 62
     7
370
    25
100
AcDbLine
 10
198.1976982345
 20
90.6889871506
 30
0.0
 11
198.1976982345
 21
89.0990376569
 31
0.0
  0
LINE
  5
9D
330
1F
100
AcDbEntity
  8
0
  6
Continuous
 62
     7
370
    25
100
AcDbLine
 10
618.1976982345
 20
90.6889871506
 30
0.0
 11
618.1976982345
 21
89.0990376569
 31
0.0
  0
LINE
  5
9E
330
1F
100
AcDbEntity
  8
0
  6
Continuous
 62
     7
370
    25
100
AcDbLine
 10
198.1976982345
 20
89.0990376569
 30
0.0
 11
618.1976982345
 21
89.0990376569
 31
0.0
  0
LINE
  5
9F
330
1F
100
AcDbEntity
  8
0
  6
Continuous
 62
     7
370
    25
100
AcDbLine
 10
650.1077487408
 20
552.5990376569
 30
0.0
 11
651.6976982345
 21
552.5990376569
 31
0.0
  0
LINE
  5
A0
330
1F
100
AcDbEntity
  8
0
  6
Continuous
 62
     7
370
    25
100
AcDbLine
 10
618.1976982345
 20
584.5090881632
 30
0.0
 11
618.1976982345
 21
586.0990376569
 31
0.0
  0
ARC
  5
A1
330
1F
100
AcDbEntity
  8
0
  6
Continuous
 62
     7
370
    25
100
AcDbCircle
 10
618.1976982345
 20
552.5990376569
 30
0.0
 40
33.50000000000011
100
AcDbArc
 50
0.0
 51
90.0
  0
LINE
  5
A2
330
1F
100
AcDbEntity
  8
0
  6
Continuous
 62
     7
370
    25
100
AcDbLine
 10
650.1077487408
 20
122.5990376569
 30
0.0
 11
651.6976982345
 21
122.5990376569
 31
0.0
  0
LINE
  5
A3
330
1F
100
AcDbEntity
  8
0
  6
Continuous
 62
     7
370
    25
100
AcDbLine
 10
651.6976982345
 20
122.5990376569
 30
0.0
 11
651.6976982345
 21
552.5990376569
 31
0.0
  0
LINE
  5
A4
330
1F
100
AcDbEntity
  8
0
  6
Continuous
 62
     7
370
    25
100
AcDbLine
 10
198.1976982345
 20
584.5090881632
 30
0.0
 11
198.1976982345
 21
586.0990376569
 31
0.0
  0
LINE
  5
A5
330
1F
100
AcDbEntity
  8
0
  6
Continuous
 62
     7
370
    25
100
AcDbLine
 10
166.2876477282
 20
552.5990376569
 30
0.0
 11
164.6976982345
 21
552.5990376569
 31
0.0
  0
ARC
  5
A6
330
1F
100
AcDbEntity
  8
0
  6
Continuous
 62
     7
370
    25
100
AcDbCircle
 10
198.1976982345
 20
552.5990376569
 30
0.0
 40
33.50000000000011
100
AcDbArc
 50
90.0
 51
180.0
  0
LINE
  5
A7
330
1F
100
AcDbEntity
  8
0
  6
Continuous
 62
     7
370
    25
100
AcDbLine
 10
618.1976982345
 20
586.0990376569
 30
0.0
 11
198.1976982345
 21
586.0990376569
 31
0.0
  0
LINE
  5
A8
330
1F
100
AcDbEntity
  8
0
  6
Continuous
 62
     7
370
    25
100
AcDbLine
 10
166.2876477282
 20
122.5990376569
 30
0.0
 11
164.6976982345
 21
122.5990376569
 31
0.0
  0
ARC
  5
A9
330
1F
100
AcDbEntity
  8
0
  6
Continuous
 62
     7
370
    25
100
AcDbCircle
 10
198.1976982345
 20
122.5990376569
 30
0.0
 40
33.50000000000003
100
AcDbArc
 50
180.0
 51
270.0
  0
ARC
  5
AA
330
1F
100
AcDbEntity
  8
0
  6
Continuous
 62
     7
370
    25
100
AcDbCircle
 10
618.1976982345
 20
122.5990376569
 30
0.0
 40
33.5
100
AcDbArc
 50
270.0
 51
0.0
  0
LINE
  5
AB
330
1F
100
AcDbEntity
  8
0
  6
Continuous
 62
     7
370
    25
100
AcDbLine
 10
164.6976982345
 20
552.5990376569
 30
0.0
 11
164.6976982345
 21
122.5990376569
 31
0.0
  0
LINE
  5
AC
330
1F
100
AcDbEntity
  8
0
  6
Continuous
 62
     7
370
    25
100
AcDbLine
 10
630.6769722895
 20
125.0990376569
 30
0.0
 11
630.3593385156
 21
125.0990376569
 31
0.0
  0
SPLINE
  5
AD
330
1F
100
AcDbEntity
  8
0
  6
Continuous
 62
     7
370
    25
100
AcDbSpline
210
0.0
220
0.0
230
1.0
 70
     8
 71
     3
 72
    34
 73
    30
 74
     0
 42
0.00000001
 43
0.00000001
 40
0.0
 40
0.0
 40
0.0
 40
0.0
 40
0.0199064853223763
 40
0.0402904123633603
 40
0.0624311192409745
 40
0.0871803087173679
 40
0.1147076336321814
 40
0.1450673747520138
 40
0.1780773376208819
 40
0.2174447853079315
 40
0.2590843440100835
 40
0.3019804713439226
 40
0.3463523849313679
 40
0.3924878063918406
 40
0.4223290632500489
 40
0.4530698115749462
 40
0.4848249589933129
 40
0.5177421683978265
 40
0.5520057429829939
 40
0.5878731758098688
 40
0.6257238140465163
 40
0.6661286875979534
 40
0.7050466415730366
 40
0.7468244592421491
 40
0.7915155088359301
 40
0.8390338617333498
 40
0.8895209699227985
 40
0.9431796361693876
 40
1.0
 40
1.0
 40
1.0
 40
1.0
 10
629.8109664460136
 20
493.2816493557037
 30
0.0
 10
629.8118173142374
 20
490.8385417136053
 30
0.0
 10
629.8135394581041
 20
485.8937303742787
 30
0.0
 10
629.8276499730522
 20
478.2316504639377
 30
0.0
 10
629.8511599043928
 20
469.9753177748416
 30
0.0
 10
629.8858786913461
 20
460.8424100044095
 30
0.0
 10
629.9326922413626
 20
450.7009572103366
 30
0.0
 10
629.9905049901105
 20
439.5458352071795
 30
0.0
 10
630.0589830221257
 20
426.9377305966186
 30
0.0
 10
630.1313523664062
 20
412.9452647195089
 30
0.0
 10
630.1994268716523
 20
397.7393361473288
 30
0.0
 10
630.260197749134
 20
381.9190720737014
 30
0.0
 10
630.3129195933803
 20
365.5469068495345
 30
0.0
 10
630.3516554219652
 20
350.7768196271515
 30
0.0
 10
630.3799318846784
 20
337.6795959885693
 30
0.0
 10
630.400447384631
 20
326.347204144348
 30
0.0
 10
630.4176856408296
 20
314.6372796342706
 30
0.0
 10
630.4315839241261
 20
302.4949825441772
 30
0.0
 10
630.4420770629316
 20
289.8479735747952
 30
0.0
 10
630.4490736972318
 20
276.5954788227835
 30
0.0
 10
630.452437605331
 20
262.5892616012292
 30
0.0
 10
630.4519662106835
 20
248.2086548290744
 30
0.0
 10
630.4479319482639
 20
233.3460708111594
 30
0.0
 10
630.4404877132886
 20
217.9574529003907
 30
0.0
 10
630.42958712944
 20
201.5133222276832
 30
0.0
 10
630.41530055013
 20
184.0003162303333
 30
0.0
 10
630.3982041793539
 20
165.3867299961451
 30
0.0
 10
630.3788005827518
 20
145.6315221435446
 30
0.0
 10
630.36594847223
 20
132.0725431288972
 30
0.0
 10
630.3593385156137
 20
125.0990376569037
 30
0.0
  0
SPLINE
  5
AE
330
1F
100
AcDbEntity
  8
0
  6
Continuous
 62
     7
370
    25
100
AcDbSpline
210
0.0
220
0.0
230
1.0
 70
     8
 71
     3
 72
    10
 73
     6
 74
     0
 42
0.00000001
 43
0.00000001
 40
0.0
 40
0.0
 40
0.0
 40
0.0
 40
0.2221730055044891
 40
0.4583406893549492
 40
1.0
 40
1.0
 40
1.0
 40
1.0
 10
630.9656468615976
 20
498.0986638717036
 30
0.0
 10
630.9521149343038
 20
497.6932927395561
 30
0.0
 10
630.9241987035716
 20
496.8570161463161
 30
0.0
 10
630.615197082207
 20
495.1096587909273
 30
0.0
 10
630.1411094301271
 20
494.0320613354858
 30
0.0
 10
629.8109666186431
 20
493.2816493557037
 30
0.0
  0
LINE
  5
AF
330
1F
100
AcDbEntity
  8
0
  6
Continuous
 62
     7
370
    25
100
AcDbLine
 10
630.9656474269
 20
550.0990376569
 30
0.0
 11
630.9656471436
 21
498.0986638717
 31
0.0
  0
LINE
  5
B0
330
1F
100
AcDbEntity
  8
0
  6
Continuous
 62
     7
370
    25
100
AcDbLine
 10
631.5429976963
 20
550.0990376569
 30
0.0
 11
630.9656474269
 21
550.0990376569
 31
0.0
  0
LINE
  5
B1
330
1F
100
AcDbEntity
  8
0
  6
Continuous
 62
     7
370
    25
100
AcDbLine
 10
185.7184239552
 20
125.0990376569
 30
0.0
 11
186.007099227
 21
125.0990376569
 31
0.0
  0
LINE
  5
B2
330
1F
100
AcDbEntity
  8
0
  6
Continuous
 62
     7
370
    25
100
AcDbLine
 10
184.8523987729
 20
550.0990376569
 30
0.0
 11
185.4297490421
 21
550.0990376569
 31
0.0
  0
LINE
  5
B3
330
1F
100
AcDbEntity
  8
0
  6
Continuous
 62
     7
370
    25
100
AcDbLine
 10
185.4297492649
 20
498.0986650748
 30
0.0
 11
185.4297490421
 21
550.0990376569
 31
0.0
  0
SPLINE
  5
B4
330
1F
100
AcDbEntity
  8
0
  6
Continuous
 62
     7
370
    25
100
AcDbSpline
210
0.0
220
0.0
230
1.0
 70
     8
 71
     3
 72
    10
 73
     6
 74
     0
 42
0.00000001
 43
0.00000001
 40
0.0
 40
0.0
 40
0.0
 40
0.0
 40
0.5380079970312351
 40
0.7708405474606976
 40
1.0
 40
1.0
 40
1.0
 40
1.0
 10
186.5843988218325
 20
493.2817152167037
 30
0.0
 10
186.2564363157173
 20
494.0266306334588
 30
0.0
 10
185.7865421893187
 20
495.0939214745467
 30
0.0
 10
185.4730415928845
 20
496.8373780504435
 30
0.0
 10
185.4441034984691
 20
497.680470420515
 30
0.0
 10
185.4297494883755
 20
498.0986650748037
 30
0.0
  0
SPLINE
  5
B5
330
1F
100
AcDbEntity
  8
0
  6
Continuous
 62
     7
370
    25
100
AcDbSpline
210
0.0
220
0.0
230
1.0
 70
     8
 71
     3
 72
    35
 73
    31
 74
     0
 42
0.00000001
 43
0.00000001
 40
0.0
 40
0.0
 40
0.0
 40
0.0
 40
0.0379677784387294
 40
0.0781588644941925
 40
0.1208161793081477
 40
0.1649311992207095
 40
0.2091063892404368
 40
0.2521593622780208
 40
0.2930744699734186
 40
0.3352756135649292
 40
0.3746993471258978
 40
0.4115449578660663
 40
0.4460391697992345
 40
0.4784979780363088
 40
0.5237543844225718
 40
0.5661786362341171
 40
0.6063925512498551
 40
0.6447851219779722
 40
0.6816483560770878
 40
0.7172300775873139
 40
0.7516026699995273
 40
0.7850474548591626
 40
0.8177233248531148
 40
0.8489869669865457
 40
0.8778555808668365
 40
0.9039885907902444
 40
0.9316262110121616
 40
0.9562279244327372
 40
0.9784465639106757
 40
1.0
 40
1.0
 40
1.0
 40
1.0
 10
186.0070992270136
 20
125.0990376569037
 30
0.0
 10
186.0068258321267
 20
129.7587895079099
 30
0.0
 10
186.0062630329642
 20
139.3511577863725
 30
0.0
 10
186.0022661591517
 20
154.1788187433417
 30
0.0
 10
185.9963205535084
 20
169.7609224769097
 30
0.0
 10
185.9890608001677
 20
185.8319897494646
 30
0.0
 10
185.9815156800667
 20
201.9516152541883
 30
0.0
 10
185.974615519951
 20
217.6785194245938
 30
0.0
 10
185.9692157256509
 20
233.1631529943001
 30
0.0
 10
185.9660052970391
 20
248.2023757578875
 30
0.0
 10
185.9655561461305
 20
262.7421542224584
 30
0.0
 10
185.968024223247
 20
276.3360669867921
 30
0.0
 10
185.9733541527937
 20
289.0751771580728
 30
0.0
 10
185.9826566540059
 20
302.846528740131
 30
0.0
 10
185.9975123534461
 20
317.5911109601383
 30
0.0
 10
186.0201276065077
 20
333.2874356026674
 30
0.0
 10
186.048332273884
 20
348.1413259755019
 30
0.0
 10
186.0820639693283
 20
362.3126641382382
 30
0.0
 10
186.1212386261706
 20
375.9154324488006
 30
0.0
 10
186.1659458617843
 20
389.0247530022913
 30
0.0
 10
186.2158080028168
 20
401.7144435195724
 30
0.0
 10
186.2714834006591
 20
414.0473912358148
 30
0.0
 10
186.332324274677
 20
425.9986620872048
 30
0.0
 10
186.3936401486446
 20
437.3882608898492
 30
0.0
 10
186.4491435491452
 20
447.9749393457778
 30
0.0
 10
186.497721001572
 20
458.116717034911
 30
0.0
 10
186.5367764904288
 20
467.7349743968953
 30
0.0
 10
186.5646453593727
 20
476.8729700911352
 30
0.0
 10
186.5814202742704
 20
485.2643706913706
 30
0.0
 10
186.5834158481987
 20
490.6364803237684
 30
0.0
 10
186.5843984718136
 20
493.2817152167037
 30
0.0
  0
ARC
  5
B6
330
1F
100
AcDbEntity
  8
0
  6
Continuous
 62
     7
370
    25
100
AcDbCircle
 10
618.1976982345
 20
552.5990376569
 30
0.0
 40
34.00000000000011
100
AcDbArc
 50
0.0
 51
90.0
  0
LINE
  5
B7
330
1F
100
AcDbEntity
  8
0
  6
Continuous
 62
     7
370
    25
100
AcDbLine
 10
164.1976982345
 20
552.5990376569
 30
0.0
 11
164.1976982345
 21
122.5990376569
 31
0.0
  0
ARC
  5
B8
330
1F
100
AcDbEntity
  8
0
  6
Continuous
 62
     7
370
    25
100
AcDbCircle
 10
198.1976982345
 20
122.5990376569
 30
0.0
 40
34.00000000000003
100
AcDbArc
 50
180.0
 51
270.0
  0
ARC
  5
B9
330
1F
100
AcDbEntity
  8
0
  6
Continuous
 62
     7
370
    25
100
AcDbCircle
 10
615.6976982345
 20
550.0990376569
 30
0.0
 40
15.26794919240001
100
AcDbArc
 50
0.0
 51
90.0
  0
LINE
  5
BA
330
1F
100
AcDbEntity
  8
0
  6
Continuous
 62
     7
370
    25
100
AcDbLine
 10
615.6976982345
 20
565.9443371185
 30
0.0
 11
615.6976982345
 21
565.3669868493
 31
0.0
  0
LINE
  5
BB
330
1F
100
AcDbEntity
  8
0
  6
Continuous
 62
     7
370
    25
100
AcDbLine
 10
652.1976982345
 20
122.5990376569
 30
0.0
 11
652.1976982345
 21
552.5990376569
 31
0.0
  0
ARC
  5
BC
330
1F
100
AcDbEntity
  8
0
  6
Continuous
 62
     7
370
    25
100
AcDbCircle
 10
200.6976982345
 20
550.0990376569
 30
0.0
 40
15.26794919239998
100
AcDbArc
 50
90.0
 51
180.0
  0
LINE
  5
BD
330
1F
100
AcDbEntity
  8
0
  6
Continuous
 62
     7
370
    25
100
AcDbLine
 10
200.6976982345
 20
565.9443371185
 30
0.0
 11
200.6976982345
 21
565.3669868493
 31
0.0
  0
ARC
  5
BE
330
1F
100
AcDbEntity
  8
0
  6
Continuous
 62
     7
370
    25
100
AcDbCircle
 10
618.1976982345
 20
122.5990376569
 30
0.0
 40
34.00000000000011
100
AcDbArc
 50
270.0
 51
0.0
  0
LINE
  5
BF
330
1F
100
AcDbEntity
  8
0
  6
Continuous
 62
     7
370
    25
100
AcDbLine
 10
198.1976982345
 20
88.5990376569
 30
0.0
 11
618.1976982345
 21
88.5990376569
 31
0.0
  0
ARC
  5
C0
330
1F
100
AcDbEntity
  8
0
  6
Continuous
 62
     7
370
    25
100
AcDbCircle
 10
198.1976982345
 20
552.5990376569
 30
0.0
 40
34.00000000000003
100
AcDbArc
 50
90.0
 51
180.0
  0
LINE
  5
C1
330
1F
100
AcDbEntity
  8
0
  6
Continuous
 62
     7
370
    25
100
AcDbLine
 10
618.1976982345
 20
586.5990376569
 30
0.0
 11
198.1976982345
 21
586.5990376569
 31
0.0
  0
LINE
  5
C2
330
1F
100
AcDbEntity
  8
0
  6
Continuous
 62
     7
370
    25
100
AcDbLine
 10
200.6976982345
 20
565.3669868493
 30
0.0
 11
615.6976982345
 21
565.3669868493
 31
0.0
  0
SPLINE
  5
C3
330
1F
100
AcDbEntity
  8
0
  6
Continuous
 62
     7
370
    25
100
AcDbSpline
210
0.0
220
0.0
230
1.0
 70
     8
 71
     3
 72
    10
 73
     6
 74
     0
 42
0.00000001
 43
0.00000001
 40
0.0
 40
0.0
 40
0.0
 40
0.0
 40
0.2812335074229014
 40
0.5614442534377074
 40
1.0
 40
1.0
 40
1.0
 40
1.0
 10
186.5843984718136
 20
493.2817152167037
 30
0.0
 10
186.7122721171741
 20
493.7916124852906
 30
0.0
 10
186.9675543700311
 20
494.8095526799532
 30
0.0
 10
188.0744197597052
 20
496.4483181194767
 30
0.0
 10
189.2724715219792
 20
497.1106650373051
 30
0.0
 10
190.0034634233136
 20
497.5147963512037
 30
0.0
  0
SPLINE
  5
C4
330
1F
100
AcDbEntity
  8
0
  6
Continuous
 62
     7
370
    25
100
AcDbSpline
210
0.0
220
0.0
230
1.0
 70
     8
 71
     3
 72
    12
 73
     8
 74
     0
 42
0.00000001
 43
0.00000001
 40
0.0
 40
0.0
 40
0.0
 40
0.0
 40
0.2516644525371105
 40
0.4767375224076343
 40
0.5961146136679369
 40
0.7183079344456159
 40
1.0
 40
1.0
 40
1.0
 40
1.0
 10
190.0034633761626
 20
497.5147965702752
 30
0.0
 10
189.508290405756
 20
497.3997027109577
 30
0.0
 10
188.5702654574764
 20
497.1816760457605
 30
0.0
 10
187.5962461814296
 20
496.4131092931748
 30
0.0
 10
187.0537432231187
 20
495.6444702250307
 30
0.0
 10
186.6183245774837
 20
494.6730385280741
 30
0.0
 10
186.5983383355797
 20
493.8533862020223
 30
0.0
 10
186.5843988221555
 20
493.2817152166992
 30
0.0
  0
LINE
  5
C5
330
1F
100
AcDbEntity
  8
0
  6
Continuous
 62
     7
370
    25
100
AcDbLine
 10
187.1618039578
 20
498.098665765
 30
0.0
 11
185.4297494883
 21
498.098665765
 31
0.0
  0
SPLINE
  5
C6
330
1F
100
AcDbEntity
  8
0
  6
Continuous
 62
     7
370
    25
100
AcDbSpline
210
0.0
220
0.0
230
1.0
 70
     8
 71
     3
 72
     9
 73
     5
 74
     0
 42
0.00000001
 43
0.00000001
 40
0.0
 40
0.0
 40
0.0
 40
0.0
 40
0.5440457139784105
 40
0.9999999999999999
 40
0.9999999999999999
 40
0.9999999999999999
 40
0.9999999999999999
 10
186.584398974841
 20
493.2817152165682
 30
0.0
 10
186.5301590411885
 20
494.1598771750334
 30
0.0
 10
186.4304616586728
 20
495.7740098405472
 30
0.0
 10
186.9327729648476
 20
497.3706653536204
 30
0.0
 10
187.1618039578151
 20
498.0986672781062
 30
0.0
  0
SPLINE
  5
C7
330
1F
100
AcDbEntity
  8
0
  6
Continuous
 62
     7
370
    25
100
AcDbSpline
210
0.0
220
0.0
230
1.0
 70
     8
 71
     3
 72
     9
 73
     5
 74
     0
 42
0.00000001
 43
0.00000001
 40
0.0
 40
0.0
 40
0.0
 40
0.0
 40
0.4559514503108201
 40
1.0
 40
1.0
 40
1.0
 40
1.0
 10
629.233603335017
 20
498.0986588728987
 30
0.0
 10
629.462625680648
 20
497.3706500285853
 30
0.0
 10
629.9649211453842
 20
495.7739694087143
 30
0.0
 10
629.8652126924119
 20
494.1598232385619
 30
0.0
 10
629.8109664531805
 20
493.2816493557042
 30
0.0
  0
LWPOLYLINE
  5
C8
330
1F
100
AcDbEntity
  8
0
  6
Continuous
 62
     7
370
    25
100
AcDbPolyline
 90
        9
 70
   128
 43
0.0
 10
629.233603335
 20
498.0986581163
 10
629.4946548824
 20
498.0986585816
 10
629.7512396718
 20
498.0986591337
 10
629.9989674968
 20
498.0986597634
 10
630.2335996952
 20
498.0986604597
 10
630.4511216729
 20
498.0986612107
 10
630.6478115943
 20
498.0986620037
 10
630.8203040637
 20
498.0986628251
 10
630.9656477076
 20
498.0986636607
  0
LINE
  5
C9
330
1F
100
AcDbEntity
  8
0
  6
Continuous
 62
     7
370
    25
100
AcDbLine
 10
187.1618039578
 20
498.0986672781
 30
0.0
 11
187.1617998497
 21
550.0990376569
 31
0.0
  0
LINE
  5
CA
330
1F
100
AcDbEntity
  8
0
  6
Continuous
 62
     7
370
    25
100
AcDbLine
 10
187.1617998496
 20
550.0990376569
 30
0.0
 11
185.4297490421
 21
550.0990376569
 31
0.0
  0
LINE
  5
CB
330
1F
100
AcDbEntity
  8
0
  6
Continuous
 62
     7
370
    25
100
AcDbLine
 10
629.2335966194
 20
550.0990376569
 30
0.0
 11
629.233603335
 21
498.0986588729
 31
0.0
  0
LINE
  5
CC
330
1F
100
AcDbEntity
  8
0
  6
Continuous
 62
     7
370
    25
100
AcDbLine
 10
629.2335966194
 20
550.0990376569
 30
0.0
 11
630.9656474269
 21
550.0990376569
 31
0.0
  0
ARC
  5
CD
330
1F
100
AcDbEntity
  8
0
  6
Continuous
 62
     7
370
    25
100
AcDbCircle
 10
200.6976982345
 20
550.0990376569
 30
0.0
 40
13.53589838489998
100
AcDbArc
 50
90.0
 51
180.0
  0
LINE
  5
CE
330
1F
100
AcDbEntity
  8
0
  6
Continuous
 62
     7
370
    25
100
AcDbLine
 10
200.6976982345
 20
563.6349360418
 30
0.0
 11
200.6976982345
 21
565.3669868493
 31
0.0
  0
ARC
  5
CF
330
1F
100
AcDbEntity
  8
0
  6
Continuous
 62
     7
370
    25
100
AcDbCircle
 10
615.6976982345
 20
550.0990376569
 30
0.0
 40
13.53589838489995
100
AcDbArc
 50
0.0
 51
90.0
  0
LINE
  5
D0
330
1F
100
AcDbEntity
  8
0
  6
Continuous
 62
     7
370
    25
100
AcDbLine
 10
615.6976982345
 20
563.6349360418
 30
0.0
 11
615.6976982345
 21
565.3669868493
 31
0.0
  0
LINE
  5
D1
330
1F
100
AcDbEntity
  8
0
  6
Continuous
 62
     7
370
    25
100
AcDbLine
 10
200.6976982345
 20
563.6349360418
 30
0.0
 11
615.6976982345
 21
563.6349360418
 31
0.0
  0
SPLINE
  5
D2
330
1F
100
AcDbEntity
  8
0
  6
Continuous
 62
     7
370
    25
100
AcDbSpline
210
0.0
220
0.0
230
1.0
 70
     8
 71
     3
 72
    13
 73
     9
 74
     0
 42
0.00000001
 43
0.00000001
 40
0.0
 40
0.0
 40
0.0
 40
0.0
 40
0.1865505133862433
 40
0.3731030883355843
 40
0.5596573109856943
 40
0.7064377852753322
 40
0.8532187453652946
 40
0.9999999999999999
 40
0.9999999999999999
 40
0.9999999999999999
 40
0.9999999999999999
 10
200.6976982345136
 20
110.4091973747037
 30
0.0
 10
199.2618683172751
 20
110.5315444567626
 30
0.0
 10
196.3901926154927
 20
110.7762399729336
 30
0.0
 10
192.4520102129376
 20
112.7014899356121
 30
0.0
 10
189.441108169924
 20
115.3912954926603
 30
0.0
 10
187.4318576524985
 20
118.5096834819235
 30
0.0
 10
186.2331455778894
 20
121.7144935049903
 30
0.0
 10
186.0824480610395
 20
123.9708555182946
 30
0.0
 10
186.0070992270136
 20
125.0990376569037
 30
0.0
  0
LINE
  5
D3
330
1F
100
AcDbEntity
  8
0
  6
Continuous
 62
     7
370
    25
100
AcDbLine
 10
200.6976982345
 20
110.1197634883
 30
0.0
 11
200.6976982345
 21
110.4091973747
 31
0.0
  0
SPLINE
  5
D4
330
1F
100
AcDbEntity
  8
0
  6
Continuous
 62
     7
370
    25
100
AcDbSpline
210
0.0
220
0.0
230
1.0
 70
     8
 71
     3
 72
    27
 73
    23
 74
     0
 42
0.00000001
 43
0.00000001
 40
0.0
 40
0.0
 40
0.0
 40
0.0
 40
0.0372090413817807
 40
0.0757711107880193
 40
0.1155758731548414
 40
0.1567951694617566
 40
0.1998128571089224
 40
0.2449418005792434
 40
0.28956143338226
 40
0.336312757408156
 40
0.38541961730737
 40
0.4371572557555536
 40
0.4916242970660689
 40
0.5485432533409933
 40
0.6075503623916096
 40
0.667860280719772
 40
0.7284259451345592
 40
0.7882098594977912
 40
0.8451954710555631
 40
0.8995575819427231
 40
0.9510592714261498
 40
1.0
 40
1.0
 40
1.0
 40
1.0
 10
615.6976982345136
 20
110.4500488642037
 30
0.0
 10
610.550451560624
 20
110.4536875930935
 30
0.0
 10
600.0687894834189
 20
110.4610973655467
 30
0.0
 10
584.0807999390454
 20
110.4699459490212
 30
0.0
 10
567.5380552914428
 20
110.4773414691693
 30
0.0
 10
550.3789470748665
 20
110.483011873901
 30
0.0
 10
532.4833250236968
 20
110.4869746711162
 30
0.0
 10
514.1173217539946
 20
110.4891437363429
 30
0.0
 10
495.2348315454805
 20
110.4895871304334
 30
0.0
 10
475.8020629292147
 20
110.4883444907408
 30
0.0
 10
455.3846373623875
 20
110.4854039871457
 30
0.0
 10
433.8998718579458
 20
110.4807572508207
 30
0.0
 10
411.3344343145963
 20
110.4744682514004
 30
0.0
 10
387.7633879670586
 20
110.4667979513118
 30
0.0
 10
363.3840781987384
 20
110.4579794457336
 30
0.0
 10
338.5003078496237
 20
110.4485259033601
 30
0.0
 10
313.5090793758854
 20
110.4390725194697
 30
0.0
 10
288.9777125795392
 20
110.4302800806624
 30
0.0
 10
265.3045029120602
 20
110.4225555762271
 30
0.0
 10
242.7769996113193
 20
110.4163746950382
 30
0.0
 10
221.3623705563191
 20
110.4117386802286
 30
0.0
 10
207.46783356756
 20
110.4100299541929
 30
0.0
 10
200.6976982345136
 20
110.4091973747037
 30
0.0
  0
LINE
  5
D5
330
1F
100
AcDbEntity
  8
0
  6
Continuous
 62
     7
370
    25
100
AcDbLine
 10
615.6976982345
 20
110.1197636029
 30
0.0
 11
615.6976982345
 21
110.4500488642
 31
0.0
  0
SPLINE
  5
D6
330
1F
100
AcDbEntity
  8
0
  6
Continuous
 62
     7
370
    25
100
AcDbSpline
210
0.0
220
0.0
230
1.0
 70
     8
 71
     3
 72
    13
 73
     9
 74
     0
 42
0.00000001
 43
0.00000001
 40
0.0
 40
0.0
 40
0.0
 40
0.0
 40
0.1866023565694931
 40
0.3731815086529634
 40
0.5597383151450057
 40
0.706504822510819
 40
0.8532585393406386
 40
1.0
 40
1.0
 40
1.0
 40
1.0
 10
630.3593385156136
 20
125.0990376569037
 30
0.0
 10
630.2363329924241
 20
123.6663363438588
 30
0.0
 10
629.9903372421003
 20
120.8011118778855
 30
0.0
 10
628.0672220787266
 20
116.8729281865869
 30
0.0
 10
625.3822011989249
 20
113.8705898630973
 30
0.0
 10
622.270532047694
 20
111.8679043302233
 30
0.0
 10
619.0734123570493
 20
110.6738605783919
 30
0.0
 10
616.8229049487766
 20
110.5246506919633
 30
0.0
 10
615.6976982345136
 20
110.4500488642037
 30
0.0
  0
SPLINE
  5
D7
330
1F
100
AcDbEntity
  8
0
  6
Continuous
 62
     7
370
    25
100
AcDbSpline
210
0.0
220
0.0
230
1.0
 70
     8
 71
     3
 72
    34
 73
    30
 74
     0
 42
0.00000001
 43
0.00000001
 40
0.0
 40
0.0
 40
0.0
 40
0.0
 40
0.0199064078731603
 40
0.0402903445898991
 40
0.062431048836365
 40
0.0871802417082883
 40
0.1147075681919238
 40
0.1450673116580344
 40
0.1780772769515497
 40
0.21744472754132
 40
0.2590842893191269
 40
0.3019804198185376
 40
0.3463523366816592
 40
0.392487761547569
 40
0.4223290206085867
 40
0.4530697712026472
 40
0.48482492096505
 40
0.5177421327993857
 40
0.5520057099137601
 40
0.5878731453882327
 40
0.6257237864188706
 40
0.6661286629528419
 40
0.7050466198007006
 40
0.7468244405536926
 40
0.7915154934463973
 40
0.8390338498514425
 40
0.8895209617676568
 40
0.9431796319751189
 40
1.0
 40
1.0
 40
1.0
 40
1.0
 10
626.3468448410135
 20
493.2816221227037
 30
0.0
 10
626.3451303427303
 20
490.8385241787859
 30
0.0
 10
626.3416602175789
 20
485.8937215476675
 30
0.0
 10
626.3134333924669
 20
478.23165089529
 30
0.0
 10
626.2664231930826
 20
469.9753174729386
 30
0.0
 10
626.1969797643133
 20
460.8424101311236
 30
0.0
 10
626.1033553177704
 20
450.7009571681709
 30
0.0
 10
625.9877288196933
 20
439.5458352185305
 30
0.0
 10
625.8507730870347
 20
426.9377305941887
 30
0.0
 10
625.7060342955933
 20
412.9452647195471
 30
0.0
 10
625.569885312383
 20
397.739336147407
 30
0.0
 10
625.4483435512798
 20
381.9190720736536
 30
0.0
 10
625.342899863964
 20
365.546906849556
 30
0.0
 10
625.2654282066376
 20
350.7768196271446
 30
0.0
 10
625.2088752811162
 20
337.6795959885703
 30
0.0
 10
625.1678442812557
 20
326.3472041443452
 30
0.0
 10
625.133367768882
 20
314.6372796342693
 30
0.0
 10
625.1055712022883
 20
302.494982544177
 30
0.0
 10
625.084584924678
 20
289.8479735747952
 30
0.0
 10
625.0705916560554
 20
276.5954788227836
 30
0.0
 10
625.063863839809
 20
262.5892616012292
 30
0.0
 10
625.0648066291476
 20
248.2086548290744
 30
0.0
 10
625.0728751540375
 20
233.3460708111594
 30
0.0
 10
625.0877636238071
 20
217.9574529003905
 30
0.0
 10
625.1095647914551
 20
201.5133222276831
 30
0.0
 10
625.1381379508636
 20
184.0003162303337
 30
0.0
 10
625.1723306926286
 20
165.3867299961464
 30
0.0
 10
625.2111378821479
 20
145.631522143542
 30
0.0
 10
625.2368421050993
 20
132.0725431288969
 30
0.0
 10
625.2500620193135
 20
125.0990376569037
 30
0.0
  0
LWPOLYLINE
  5
D8
330
1F
100
AcDbEntity
  8
0
  6
Continuous
 62
     7
370
    25
100
AcDbPolyline
 90
        9
 70
   128
 43
0.0
 10
626.3468448413
 20
493.2816116738
 10
626.8689545005
 20
493.2816269891
 10
627.3821305448
 20
493.2816423032
 10
627.877592222
 20
493.2816573542
 10
628.3468618832
 20
493.2816718844
 10
628.7819100412
 20
493.2816856453
 10
629.1752927589
 20
493.2816984015
 10
629.5202790204
 20
493.2817099346
 10
629.8109659023
 20
493.2817200473
  0
LWPOLYLINE
  5
D9
330
1F
100
AcDbEntity
  8
0
  6
Continuous
 62
     7
370
    25
100
AcDbPolyline
 90
        9
 70
   128
 43
0.0
 10
625.2500620193
 20
125.0990376569
 10
626.0201247099
 20
125.1003019887
 10
626.7770118648
 20
125.1012208597
 10
627.5077727883
 20
125.1017785474
 10
628.1999038165
 20
125.1019655097
 10
628.8415622617
 20
125.1017785474
 10
629.4217690453
 20
125.1012208597
 10
629.9305965561
 20
125.1003019887
 10
630.3593385156
 20
125.0990376569
  0
SPLINE
  5
DA
330
1F
100
AcDbEntity
  8
0
  6
Continuous
 62
     7
370
    25
100
AcDbSpline
210
0.0
220
0.0
230
1.0
 70
     8
 71
     3
 72
     9
 73
     5
 74
     0
 42
0.00000001
 43
0.00000001
 40
0.0
 40
0.0
 40
0.0
 40
0.0
 40
0.5767194403544625
 40
1.0
 40
1.0
 40
1.0
 40
1.0
 10
625.1680845248136
 20
497.6411273821037
 30
0.0
 10
625.4053447366304
 20
497.6346507827702
 30
0.0
 10
625.8167409809998
 20
497.6234207133808
 30
0.0
 10
626.22088023929
 20
497.5470987244792
 30
0.0
 10
626.3919445307135
 20
497.5147931103037
 30
0.0
  0
LWPOLYLINE
  5
DB
330
1F
100
AcDbEntity
  8
0
  6
Continuous
 62
     7
370
    25
100
AcDbPolyline
 90
        9
 70
   128
 43
0.0
 10
625.1680845248
 20
497.6411273821
 10
625.1680845314
 20
497.7864715081
 10
625.1680845511
 20
497.9589646252
 10
625.1680845836
 20
498.1556553282
 10
625.1680846284
 20
498.3731781849
 10
625.1680846845
 20
498.6078113186
 10
625.1680847512
 20
498.8555400916
 10
625.1680848272
 20
499.1121257957
 10
625.1680852977
 20
499.3731781785
  0
SPLINE
  5
DC
330
1F
100
AcDbEntity
  8
0
  6
Continuous
 62
     7
370
    25
100
AcDbSpline
210
0.0
220
0.0
230
1.0
 70
     8
 71
     3
 72
     9
 73
     5
 74
     0
 42
0.00000001
 43
0.00000001
 40
0.0
 40
0.0
 40
0.0
 40
0.0
 40
0.5246558463801093
 40
1.0
 40
1.0
 40
1.0
 40
1.0
 10
629.2336033350136
 20
498.0986588729037
 30
0.0
 10
628.5745584386373
 20
498.4920433256676
 30
0.0
 10
627.318411383528
 20
499.2418385590152
 30
0.0
 10
625.8609032620917
 20
499.330861597583
 30
0.0
 10
625.1680852977136
 20
499.3731781785037
 30
0.0
  0
SPLINE
  5
DD
330
1F
100
AcDbEntity
  8
0
  6
Continuous
 62
     7
370
    25
100
AcDbSpline
210
0.0
220
0.0
230
1.0
 70
     8
 71
     3
 72
    11
 73
     7
 74
     0
 42
0.00000001
 43
0.00000001
 40
0.0
 40
0.0
 40
0.0
 40
0.0
 40
0.2902882406914194
 40
0.5444837636471802
 40
0.7556070826654959
 40
1.0
 40
1.0
 40
1.0
 40
1.0
 10
629.8109664460136
 20
493.2816493557037
 30
0.0
 10
629.7937417174335
 20
493.8705430231948
 30
0.0
 10
629.761433880841
 20
494.9751108131261
 30
0.0
 10
628.9361692515904
 20
496.3232143402575
 30
0.0
 10
627.7685382281992
 20
497.1974248874412
 30
0.0
 10
626.8726208412611
 20
497.4039750913565
 30
0.0
 10
626.3919445307135
 20
497.5147931103037
 30
0.0
  0
SPLINE
  5
DE
330
1F
100
AcDbEntity
  8
0
  6
Continuous
 62
     7
370
    25
100
AcDbSpline
210
0.0
220
0.0
230
1.0
 70
     8
 71
     3
 72
     9
 73
     5
 74
     0
 42
0.00000001
 43
0.00000001
 40
0.0
 40
0.0
 40
0.0
 40
0.0
 40
0.5440871110259548
 40
1.0
 40
1.0
 40
1.0
 40
1.0
 10
190.0034634233136
 20
497.5147963512037
 30
0.0
 10
190.2237401039007
 20
497.5547949031433
 30
0.0
 10
190.628595642882
 20
497.6283098810374
 30
0.0
 10
191.0398263336505
 20
497.6371136346571
 30
0.0
 10
191.2273117059136
 20
497.6411273794037
 30
0.0
  0
SPLINE
  5
DF
330
1F
100
AcDbEntity
  8
0
  6
Continuous
 62
     7
370
    25
100
AcDbSpline
210
0.0
220
0.0
230
1.0
 70
     8
 71
     3
 72
     9
 73
     5
 74
     0
 42
0.00000001
 43
0.00000001
 40
0.0
 40
0.0
 40
0.0
 40
0.0
 40
0.5893690441877851
 40
1.0
 40
1.0
 40
1.0
 40
1.0
 10
191.2273111713136
 20
499.3731781785037
 30
0.0
 10
190.3651813219945
 20
499.3061008044869
 30
0.0
 10
188.9023799451304
 20
499.1922886274168
 30
0.0
 10
187.6684810432629
 20
498.4170175724275
 30
0.0
 10
187.1618039578135
 20
498.0986672781037
 30
0.0
  0
LWPOLYLINE
  5
E0
330
1F
100
AcDbEntity
  8
0
  6
Continuous
 62
     7
370
    25
100
AcDbPolyline
 90
        9
 70
   128
 43
0.0
 10
191.2273117059
 20
497.6411273794
 10
191.2273117003
 20
497.7864715056
 10
191.227311685
 20
497.958964623
 10
191.2273116601
 20
498.1556553264
 10
191.2273116262
 20
498.3731781833
 10
191.2273115838
 20
498.6078113175
 10
191.2273115336
 20
498.8555400908
 10
191.2273114766
 20
499.1121257953
 10
191.2273111713
 20
499.3731781785
  0
SPLINE
  5
E1
330
1F
100
AcDbEntity
  8
0
  6
Continuous
 62
     7
370
    25
100
AcDbSpline
210
0.0
220
0.0
230
1.0
 70
     8
 71
     3
 72
    35
 73
    31
 74
     0
 42
0.00000001
 43
0.00000001
 40
0.0
 40
0.0
 40
0.0
 40
0.0
 40
0.03796778956643
 40
0.0781588874012085
 40
0.1208162147172877
 40
0.1649312475592006
 40
0.2091064505259141
 40
0.2521594361815822
 40
0.2930745558684926
 40
0.3352757118284306
 40
0.3746994569438153
 40
0.4115450784827939
 40
0.446039300525613
 40
0.4784981182758053
 40
0.5237545379259659
 40
0.5661788021712836
 40
0.6063927289731514
 40
0.644785310953304
 40
0.6816485558561107
 40
0.717230287797148
 40
0.7516028902749164
 40
0.7850476849544019
 40
0.8177235645168964
 40
0.8489872157142054
 40
0.8778558385439434
 40
0.90398885475962
 40
0.931626486741269
 40
0.956228198301219
 40
0.9784468615373144
 40
1.0
 40
1.0
 40
1.0
 40
1.0
 10
191.2032519026135
 20
125.0990376569037
 30
0.0
 10
191.2037986915393
 20
129.7587895079099
 30
0.0
 10
191.2049242881194
 20
139.3511577863728
 30
0.0
 10
191.2129180385638
 20
154.1788187433416
 30
0.0
 10
191.224809250088
 20
169.7609224769094
 30
0.0
 10
191.2393287562274
 20
185.8319897494647
 30
0.0
 10
191.2544189962687
 20
201.9516152541884
 30
0.0
 10
191.2682193166881
 20
217.6785194245938
 30
0.0
 10
191.279018905358
 20
233.1631529943
 30
0.0
 10
191.2854397625081
 20
248.2023757578874
 30
0.0
 10
191.2863380642818
 20
262.7421542224579
 30
0.0
 10
191.2814019100396
 20
276.3360669867902
 30
0.0
 10
191.2707420509095
 20
289.0751771580698
 30
0.0
 10
191.2521370484507
 20
302.8465287401302
 30
0.0
 10
191.2224256496028
 20
317.5911109601353
 30
0.0
 10
191.1771951436584
 20
333.2874356026778
 30
0.0
 10
191.120785808814
 20
348.1413259755017
 30
0.0
 10
191.0533224177268
 20
362.3126641381965
 30
0.0
 10
190.9749731054375
 20
375.9154324490086
 30
0.0
 10
190.8855586303251
 20
389.0247530017009
 30
0.0
 10
190.7858343524245
 20
401.7144435204351
 30
0.0
 10
190.6744835770754
 20
414.0473912370353
 30
0.0
 10
190.5528016782653
 20
425.998662075976
 30
0.0
 10
190.4301705035153
 20
437.3882609310389
 30
0.0
 10
190.3191621400548
 20
447.9749392519961
 30
0.0
 10
190.2220106678714
 20
458.1167173142891
 30
0.0
 10
190.1438930948688
 20
467.7349737844173
 30
0.0
 10
190.0881629487482
 20
476.8729710143281
 30
0.0
 10
190.0546243820343
 20
485.2643352657545
 30
0.0
 10
190.0505543804855
 20
490.6364096194752
 30
0.0
 10
190.0485503207136
 20
493.2816071641037
 30
0.0
  0
LWPOLYLINE
  5
E2
330
1F
100
AcDbEntity
  8
0
  6
Continuous
 62
     7
370
    25
100
AcDbPolyline
 90
        9
 70
   128
 43
0.0
 10
191.2032519026
 20
125.0990376569
 10
190.4200947112
 20
125.099040538
 10
189.6503375564
 20
125.0990426319
 10
188.9071511967
 20
125.0990439028
 10
188.2032517566
 20
125.0990443288
 10
187.5506831508
 20
125.0990439028
 10
186.960611009
 20
125.0990426319
 10
186.4431316292
 20
125.099040538
 10
186.007099227
 20
125.0990376569
  0
LINE
  5
E3
330
1F
100
AcDbEntity
  8
0
  6
Continuous
 62
     7
370
    25
100
AcDbLine
 10
190.0485503207
 20
493.2816114173
 30
0.0
 11
186.5843988234
 21
493.2816178886
 31
0.0
  0
SPLINE
  5
E4
330
1F
100
AcDbEntity
  8
0
  6
Continuous
 62
     7
370
    25
100
AcDbSpline
210
0.0
220
0.0
230
1.0
 70
     8
 71
     3
 72
    12
 73
     8
 74
     0
 42
0.00000001
 43
0.00000001
 40
0.0
 40
0.0
 40
0.0
 40
0.0
 40
0.1867971344661653
 40
0.3735845571000042
 40
0.5603644614317951
 40
0.7801841742520648
 40
0.9999999999999999
 40
0.9999999999999999
 40
0.9999999999999999
 40
0.9999999999999999
 10
200.6976982345136
 20
115.6030738743037
 30
0.0
 10
199.7698948975168
 20
115.6823510663779
 30
0.0
 10
197.9143364612572
 20
115.8409013287993
 30
0.0
 10
195.3644505190119
 20
117.0863312374269
 30
0.0
 10
193.1647908255398
 20
119.066348973053
 30
0.0
 10
191.5331930993474
 20
121.8192620201346
 30
0.0
 10
191.313231653256
 20
124.0057855554209
 30
0.0
 10
191.2032519026135
 20
125.0990376569037
 30
0.0
  0
LWPOLYLINE
  5
E5
330
1F
100
AcDbEntity
  8
0
  6
Continuous
 62
     7
370
    25
100
AcDbPolyline
 90
        9
 70
   128
 43
0.0
 10
200.6976982345
 20
115.6030738743
 10
200.6975606327
 20
114.8202597525
 10
200.6974606287
 20
114.0508397922
 10
200.6973999336
 20
113.3079789838
 10
200.6973795858
 20
112.6043878834
 10
200.6973999336
 20
111.9521051313
 10
200.6974606287
 20
111.3622914679
 10
200.6975606328
 20
110.8450387696
 10
200.6976982345
 20
110.4091973747
  0
SPLINE
  5
E6
330
1F
100
AcDbEntity
  8
0
  6
Continuous
 62
     7
370
    25
100
AcDbSpline
210
0.0
220
0.0
230
1.0
 70
     8
 71
     3
 72
    27
 73
    23
 74
     0
 42
0.00000001
 43
0.00000001
 40
0.0
 40
0.0
 40
0.0
 40
0.0
 40
0.0372090413817811
 40
0.0757711107880196
 40
0.1155758731548416
 40
0.1567951694617568
 40
0.1998128571089226
 40
0.2449418005792436
 40
0.2895614333822601
 40
0.3363127574081562
 40
0.3854196173073701
 40
0.4371572557555538
 40
0.4916242970660691
 40
0.5485432533409935
 40
0.6075503623916098
 40
0.6678602807197721
 40
0.7284259451345593
 40
0.7882098594977915
 40
0.8451954710555633
 40
0.8995575819427231
 40
0.9510592714261497
 40
1.0
 40
1.0
 40
1.0
 40
1.0
 10
615.6976982345136
 20
115.5213708954037
 30
0.0
 10
610.550451560624
 20
115.5140934375391
 30
0.0
 10
600.068789483419
 20
115.4992738924598
 30
0.0
 10
584.0807999390455
 20
115.4815767256056
 30
0.0
 10
567.5380552914427
 20
115.4667856853904
 30
0.0
 10
550.3789470748665
 20
115.4554448759744
 30
0.0
 10
532.4833250236968
 20
115.4475192815694
 30
0.0
 10
514.1173217539946
 20
115.4431811511238
 30
0.0
 10
495.2348315454805
 20
115.442294362934
 30
0.0
 10
475.8020629292147
 20
115.4447796422948
 30
0.0
 10
455.3846373623875
 20
115.4506606494572
 30
0.0
 10
433.8998718579458
 20
115.4599541220995
 30
0.0
 10
411.3344343145962
 20
115.4725321209581
 30
0.0
 10
387.7633879670586
 20
115.4878727211398
 30
0.0
 10
363.3840781987383
 20
115.5055097322419
 30
0.0
 10
338.5003078496237
 20
115.5244168169199
 30
0.0
 10
313.5090793758853
 20
115.543323584711
 30
0.0
 10
288.9777125795394
 20
115.5609084624551
 30
0.0
 10
265.3045029120602
 20
115.5763574713689
 30
0.0
 10
242.7769996113193
 20
115.5887192334555
 30
0.0
 10
221.362370556319
 20
115.5979912626032
 30
0.0
 10
207.4678335675599
 20
115.6014087151122
 30
0.0
 10
200.6976982345136
 20
115.6030738743037
 30
0.0
  0
LWPOLYLINE
  5
E7
330
1F
100
AcDbEntity
  8
0
  6
Continuous
 62
     7
370
    25
100
AcDbPolyline
 90
        9
 70
   128
 43
0.0
 10
615.6976982345
 20
115.5213708954
 10
615.6987061609
 20
114.7570284212
 10
615.6994386855
 20
114.0057637702
 10
615.6998832746
 20
113.2804313828
 10
615.700032321
 20
112.5934419881
 10
615.6998832746
 20
111.9565502509
 10
615.6994386855
 20
111.3806536452
 10
615.6987061609
 20
110.8756059934
 10
615.6976982345
 20
110.4500488642
  0
LINE
  5
E8
330
1F
100
AcDbEntity
  8
0
  6
Continuous
 62
     7
370
    25
100
AcDbLine
 10
625.1680852977
 20
499.3731781785
 30
0.0
 11
191.2273111713
 21
499.3731781785
 31
0.0
  0
ARC
  5
E9
330
1F
100
AcDbEntity
  8
0
  6
Continuous
 62
     7
370
    25
100
AcDbCircle
 10
408.1976982345
 20
531.0990376569
 30
0.0
 40
17.50000000000006
100
AcDbArc
 50
0.0
 51
180.0
  0
ARC
  5
EA
330
1F
100
AcDbEntity
  8
0
  6
Continuous
 62
     7
370
    25
100
AcDbCircle
 10
408.1976982345
 20
531.0990376569
 30
0.0
 40
17.50000000000006
100
AcDbArc
 50
180.0
 51
0.0
  0
LINE
  5
EB
330
1F
100
AcDbEntity
  8
0
  6
Continuous
 62
     7
370
    25
100
AcDbLine
 10
191.2273117059
 20
497.6411273794
 30
0.0
 11
625.1680845248
 21
497.6411273821
 31
0.0
  0
SPLINE
  5
EC
330
1F
100
AcDbEntity
  8
0
  6
Continuous
 62
     7
370
    25
100
AcDbSpline
210
0.0
220
0.0
230
1.0
 70
     8
 71
     3
 72
    12
 73
     8
 74
     0
 42
0.00000001
 43
0.00000001
 40
0.0
 40
0.0
 40
0.0
 40
0.0
 40
0.1865572607842095
 40
0.3732216085057698
 40
0.5599895549436481
 40
0.7799291564977137
 40
0.9999999999999999
 40
0.9999999999999999
 40
0.9999999999999999
 40
0.9999999999999999
 10
625.2500620193135
 20
125.0990376569037
 30
0.0
 10
625.1721707607946
 20
124.1653876713942
 30
0.0
 10
625.0163435328928
 20
122.2975517699212
 30
0.0
 10
623.7673716403004
 20
119.728042569487
 30
0.0
 10
621.7767474562481
 20
117.5084551220741
 30
0.0
 10
619.004504933178
 20
115.8590813271094
 30
0.0
 10
616.8001862948299
 20
115.6339634212837
 30
0.0
 10
615.6976982345136
 20
115.5213708954037
 30
0.0
  0
SPLINE
  5
ED
330
1F
100
AcDbEntity
  8
0
  6
Continuous
 62
     7
370
    25
100
AcDbSpline
210
0.0
220
0.0
230
1.0
 70
     8
 71
     3
 72
    10
 73
     6
 74
     0
 42
0.00000001
 43
0.00000001
 40
0.0
 40
0.0
 40
0.0
 40
0.0
 40
0.2812476664871263
 40
0.5614461831362475
 40
1.0
 40
1.0
 40
1.0
 40
1.0
 10
626.3919445307135
 20
497.5147931103037
 30
0.0
 10
626.8635705572264
 20
497.2825047745869
 30
0.0
 10
627.8050632841196
 20
496.8187946179688
 30
0.0
 10
629.1742209875813
 20
495.3918627191629
 30
0.0
 10
629.5696757978344
 20
494.081301310064
 30
0.0
 10
629.8109664460136
 20
493.2816493557037
 30
0.0
  0
SPLINE
  5
EE
330
1F
100
AcDbEntity
  8
0
  6
Continuous
 62
     7
370
    25
100
AcDbSpline
210
0.0
220
0.0
230
1.0
 70
     8
 71
     3
 72
    11
 73
     7
 74
     0
 42
0.00000001
 43
0.00000001
 40
0.0
 40
0.0
 40
0.0
 40
0.0
 40
0.2847675999777324
 40
0.5577192727983922
 40
0.7743273225764017
 40
1.0
 40
1.0
 40
1.0
 40
1.0
 10
190.0485503207136
 20
493.2816071641037
 30
0.0
 10
190.0594403128704
 20
493.3942265387088
 30
0.0
 10
190.0807684362487
 20
493.6147923464504
 30
0.0
 10
190.2533843331933
 20
493.8779466104871
 30
0.0
 10
190.4791527410832
 20
494.0531114877935
 30
0.0
 10
190.6468065110665
 20
494.1028613438124
 30
0.0
 10
190.7323514440136
 20
494.1282460882037
 30
0.0
  0
LINE
  5
EF
330
1F
100
AcDbEntity
  8
0
  6
Continuous
 62
     7
370
    25
100
AcDbLine
 10
190.7323494727
 20
494.1282456639
 30
0.0
 11
190.0034700436
 21
497.5147974087
 31
0.0
  0
SPLINE
  5
F0
330
1F
100
AcDbEntity
  8
0
  6
Continuous
 62
     7
370
    25
100
AcDbSpline
210
0.0
220
0.0
230
1.0
 70
     8
 71
     3
 72
    11
 73
     7
 74
     0
 42
0.00000001
 43
0.00000001
 40
0.0
 40
0.0
 40
0.0
 40
0.0
 40
0.2847769480850141
 40
0.5577194310507767
 40
0.7743327472655941
 40
1.0
 40
1.0
 40
1.0
 40
1.0
 10
625.6630357465136
 20
494.1282479896037
 30
0.0
 10
625.7708458726269
 20
494.0939049724553
 30
0.0
 10
625.9819858634223
 20
494.0266461296543
 30
0.0
 10
626.2029283445263
 20
493.8025236559821
 30
0.0
 10
626.3266667602616
 20
493.5449579333868
 30
0.0
 10
626.3400276437701
 20
493.3705905525933
 30
0.0
 10
626.3468448410135
 20
493.2816221227037
 30
0.0
  0
LINE
  5
F1
330
1F
100
AcDbEntity
  8
0
  6
Continuous
 62
     7
370
    25
100
AcDbLine
 10
625.6630405591
 20
494.1282469538
 30
0.0
 11
626.3919249281
 21
497.5147976482
 31
0.0
  0
SPLINE
  5
F2
330
1F
100
AcDbEntity
  8
0
  6
Continuous
 62
     7
370
    25
100
AcDbSpline
210
0.0
220
0.0
230
1.0
 70
     8
 71
     3
 72
     9
 73
     5
 74
     0
 42
0.00000001
 43
0.00000001
 40
0.0
 40
0.0
 40
0.0
 40
0.0
 40
0.608949938793306
 40
1.0
 40
1.0
 40
1.0
 40
1.0
 10
625.1680739680136
 20
494.1770257558037
 30
0.0
 10
625.2693647782532
 20
494.1745751211106
 30
0.0
 10
625.435701621049
 20
494.1705507596042
 30
0.0
 10
625.5991278929025
 20
494.1401400855528
 30
0.0
 10
625.6630357465136
 20
494.1282479896037
 30
0.0
  0
LWPOLYLINE
  5
F3
330
1F
100
AcDbEntity
  8
0
  6
Continuous
 62
     7
370
    25
100
AcDbPolyline
 90
        9
 70
   128
 43
0.0
 10
625.168073968
 20
494.1770257558
 10
625.1680773659
 20
494.6991305214
 10
625.1680806542
 20
495.2123019289
 10
625.1680837768
 20
495.7077594736
 10
625.1680866801
 20
496.1770257394
 10
625.1680893144
 20
496.6120714506
 10
625.1680916348
 20
497.0054528545
 10
625.1680936015
 20
497.3504390864
 10
625.1680845248
 20
497.6411273821
  0
SPLINE
  5
F4
330
1F
100
AcDbEntity
  8
0
  6
Continuous
 62
     7
370
    25
100
AcDbSpline
210
0.0
220
0.0
230
1.0
 70
     8
 71
     3
 72
     9
 73
     5
 74
     0
 42
0.00000001
 43
0.00000001
 40
0.0
 40
0.0
 40
0.0
 40
0.0
 40
0.5117570367975098
 40
1.0
 40
1.0
 40
1.0
 40
1.0
 10
190.7323514440136
 20
494.1282460882037
 30
0.0
 10
190.8161446492143
 20
494.143156720998
 30
0.0
 10
190.9798809521386
 20
494.172292876873
 30
0.0
 10
191.1461429392558
 20
494.175473055814
 30
0.0
 10
191.2273191845136
 20
494.1770257558037
 30
0.0
  0
LWPOLYLINE
  5
F5
330
1F
100
AcDbEntity
  8
0
  6
Continuous
 62
     7
370
    25
100
AcDbPolyline
 90
        9
 70
   128
 43
0.0
 10
191.2273191845
 20
494.1770257558
 10
191.2273191652
 20
494.6991305246
 10
191.2273191077
 20
495.2123019361
 10
191.2273190129
 20
495.7077594851
 10
191.2273188825
 20
496.1770257556
 10
191.2273187187
 20
496.6120714716
 10
191.2273185243
 20
497.0054528803
 10
191.2273183026
 20
497.3504391167
 10
191.2273117059
 20
497.6411273794
  0
LINE
  5
F6
330
1F
100
AcDbEntity
  8
0
  6
Continuous
 62
     7
370
    25
100
AcDbLine
 10
191.2273191845
 20
494.1770257558
 30
0.0
 11
625.168073968
 21
494.1770257558
 31
0.0
  0
ARC
  5
F7
330
1F
100
AcDbEntity
  8
0
  6
Continuous
 62
     7
370
    25
100
AcDbCircle
 10
408.1976982345
 20
-4517.4009623431
 30
0.0
 40
5005.595090516815
100
AcDbArc
 50
88.498894818
 51
91.501105182
  0
ARC
  5
F8
330
1F
100
AcDbEntity
  8
0
  6
Continuous
 62
     7
370
    25
100
AcDbCircle
 10
279.1812617501
 20
405.908875471
 30
0.0
 40
80.59509051687536
100
AcDbArc
 50
91.5011051821
 51
178.8549012355
  0
ARC
  5
F9
330
1F
100
AcDbEntity
  8
0
  6
Continuous
 62
     7
370
    25
100
AcDbCircle
 10
5203.1976982345
 20
307.4856402495
 30
0.0
 40
5005.595090516874
100
AcDbArc
 50
178.8549012355
 51
181.1450987645
  0
ARC
  5
FA
330
1F
100
AcDbEntity
  8
0
  6
Continuous
 62
     7
370
    25
100
AcDbCircle
 10
284.1802632085
 20
209.1623270943
 30
0.0
 40
85.59509051691442
100
AcDbArc
 50
181.1450987644
 51
268.5556040043
  0
ARC
  5
FB
330
1F
100
AcDbEntity
  8
0
  6
Continuous
 62
     7
370
    25
100
AcDbCircle
 10
408.1976982345
 20
5127.5990376569
 30
0.0
 40
5005.595090516859
100
AcDbArc
 50
268.5556040043
 51
271.4443959957
  0
ARC
  5
FC
330
1F
100
AcDbEntity
  8
0
  6
Continuous
 62
     7
370
    25
100
AcDbCircle
 10
532.2151332605
 20
209.1623270943
 30
0.0
 40
85.59509051691431
100
AcDbArc
 50
271.4443959957
 51
358.8549012356
  0
ARC
  5
FD
330
1F
100
AcDbEntity
  8
0
  6
Continuous
 62
     7
370
    25
100
AcDbCircle
 10
-4386.8023017655
 20
307.4856402496
 30
0.0
 40
5005.595090516874
100
AcDbArc
 50
358.8549012355
 51
1.1450987645
  0
ARC
  5
FE
330
1F
100
AcDbEntity
  8
0
  6
Continuous
 62
     7
370
    25
100
AcDbCircle
 10
537.2141347189
 20
405.908875471
 30
0.0
 40
80.5950905168753
100
AcDbArc
 50
1.1450987645
 51
88.4988948179
  0
LINE
  5
FF
330
1F
100
AcDbEntity
  8
0
  6
Continuous
 62
     7
370
    25
100
AcDbLine
 10
198.602266744
 20
207.4517594339
 30
0.0
 11
204.5864557145
 21
207.5713738272
 31
0.0
  0
ARC
  5
100
330
1F
100
AcDbEntity
  8
0
  6
Continuous
 62
     7
370
    25
100
AcDbCircle
 10
284.1802632085
 20
209.1623270943
 30
0.0
 40
79.60970621532293
100
AcDbArc
 50
181.1450987644
 51
268.5556040043
  0
LINE
  5
101
330
1F
100
AcDbEntity
  8
0
  6
Continuous
 62
     7
370
    25
100
AcDbLine
 10
282.0226852457
 20
123.5944337118
 30
0.0
 11
282.1735576052
 21
129.5779162069
 31
0.0
  0
LINE
  5
102
330
1F
100
AcDbEntity
  8
0
  6
Continuous
 62
     7
370
    25
100
AcDbLine
 10
277.0699741609
 20
486.4763073534
 30
0.0
 11
277.2267686693
 21
480.4929771169
 31
0.0
  0
ARC
  5
103
330
1F
100
AcDbEntity
  8
0
  6
Continuous
 62
     7
370
    25
100
AcDbCircle
 10
279.1812617501
 20
405.908875471
 30
0.0
 40
74.60970621528963
100
AcDbArc
 50
91.501105182
 51
178.8549012355
  0
LINE
  5
104
330
1F
100
AcDbEntity
  8
0
  6
Continuous
 62
     7
370
    25
100
AcDbLine
 10
198.602266744
 20
407.5195210652
 30
0.0
 11
204.5864557145
 21
407.3999066719
 31
0.0
  0
ARC
  5
105
330
1F
100
AcDbEntity
  8
0
  6
Continuous
 62
     7
370
    25
100
AcDbCircle
 10
408.1976982345
 20
5127.5990376569
 30
0.0
 40
4999.609706215243
100
AcDbArc
 50
268.5556040043
 51
271.4443959957
  0
LINE
  5
106
330
1F
100
AcDbEntity
  8
0
  6
Continuous
 62
     7
370
    25
100
AcDbLine
 10
534.3727112233
 20
123.5944337118
 30
0.0
 11
534.2218388638
 21
129.5779162069
 31
0.0
  0
ARC
  5
107
330
1F
100
AcDbEntity
  8
0
  6
Continuous
 62
     7
370
    25
100
AcDbCircle
 10
5203.1976982345
 20
307.4856402495
 30
0.0
 40
4999.609706215282
100
AcDbArc
 50
178.8549012355
 51
181.1450987645
  0
LINE
  5
108
330
1F
100
AcDbEntity
  8
0
  6
Continuous
 62
     7
370
    25
100
AcDbLine
 10
539.3254223081
 20
486.4763073534
 30
0.0
 11
539.1686277997
 21
480.4929771169
 31
0.0
  0
ARC
  5
109
330
1F
100
AcDbEntity
  8
0
  6
Continuous
 62
     7
370
    25
100
AcDbCircle
 10
408.1976982345
 20
-4517.4009623431
 30
0.0
 40
4999.609706215295
100
AcDbArc
 50
88.498894818
 51
91.501105182
  0
LINE
  5
10A
330
1F
100
AcDbEntity
  8
0
  6
Continuous
 62
     7
370
    25
100
AcDbLine
 10
617.793129725
 20
407.5195210652
 30
0.0
 11
611.8089407545
 21
407.3999066719
 31
0.0
  0
ARC
  5
10B
330
1F
100
AcDbEntity
  8
0
  6
Continuous
 62
     7
370
    25
100
AcDbCircle
 10
537.2141347189
 20
405.908875471
 30
0.0
 40
74.60970621528963
100
AcDbArc
 50
1.1450987645
 51
88.498894818
  0
LINE
  5
10C
330
1F
100
AcDbEntity
  8
0
  6
Continuous
 62
     7
370
    25
100
AcDbLine
 10
617.793129725
 20
207.4517594339
 30
0.0
 11
611.8089407545
 21
207.5713738272
 31
0.0
  0
ARC
  5
10D
330
1F
100
AcDbEntity
  8
0
  6
Continuous
 62
     7
370
    25
100
AcDbCircle
 10
-4386.8023017655
 20
307.4856402496
 30
0.0
 40
4999.609706215283
100
AcDbArc
 50
358.8549012355
 51
1.1450987645
  0
ARC
  5
10E
330
1F
100
AcDbEntity
  8
0
  6
Continuous
 62
     7
370
    25
100
AcDbCircle
 10
532.2151332605
 20
209.1623270943
 30
0.0
 40
79.60970621532279
100
AcDbArc
 50
271.4443959957
 51
358.8549012356
  0
LINE
  5
10F
330
1F
100
AcDbEntity
  8
0
  6
Continuous
 62
     7
370
    25
100
AcDbLine
 10
611.8089407545
 20
407.3999066719
 30
0.0
 11
602.2165456484
 21
407.2081699927
 31
0.0
  0
SPLINE
  5
110
330
1F
100
AcDbEntity
  8
0
  6
Continuous
 62
     7
370
    25
100
AcDbSpline
210
0.0
220
0.0
230
1.0
 70
     8
 71
     3
 72
    22
 73
    18
 74
     0
 42
0.00000001
 43
0.00000001
 40
0.0
 40
0.0
 40
0.0
 40
0.0
 40
0.0530353986156715
 40
0.1045592513137714
 40
0.1545708738126472
 40
0.2030696181054023
 40
0.2500548728204505
 40
0.3141506352502821
 40
0.3771777754525621
 40
0.4391355289978725
 40
0.5000231718262117
 40
0.5840772159502937
 40
0.6673673784798585
 40
0.7498923299142031
 40
0.8331572424911221
 40
0.9165268719415669
 40
1.0
 40
1.0
 40
1.0
 40
1.0
 10
538.9157858270139
 20
470.8444439079169
 30
0.0
 10
540.6655833450031
 20
470.7599780506069
 30
0.0
 10
544.1153079290957
 20
470.5934536719384
 30
0.0
 10
549.1692552246082
 20
469.8314271714463
 30
0.0
 10
554.0051120111999
 20
468.7426866163177
 30
0.0
 10
558.6014420388543
 20
467.3305269940608
 30
0.0
 10
563.5162078922549
 20
465.4212305754714
 30
0.0
 10
568.6874333100542
 20
462.8887825216328
 30
0.0
 10
574.0097995796285
 20
459.60823292523
 30
0.0
 10
578.9111420700284
 20
455.8996390419773
 30
0.0
 10
583.9558139642284
 20
451.279955341516
 30
0.0
 10
588.9322711253852
 20
445.5919554767985
 30
0.0
 10
593.5402670933635
 20
438.7227747076813
 30
0.0
 10
597.2382412117678
 20
431.3503466330458
 30
0.0
 10
599.9571359215128
 20
423.5674196745495
 30
0.0
 10
601.7490319350989
 20
415.4712322026266
 30
0.0
 10
602.0606433093154
 20
409.9636629109506
 30
0.0
 10
602.216545648337
 20
407.2081699927142
 30
0.0
  0
LINE
  5
111
330
1F
100
AcDbEntity
  8
0
  6
Continuous
 62
     7
370
    25
100
AcDbLine
 10
539.1686277997
 20
480.4929771169
 30
0.0
 11
538.9157858269
 21
470.8444439079
 31
0.0
  0
SPLINE
  5
112
330
1F
100
AcDbEntity
  8
0
  6
Continuous
 62
     7
370
    25
100
AcDbSpline
210
0.0
220
0.0
230
1.0
 70
     8
 71
     3
 72
    30
 73
    26
 74
     0
 42
0.00000001
 43
0.00000001
 40
0.0
 40
0.0
 40
0.0
 40
0.0
 40
0.0524850808251975
 40
0.100819142596163
 40
0.145002362362888
 40
0.1888664769940069
 40
0.230154397186218
 40
0.2680459286169329
 40
0.304618527480226
 40
0.3396578294007713
 40
0.3819439774749904
 40
0.4229069501863905
 40
0.4631665215476007
 40
0.5033287992720511
 40
0.5437791104432895
 40
0.5841187687911054
 40
0.6253806756969601
 40
0.668655547284955
 40
0.7146000340061179
 40
0.7620767444616736
 40
0.8031996474473813
 40
0.8471601017887807
 40
0.893484567709459
 40
0.9444311300160764
 40
1.0
 40
1.0
 40
1.0
 40
1.0
 10
277.4796106420094
 20
470.8444439080925
 30
0.0
 10
282.0506097485496
 20
470.9457090765152
 30
0.0
 10
290.8310899056453
 20
471.1402304013321
 30
0.0
 10
303.4611760743034
 20
471.3785317994473
 30
0.0
 10
315.3414373925714
 20
471.577139478876
 30
0.0
 10
326.6091036885725
 20
471.7402633594789
 30
0.0
 10
337.3298296288611
 20
471.8731985668501
 30
0.0
 10
347.4164098202522
 20
471.9789853003286
 30
0.0
 10
356.9596852302992
 20
472.0624353669444
 30
0.0
 10
366.8872567835065
 20
472.1330738238226
 30
0.0
 10
377.1990906200105
 20
472.189003958261
 30
0.0
 10
387.9677753752993
 20
472.228858048068
 30
0.0
 10
398.5527032046593
 20
472.2512428074343
 30
0.0
 10
409.0937131757637
 20
472.2577187460561
 30
0.0
 10
419.6416338098334
 20
472.2485917694223
 30
0.0
 10
430.2845177817803
 20
472.2232494094673
 30
0.0
 10
441.1721580192532
 20
472.1798030597558
 30
0.0
 10
452.5465450418502
 20
472.1143101927913
 30
0.0
 10
464.4606177821676
 20
472.0222010033569
 30
0.0
 10
476.1851892037001
 20
471.9062579590181
 30
0.0
 10
487.7353385338424
 20
471.767437681049
 30
0.0
 10
499.183791885518
 20
471.6061643590753
 30
0.0
 10
511.4867299561636
 20
471.4046448256572
 30
0.0
 10
524.7996117949552
 20
471.1565366618648
 30
0.0
 10
534.076206494223
 20
470.9514415717405
 30
0.0
 10
538.9157858270194
 20
470.8444439080933
 30
0.0
  0
LINE
  5
113
330
1F
100
AcDbEntity
  8
0
  6
Continuous
 62
     7
370
    25
100
AcDbLine
 10
277.2267686693
 20
480.4929771169
 30
0.0
 11
277.4796106421
 21
470.8444439079
 31
0.0
  0
LWPOLYLINE
  5
114
330
1F
100
AcDbEntity
  8
0
  6
Continuous
 62
     7
370
    25
100
AcDbPolyline
 90
        3
 70
   128
 43
0.0
 10
333.9976980563
 20
480.7616482622
 10
333.9976976881
 20
480.0880389789
 10
333.9976980563
 20
479.5587745376
  0
SPLINE
  5
115
330
1F
100
AcDbEntity
  8
0
  6
Continuous
 62
     7
370
    25
100
AcDbSpline
210
0.0
220
0.0
230
1.0
 70
     8
 71
     3
 72
    15
 73
    11
 74
     0
 42
0.00000001
 43
0.00000001
 40
0.0
 40
0.0
 40
0.0
 40
0.0
 40
0.1253435201268061
 40
0.250600706797303
 40
0.3756155327980706
 40
0.5003790963376491
 40
0.6250313033479011
 40
0.7497774016897331
 40
0.8747664982578235
 40
1.0
 40
1.0
 40
1.0
 40
1.0
 10
328.1976984266336
 20
480.6721785893037
 30
0.0
 10
328.241415633729
 20
480.6994623600585
 30
0.0
 10
328.3288199366101
 20
480.7540111091945
 30
0.0
 10
329.0005407953871
 20
480.8322397086366
 30
0.0
 10
329.9596948864861
 20
480.8924151231038
 30
0.0
 10
331.0991862558319
 20
480.925904328507
 30
0.0
 10
332.2381206774785
 20
480.9274815301594
 30
0.0
 10
333.1961266028464
 20
480.8968566378729
 30
0.0
 10
333.8668643558579
 20
480.839357026403
 30
0.0
 10
333.9540584338673
 20
480.7875680452499
 30
0.0
 10
333.9976980563235
 20
480.7616482622037
 30
0.0
  0
LWPOLYLINE
  5
116
330
1F
100
AcDbEntity
  8
0
  6
Continuous
 62
     7
370
    25
100
AcDbPolyline
 90
        3
 70
   128
 43
0.0
 10
328.1976984266
 20
479.4692833271
 10
328.1976988233
 20
480.1429046894
 10
328.1976984266
 20
480.6721785893
  0
SPLINE
  5
117
330
1F
100
AcDbEntity
  8
0
  6
Continuous
 62
     7
370
    25
100
AcDbSpline
210
0.0
220
0.0
230
1.0
 70
     8
 71
     3
 72
    15
 73
    11
 74
     0
 42
0.00000001
 43
0.00000001
 40
0.0
 40
0.0
 40
0.0
 40
0.0
 40
0.1253461409635277
 40
0.2505976154570074
 40
0.3756094433190063
 40
0.5003778291205052
 40
0.6250364772293096
 40
0.7497824473437918
 40
0.8747663783612902
 40
1.0
 40
1.0
 40
1.0
 40
1.0
 10
333.9976980563235
 20
479.5587745376037
 30
0.0
 10
333.953980486121
 20
479.5315433966362
 30
0.0
 10
333.8665783629914
 20
479.4771016807591
 30
0.0
 10
333.1948545174997
 20
479.3995620039708
 30
0.0
 10
332.235700157528
 20
479.3400329096009
 30
0.0
 10
331.0961981909778
 20
479.3068125908889
 30
0.0
 10
329.9572545326263
 20
479.3049542158071
 30
0.0
 10
328.9992554244009
 20
479.3349251402911
 30
0.0
 10
328.3285267650142
 20
479.3917328595189
 30
0.0
 10
328.2413368748464
 20
479.443415979815
 30
0.0
 10
328.1976984266236
 20
479.4692833271037
 30
0.0
  0
LWPOLYLINE
  5
118
330
1F
100
AcDbEntity
  8
0
  6
Continuous
 62
     7
370
    25
100
AcDbPolyline
 90
        3
 70
   128
 43
0.0
 10
344.2976980811
 20
480.9039415278
 10
344.297697764
 20
480.2303514249
 10
344.2976980811
 20
479.7011020552
  0
SPLINE
  5
119
330
1F
100
AcDbEntity
  8
0
  6
Continuous
 62
     7
370
    25
100
AcDbSpline
210
0.0
220
0.0
230
1.0
 70
     8
 71
     3
 72
    15
 73
    11
 74
     0
 42
0.00000001
 43
0.00000001
 40
0.0
 40
0.0
 40
0.0
 40
0.0
 40
0.1253398369314518
 40
0.2505806130665217
 40
0.3755759550507178
 40
0.5003284361491592
 40
0.6249844449623478
 40
0.7497469736900216
 40
0.8747554822621942
 40
1.0
 40
1.0
 40
1.0
 40
1.0
 10
338.4976984018936
 20
480.8264266522037
 30
0.0
 10
338.541411515604
 20
480.853618757386
 30
0.0
 10
338.6288031949038
 20
480.9079814768052
 30
0.0
 10
339.3004659972949
 20
480.9848213884202
 30
0.0
 10
340.2595433371018
 20
481.0430184479565
 30
0.0
 10
341.39898741055
 20
481.0741628849679
 30
0.0
 10
342.5379489655169
 20
481.0733990707268
 30
0.0
 10
343.4960315733312
 20
481.0408040384195
 30
0.0
 10
344.1668426397133
 20
480.9819235421362
 30
0.0
 10
344.2540521853578
 20
480.9299518704334
 30
0.0
 10
344.2976980810636
 20
480.9039415278037
 30
0.0
  0
LWPOLYLINE
  5
11A
330
1F
100
AcDbEntity
  8
0
  6
Continuous
 62
     7
370
    25
100
AcDbPolyline
 90
        3
 70
   128
 43
0.0
 10
338.4976984019
 20
479.6235685209
 10
338.4976987476
 20
480.2971690861
 10
338.4976984019
 20
480.8264266522
  0
SPLINE
  5
11B
330
1F
100
AcDbEntity
  8
0
  6
Continuous
 62
     7
370
    25
100
AcDbSpline
210
0.0
220
0.0
230
1.0
 70
     8
 71
     3
 72
    15
 73
    11
 74
     0
 42
0.00000001
 43
0.00000001
 40
0.0
 40
0.0
 40
0.0
 40
0.0
 40
0.1253422926546792
 40
0.250577394846887
 40
0.3755699302472771
 40
0.5003273383550351
 40
0.6249896766232782
 40
0.7497518851174755
 40
0.8747551933746949
 40
1.0
 40
1.0
 40
1.0
 40
1.0
 10
344.2976980810536
 20
479.7011020552036
 30
0.0
 10
344.2539847057228
 20
479.673962566707
 30
0.0
 10
344.1665953379493
 20
479.6197067989134
 30
0.0
 10
343.4949303521118
 20
479.5435559776942
 30
0.0
 10
342.5358532171701
 20
479.486005701568
 30
0.0
 10
341.3963986431241
 20
479.4551309457226
 30
0.0
 10
340.2574277659639
 20
479.4556144346653
 30
0.0
 10
339.2993515021455
 20
479.4875560581739
 30
0.0
 10
338.6285487171028
 20
479.5457448910789
 30
0.0
 10
338.5413432257678
 20
479.5976106268663
 30
0.0
 10
338.4976984018936
 20
479.6235685209037
 30
0.0
  0
SPLINE
  5
11C
330
1F
100
AcDbEntity
  8
0
  6
Continuous
 62
     7
370
    25
100
AcDbSpline
210
0.0
220
0.0
230
1.0
 70
     8
 71
     3
 72
    15
 73
    11
 74
     0
 42
0.00000001
 43
0.00000001
 40
0.0
 40
0.0
 40
0.0
 40
0.0
 40
0.1253871004652882
 40
0.2506664853131261
 40
0.3756318023655978
 40
0.500287816372052
 40
0.6248474265440827
 40
0.7495919477785432
 40
0.8746673728336352
 40
1.0
 40
1.0
 40
1.0
 40
1.0
 10
349.9476982345035
 20
480.3715677857037
 30
0.0
 10
349.996717593678
 20
480.4019408128109
 30
0.0
 10
350.0947142012316
 20
480.4626607746334
 30
0.0
 10
350.8478939864424
 20
480.5470552320274
 30
0.0
 10
351.922767215179
 20
480.6097525332082
 30
0.0
 10
353.1990124693791
 20
480.6416326609369
 30
0.0
 10
354.4746793254747
 20
480.6377651397106
 30
0.0
 10
355.5484494888046
 20
480.5987029637964
 30
0.0
 10
356.3008695474913
 20
480.5309006977154
 30
0.0
 10
356.3987218364354
 20
480.4723863604228
 30
0.0
 10
356.4476982345136
 20
480.4430991408037
 30
0.0
  0
SPLINE
  5
11D
330
1F
100
AcDbEntity
  8
0
  6
Continuous
 62
     7
370
    25
100
AcDbSpline
210
0.0
220
0.0
230
1.0
 70
     8
 71
     3
 72
    15
 73
    11
 74
     0
 42
0.00000001
 43
0.00000001
 40
0.0
 40
0.0
 40
0.0
 40
0.0
 40
0.125389416461155
 40
0.2506635039489619
 40
0.3756262950629791
 40
0.500286764275605
 40
0.6248519533431185
 40
0.7495959168090808
 40
0.8746664804458432
 40
1.0
 40
1.0
 40
1.0
 40
1.0
 10
356.4476982345136
 20
480.4430991408037
 30
0.0
 10
356.3986788606533
 20
480.412792432954
 30
0.0
 10
356.3006851993061
 20
480.3522068923464
 30
0.0
 10
355.547499972105
 20
480.2686806259916
 30
0.0
 10
354.4726245342325
 20
480.2067993414003
 30
0.0
 10
353.1963738456425
 20
480.1752627315483
 30
0.0
 10
351.9207040079766
 20
480.1787833390218
 30
0.0
 10
350.8469389765027
 20
480.21702895478
 30
0.0
 10
350.0945219593944
 20
480.2839646704489
 30
0.0
 10
349.996673727135
 20
480.3423463112529
 30
0.0
 10
349.9476982345035
 20
480.3715677857037
 30
0.0
  0
SPLINE
  5
11E
330
1F
100
AcDbEntity
  8
0
  6
Continuous
 62
     7
370
    25
100
AcDbSpline
210
0.0
220
0.0
230
1.0
 70
     8
 71
     3
 72
    15
 73
    11
 74
     0
 42
0.00000001
 43
0.00000001
 40
0.0
 40
0.0
 40
0.0
 40
0.0
 40
0.1253294196390763
 40
0.2505317901931222
 40
0.3754833241427486
 40
0.500212383886935
 40
0.6248790631051055
 40
0.7496800513791317
 40
0.8747322216218354
 40
1.0
 40
1.0
 40
1.0
 40
1.0
 10
362.0976983452235
 20
481.0998040957037
 30
0.0
 10
362.1414014977794
 20
481.1267864743793
 30
0.0
 10
362.2287635000804
 20
481.1807238791224
 30
0.0
 10
362.9002891832891
 20
481.2543843001523
 30
0.0
 10
363.8591907200841
 20
481.3080512224768
 30
0.0
 10
364.9985318874366
 20
481.3338250761394
 30
0.0
 10
366.1375610349786
 20
481.3276972496876
 30
0.0
 10
367.095819326744
 20
481.2905864664897
 30
0.0
 10
367.7667942257601
 20
481.2285401436174
 30
0.0
 10
367.8540384517131
 20
481.1761490052318
 30
0.0
 10
367.8976981377335
 20
481.1499308730037
 30
0.0
  0
LWPOLYLINE
  5
11F
330
1F
100
AcDbEntity
  8
0
  6
Continuous
 62
     7
370
    25
100
AcDbPolyline
 90
        3
 70
   128
 43
0.0
 10
362.0976983452
 20
479.8970117668
 10
362.0976985739
 20
480.5705754761
 10
362.0976983452
 20
481.0998040957
  0
SPLINE
  5
120
330
1F
100
AcDbEntity
  8
0
  6
Continuous
 62
     7
370
    25
100
AcDbSpline
210
0.0
220
0.0
230
1.0
 70
     8
 71
     3
 72
    15
 73
    11
 74
     0
 42
0.00000001
 43
0.00000001
 40
0.0
 40
0.0
 40
0.0
 40
0.0
 40
0.1253314958011219
 40
0.2505282790006131
 40
0.3754774453718311
 40
0.5002116741477339
 40
0.6248844292218889
 40
0.7496846576777125
 40
0.8747315468943478
 40
1.0
 40
1.0
 40
1.0
 40
1.0
 10
367.8976981377335
 20
479.9471506089037
 30
0.0
 10
367.853994956449
 20
479.9202208170346
 30
0.0
 10
367.7666355682593
 20
479.8663901787928
 30
0.0
 10
367.0951095456949
 20
479.793419249374
 30
0.0
 10
366.1362092984506
 20
479.7404001971319
 30
0.0
 10
364.9968578468419
 20
479.7148978583796
 30
0.0
 10
363.8578191765063
 20
479.7207472877221
 30
0.0
 10
362.8995661448312
 20
479.7572059165707
 30
0.0
 10
362.2285976703552
 20
479.818561084057
 30
0.0
 10
362.1413571935789
 20
479.8708461127142
 30
0.0
 10
362.0976983452135
 20
479.8970117668036
 30
0.0
  0
LWPOLYLINE
  5
121
330
1F
100
AcDbEntity
  8
0
  6
Continuous
 62
     7
370
    25
100
AcDbPolyline
 90
        3
 70
   128
 43
0.0
 10
367.8976981377
 20
481.149930873
 10
367.8976979378
 20
480.4763739258
 10
367.8976981377
 20
479.9471506089
  0
SPLINE
  5
122
330
1F
100
AcDbEntity
  8
0
  6
Continuous
 62
     7
370
    25
100
AcDbSpline
210
0.0
220
0.0
230
1.0
 70
     8
 71
     3
 72
    15
 73
    11
 74
     0
 42
0.00000001
 43
0.00000001
 40
0.0
 40
0.0
 40
0.0
 40
0.0
 40
0.1253240096025274
 40
0.2505092667449856
 40
0.3754420444165137
 40
0.5001617417957442
 40
0.6248339336948516
 40
0.749652063371197
 40
0.8747229338294586
 40
0.9999999999999999
 40
0.9999999999999999
 40
0.9999999999999999
 40
0.9999999999999999
 10
372.3976983204836
 20
481.1841856848037
 30
0.0
 10
372.441396871358
 20
481.2110766621594
 30
0.0
 10
372.5287455922622
 20
481.2648288445289
 30
0.0
 10
373.2002096400416
 20
481.3371026087639
 30
0.0
 10
374.1590344697664
 20
481.388793554484
 30
0.0
 10
375.298333106459
 20
481.4122242031789
 30
0.0
 10
376.4373941232058
 20
481.4037551556171
 30
0.0
 10
377.3957290877719
 20
481.3646727387082
 30
0.0
 10
378.0667736820702
 20
481.3012438842368
 30
0.0
 10
378.15403271243
 20
481.2486692890675
 30
0.0
 10
378.1976981624736
 20
481.2223603403037
 30
0.0
  0
LWPOLYLINE
  5
123
330
1F
100
AcDbEntity
  8
0
  6
Continuous
 62
     7
370
    25
100
AcDbPolyline
 90
        3
 70
   128
 43
0.0
 10
372.3976983205
 20
479.9814136653
 10
372.3976984981
 20
480.6549659993
 10
372.3976983205
 20
481.1841856848
  0
SPLINE
  5
124
330
1F
100
AcDbEntity
  8
0
  6
Continuous
 62
     7
370
    25
100
AcDbSpline
210
0.0
220
0.0
230
1.0
 70
     8
 71
     3
 72
    15
 73
    11
 74
     0
 42
0.00000001
 43
0.00000001
 40
0.0
 40
0.0
 40
0.0
 40
0.0
 40
0.1253259198238349
 40
0.2505056270632277
 40
0.3754362287068895
 40
0.500161201372759
 40
0.6248393591392422
 40
0.7496565371733438
 40
0.8747220910291092
 40
1.0
 40
1.0
 40
1.0
 40
1.0
 10
378.1976981624636
 20
480.0195975086037
 30
0.0
 10
378.1539996844984
 20
479.9927591050408
 30
0.0
 10
378.0666537097807
 20
479.9391136091739
 30
0.0
 10
377.3951901274833
 20
479.8675295185256
 30
0.0
 10
376.4363670605658
 20
479.8164869286699
 30
0.0
 10
375.2970582337847
 20
479.7933286011871
 30
0.0
 10
374.1579876066015
 20
479.8015200864367
 30
0.0
 10
373.199657429193
 20
479.8399508852061
 30
0.0
 10
372.5286184493223
 20
479.9026887987299
 30
0.0
 10
372.4413630350462
 20
479.9551572075809
 30
0.0
 10
372.3976983204836
 20
479.9814136653036
 30
0.0
  0
LWPOLYLINE
  5
125
330
1F
100
AcDbEntity
  8
0
  6
Continuous
 62
     7
370
    25
100
AcDbPolyline
 90
        3
 70
   128
 43
0.0
 10
378.1976981625
 20
481.2223603403
 10
378.1976980136
 20
480.548813155
 10
378.1976981625
 20
480.0195975086
  0
SPLINE
  5
126
330
1F
100
AcDbEntity
  8
0
  6
Continuous
 62
     7
370
    25
100
AcDbSpline
210
0.0
220
0.0
230
1.0
 70
     8
 71
     3
 72
    22
 73
    18
 74
     0
 42
0.00000001
 43
0.00000001
 40
0.0
 40
0.0
 40
0.0
 40
0.0
 40
0.083413034915197
 40
0.1667217910144742
 40
0.249925052658764
 40
0.3117665700816428
 40
0.3740385136311213
 40
0.4367403361026803
 40
0.4998714731204357
 40
0.5485012687905231
 40
0.5978157568551654
 40
0.6478145805166295
 40
0.6984973664838381
 40
0.7498637251113268
 40
0.8290416059619896
 40
0.9124215491899733
 40
1.0
 40
1.0
 40
1.0
 40
1.0
 10
214.1788508206901
 20
407.2081699927142
 30
0.0
 10
214.3345654235176
 20
409.9616923788335
 30
0.0
 10
214.6457999625425
 20
415.4652948347204
 30
0.0
 10
216.435242332641
 20
423.5555363239456
 30
0.0
 10
218.9253481442423
 20
430.6899299685263
 30
0.0
 10
221.9000586373618
 20
436.8670596831439
 30
0.0
 10
225.0917846816344
 20
442.1560755413925
 30
0.0
 10
228.798773955202
 20
447.1511271509917
 30
0.0
 10
232.6653917666122
 20
451.4334134725877
 30
0.0
 10
236.5561400575296
 20
455.0659441155448
 30
0.0
 10
240.3690434668566
 20
458.1264876626475
 30
0.0
 10
244.4586009021575
 20
460.928128789322
 30
0.0
 10
248.8100405670821
 20
463.4410229495838
 30
0.0
 10
254.2131233647607
 20
466.0266264995072
 30
0.0
 10
260.8738724059958
 20
468.4159772529093
 30
0.0
 10
268.9487470295037
 20
470.3028170915852
 30
0.0
 10
274.5898104679051
 20
470.6609697206328
 30
0.0
 10
277.4796106420132
 20
470.8444439079169
 30
0.0
  0
LINE
  5
127
330
1F
100
AcDbEntity
  8
0
  6
Continuous
 62
     7
370
    25
100
AcDbLine
 10
204.5864557145
 20
407.3999066719
 30
0.0
 11
214.1788508207
 21
407.2081699927
 31
0.0
  0
LINE
  5
128
330
1F
100
AcDbEntity
  8
0
  6
Continuous
 62
     7
370
    25
100
AcDbLine
 10
534.2218388638
 20
129.5779162069
 30
0.0
 11
533.9867116595
 21
138.9028814672
 31
0.0
  0
SPLINE
  5
129
330
1F
100
AcDbEntity
  8
0
  6
Continuous
 62
     7
370
    25
100
AcDbSpline
210
0.0
220
0.0
230
1.0
 70
     8
 71
     3
 72
    20
 73
    16
 74
     0
 42
0.00000001
 43
0.00000001
 40
0.0
 40
0.0
 40
0.0
 40
0.0
 40
0.0642650698184696
 40
0.1273388089115909
 40
0.1892203240053369
 40
0.2499087749604424
 40
0.3338858564124793
 40
0.4170466852807591
 40
0.4993897913088598
 40
0.5824347115285486
 40
0.6655970313915194
 40
0.7488754208416143
 40
0.8314391017821698
 40
0.9151478352449174
 40
0.9999999999999999
 40
0.9999999999999999
 40
0.9999999999999999
 40
0.9999999999999999
 10
602.4635398871625
 20
207.7581734855047
 30
0.0
 10
602.3552453328091
 20
205.4633080698523
 30
0.0
 10
602.1406637630397
 20
200.9161189130207
 30
0.0
 10
600.9903546848947
 20
194.2393326577094
 30
0.0
 10
599.2888354888313
 20
187.8217512238145
 30
0.0
 10
596.7238759150348
 20
180.8920918178865
 30
0.0
 10
593.0673442796245
 20
173.5951599043124
 30
0.0
 10
588.0779270502147
 20
166.1813789584455
 30
0.0
 10
582.2160775710144
 20
159.4809428552098
 30
0.0
 10
575.5562056717037
 20
153.5717343430693
 30
0.0
 10
568.174080592271
 20
148.5359812490068
 30
0.0
 10
560.2282898106508
 20
144.4787704328597
 30
0.0
 10
551.8158451112857
 20
141.4734528117497
 30
0.0
 10
543.0346792472476
 20
139.4627289274328
 30
0.0
 10
537.0163093741946
 20
139.0903393210311
 30
0.0
 10
533.9867116595136
 20
138.9028814671067
 30
0.0
  0
LINE
  5
12A
330
1F
100
AcDbEntity
  8
0
  6
Continuous
 62
     7
370
    25
100
AcDbLine
 10
611.8089407545
 20
207.5713738272
 30
0.0
 11
602.4635398872
 21
207.7581734855
 31
0.0
  0
SPLINE
  5
12B
330
1F
100
AcDbEntity
  8
0
  6
Continuous
 62
     7
370
    25
100
AcDbSpline
210
0.0
220
0.0
230
1.0
 70
     8
 71
     3
 72
    16
 73
    12
 74
     0
 42
0.00000001
 43
0.00000001
 40
0.0
 40
0.0
 40
0.0
 40
0.0
 40
0.1304982643396025
 40
0.2605891560003422
 40
0.3918905038440453
 40
0.5262042379058642
 40
0.6131757575934711
 40
0.702931945992768
 40
0.7961689645030859
 40
0.894370486177231
 40
0.9999999999999999
 40
0.9999999999999999
 40
0.9999999999999999
 40
0.9999999999999999
 10
602.7700017132136
 20
373.1212686187137
 30
0.0
 10
602.8570311318398
 20
365.9260947061144
 30
0.0
 10
603.0308182918587
 20
351.5582078483969
 30
0.0
 10
603.1868756885186
 20
329.9509570267118
 30
0.0
 10
603.2654358548685
 20
308.1348881431624
 30
0.0
 10
603.2559906018433
 20
288.698109499762
 30
0.0
 10
603.1897591028559
 20
271.5534429722005
 30
0.0
 10
603.0917601058939
 20
256.6742862410755
 30
0.0
 10
602.9445114596193
 20
241.1777716756503
 30
0.0
 10
602.7434461726543
 20
224.8081127942167
 30
0.0
 10
602.5590815157411
 20
213.5779033471818
 30
0.0
 10
602.4635398872135
 20
207.7581734855037
 30
0.0
  0
LINE
  5
12C
330
1F
100
AcDbEntity
  8
0
  6
Continuous
 62
     7
370
    25
100
AcDbLine
 10
602.2165456479
 20
407.2081699927
 30
0.0
 11
602.7700017128
 21
373.1212686187
 31
0.0
  0
LINE
  5
12D
330
1F
100
AcDbEntity
  8
0
  6
Continuous
 62
     7
370
    25
100
AcDbLine
 10
213.6253947561
 20
373.1212686187
 30
0.0
 11
214.178850821
 21
407.2081699927
 31
0.0
  0
SPLINE
  5
12E
330
1F
100
AcDbEntity
  8
0
  6
Continuous
 62
     7
370
    25
100
AcDbSpline
210
0.0
220
0.0
230
1.0
 70
     8
 71
     3
 72
    17
 73
    13
 74
     0
 42
0.00000001
 43
0.00000001
 40
0.0
 40
0.0
 40
0.0
 40
0.0
 40
0.1079792147256508
 40
0.2104211439375547
 40
0.3081537147670687
 40
0.4030715405472117
 40
0.4939297030084656
 40
0.5839658301677181
 40
0.6884339426842295
 40
0.7910159795612929
 40
0.8962695791260464
 40
0.9999999999999999
 40
0.9999999999999999
 40
0.9999999999999999
 40
0.9999999999999999
 10
213.931856582166
 20
207.7581734855127
 30
0.0
 10
213.8343232825273
 20
213.7073707518275
 30
0.0
 10
213.6442582914627
 20
225.3006843119303
 30
0.0
 10
213.4382046187596
 20
242.2813067130431
 30
0.0
 10
213.2881567511733
 20
258.5438756661469
 30
0.0
 10
213.1918894620644
 20
274.1697452939824
 30
0.0
 10
213.1416232285689
 20
289.3728503741748
 30
0.0
 10
213.1332547554072
 20
305.1037387705011
 30
0.0
 10
213.172526550045
 20
321.4822534701831
 30
0.0
 10
213.2682658726746
 20
338.7008287494999
 30
0.0
 10
213.412927266778
 20
355.8794508067097
 30
0.0
 10
213.5549172239727
 20
367.4019899990109
 30
0.0
 10
213.6253947561246
 20
373.1212686187107
 30
0.0
  0
LINE
  5
12F
330
1F
100
AcDbEntity
  8
0
  6
Continuous
 62
     7
370
    25
100
AcDbLine
 10
204.5864557145
 20
207.5713738272
 30
0.0
 11
213.9318565818
 21
207.7581734855
 31
0.0
  0
LINE
  5
130
330
1F
100
AcDbEntity
  8
0
  6
Continuous
 62
     7
370
    25
100
AcDbLine
 10
282.1735576052
 20
129.5779162069
 30
0.0
 11
282.4086848095
 21
138.9028814672
 31
0.0
  0
SPLINE
  5
131
330
1F
100
AcDbEntity
  8
0
  6
Continuous
 62
     7
370
    25
100
AcDbSpline
210
0.0
220
0.0
230
1.0
 70
     8
 71
     3
 72
    18
 73
    14
 74
     0
 42
0.00000001
 43
0.00000001
 40
0.0
 40
0.0
 40
0.0
 40
0.0
 40
0.0965242583144756
 40
0.1903293804576087
 40
0.2824329410644947
 40
0.3739829261813101
 40
0.4658082324026789
 40
0.5572037410233821
 40
0.6436282304063461
 40
0.7305063447278592
 40
0.8176727291951723
 40
0.9071414037575943
 40
1.0
 40
1.0
 40
1.0
 40
1.0
 10
533.9867116595116
 20
138.9028814671562
 30
0.0
 10
525.895084503193
 20
138.7249300464335
 30
0.0
 10
509.9397753358487
 20
138.3740401846605
 30
0.0
 10
486.2577301755298
 20
137.9889261466795
 30
0.0
 10
462.9895848765067
 20
137.7041993816458
 30
0.0
 10
439.8847337113134
 20
137.5219111277137
 30
0.0
 10
416.8376730778296
 20
137.4369699209497
 30
0.0
 10
394.2200731970152
 20
137.4489211392792
 30
0.0
 10
372.0181583604631
 20
137.5514981065763
 30
0.0
 10
350.1725779618661
 20
137.7393152711508
 30
0.0
 10
328.0742794413068
 20
138.0204505598533
 30
0.0
 10
305.4774552701226
 20
138.3943710450563
 30
0.0
 10
290.1930004249768
 20
138.7312899371212
 30
0.0
 10
282.4086848095143
 20
138.9028814671572
 30
0.0
  0
SPLINE
  5
132
330
1F
100
AcDbEntity
  8
0
  6
Continuous
 62
     7
370
    25
100
AcDbSpline
210
0.0
220
0.0
230
1.0
 70
     8
 71
     3
 72
    20
 73
    16
 74
     0
 42
0.00000001
 43
0.00000001
 40
0.0
 40
0.0
 40
0.0
 40
0.0
 40
0.0844070437434474
 40
0.1676757117405477
 40
0.2498044061313988
 40
0.3330926302073377
 40
0.4162564250089845
 40
0.4992944600736731
 40
0.5609990297781943
 40
0.6231600995630314
 40
0.685777066519966
 40
0.7488493061141079
 40
0.830432445698665
 40
0.9141500708494056
 40
1.0
 40
1.0
 40
1.0
 40
1.0
 10
282.4086848095135
 20
138.9028814671067
 30
0.0
 10
279.3949893706538
 20
139.0887591553174
 30
0.0
 10
273.4082434159444
 20
139.4580076479214
 30
0.0
 10
264.6715137099096
 20
141.4488725307308
 30
0.0
 10
256.2834401554658
 20
144.4296140695598
 30
0.0
 10
248.3429708115139
 20
148.4640099542448
 30
0.0
 10
240.9508308744873
 20
153.4848155680943
 30
0.0
 10
234.8326182765852
 20
158.8917471093909
 30
0.0
 10
229.86078181463
 20
164.3750251253981
 30
0.0
 10
225.8655193287365
 20
169.7188656444944
 30
0.0
 10
222.3724517057823
 20
175.4604390783558
 30
0.0
 10
219.138928951237
 20
182.1352145351088
 30
0.0
 10
216.4255895137676
 20
189.8466207705813
 30
0.0
 10
214.44937004765
 20
198.6360609152835
 30
0.0
 10
214.105801191183
 20
204.6920845581795
 30
0.0
 10
213.9318565818646
 20
207.7581734855047
 30
0.0
  0
SPLINE
  5
133
330
1F
100
AcDbEntity
  8
0
  6
Continuous
 62
     7
370
    25
100
AcDbSpline
210
0.0
220
0.0
230
1.0
 70
     8
 71
     3
 72
     9
 73
     5
 74
     0
 42
0.00000001
 43
0.00000001
 40
0.0
 40
0.0
 40
0.0
 40
0.0
 40
0.5599995632497481
 40
1.0
 40
1.0
 40
1.0
 40
1.0
 10
333.9976980563235
 20
479.5587745376037
 30
0.0
 10
333.9960395240518
 20
479.6705264796034
 30
0.0
 10
333.993077856971
 20
479.8700836745254
 30
0.0
 10
333.9901159030447
 20
480.0695579485239
 30
0.0
 10
333.9888126420236
 20
480.1573267162037
 30
0.0
  0
LINE
  5
134
330
1F
100
AcDbEntity
  8
0
  6
Continuous
 62
     7
370
    25
100
AcDbLine
 10
333.9888129898
 20
480.7646367234
 30
0.0
 11
333.988812642
 21
480.1573267162
 31
0.0
  0
SPLINE
  5
135
330
1F
100
AcDbEntity
  8
0
  6
Continuous
 62
     7
370
    25
100
AcDbSpline
210
0.0
220
0.0
230
1.0
 70
     8
 71
     3
 72
     9
 73
     5
 74
     0
 42
0.00000001
 43
0.00000001
 40
0.0
 40
0.0
 40
0.0
 40
0.0
 40
0.5599995572766895
 40
1.0
 40
1.0
 40
1.0
 40
1.0
 10
344.2976980810535
 20
479.7011020552037
 30
0.0
 10
344.29626977429
 20
479.8128574237307
 30
0.0
 10
344.2937192244817
 20
480.012420739585
 30
0.0
 10
344.2911684429547
 20
480.2119005886157
 30
0.0
 10
344.2900460979536
 20
480.2996718105037
 30
0.0
  0
LINE
  5
136
330
1F
100
AcDbEntity
  8
0
  6
Continuous
 62
     7
370
    25
100
AcDbLine
 10
344.2900463973
 20
480.9065307081
 30
0.0
 11
344.290046098
 21
480.2996718105
 31
0.0
  0
SPLINE
  5
137
330
1F
100
AcDbEntity
  8
0
  6
Continuous
 62
     7
370
    25
100
AcDbSpline
210
0.0
220
0.0
230
1.0
 70
     8
 71
     3
 72
     9
 73
     5
 74
     0
 42
0.00000001
 43
0.00000001
 40
0.0
 40
0.0
 40
0.0
 40
0.0
 40
0.5599995437026215
 40
1.0
 40
1.0
 40
1.0
 40
1.0
 10
367.8976981377335
 20
479.9471506089037
 30
0.0
 10
367.8967973378183
 20
480.0589120317927
 30
0.0
 10
367.8951887652304
 20
480.2584861638538
 30
0.0
 10
367.8935800876729
 20
480.4579755944256
 30
0.0
 10
367.8928722688136
 20
480.5457510349037
 30
0.0
  0
LINE
  5
138
330
1F
100
AcDbEntity
  8
0
  6
Continuous
 62
     7
370
    25
100
AcDbLine
 10
367.8928725435
 20
481.1515862879
 30
0.0
 11
367.8928722688
 21
480.5457510349
 31
0.0
  0
SPLINE
  5
139
330
1F
100
AcDbEntity
  8
0
  6
Continuous
 62
     7
370
    25
100
AcDbSpline
210
0.0
220
0.0
230
1.0
 70
     8
 71
     3
 72
     9
 73
     5
 74
     0
 42
0.00000001
 43
0.00000001
 40
0.0
 40
0.0
 40
0.0
 40
0.0
 40
0.559999537834396
 40
1.0
 40
1.0
 40
1.0
 40
1.0
 10
378.1976981624636
 20
480.0195975086037
 30
0.0
 10
378.1970275879412
 20
480.1313607897658
 30
0.0
 10
378.195830132449
 20
480.3309382422657
 30
0.0
 10
378.1946326274754
 20
480.5304304614598
 30
0.0
 10
378.1941057247336
 20
480.6182071301037
 30
0.0
  0
LINE
  5
13A
330
1F
100
AcDbEntity
  8
0
  6
Continuous
 62
     7
370
    25
100
AcDbLine
 10
378.1941059388
 20
481.2235999809
 30
0.0
 11
378.1941057247
 21
480.6182071301
 31
0.0
  0
SPLINE
  5
13B
330
1F
100
AcDbEntity
  8
0
  6
Continuous
 62
     7
370
    25
100
AcDbSpline
210
0.0
220
0.0
230
1.0
 70
     8
 71
     3
 72
    15
 73
    11
 74
     0
 42
0.00000001
 43
0.00000001
 40
0.0
 40
0.0
 40
0.0
 40
0.0
 40
0.0746282300966972
 40
0.2168772164386787
 40
0.3588605208421795
 40
0.5005718436590615
 40
0.6421584986978556
 40
0.7838398164412737
 40
0.9257850134148736
 40
1.0
 40
1.0
 40
1.0
 40
1.0
 10
333.8836162020804
 20
480.1187734038672
 30
0.0
 10
333.856082290989
 20
480.1045289789739
 30
0.0
 10
333.7760659488158
 20
480.0631332334684
 30
0.0
 10
333.1780549812869
 20
479.9981263962908
 30
0.0
 10
332.2288762685797
 20
479.9384867372038
 30
0.0
 10
331.0869140734058
 20
479.9053034593846
 30
0.0
 10
329.9454912903837
 20
479.9033347782607
 30
0.0
 10
328.9975536842788
 20
479.9337276561218
 30
0.0
 10
328.4008878689352
 20
479.9802250656354
 30
0.0
 10
328.3211165859688
 20
480.0190344705935
 30
0.0
 10
328.2937284490891
 20
480.0323590312083
 30
0.0
  0
SPLINE
  5
13C
330
1F
100
AcDbEntity
  8
0
  6
Continuous
 62
     7
370
    25
100
AcDbSpline
210
0.0
220
0.0
230
1.0
 70
     8
 71
     3
 72
    15
 73
    11
 74
     0
 42
0.00000001
 43
0.00000001
 40
0.0
 40
0.0
 40
0.0
 40
0.0
 40
0.0746029648018089
 40
0.216833972690868
 40
0.3587959737445401
 40
0.5004954356672787
 40
0.6420868928988965
 40
0.7837872657492804
 40
0.9257550761815808
 40
1.0
 40
1.0
 40
1.0
 40
1.0
 10
344.1848184595993
 20
480.2613238770406
 30
0.0
 10
344.1572936513778
 20
480.2471414121776
 30
0.0
 10
344.077292628227
 20
480.2059199914612
 30
0.0
 10
343.4793668481165
 20
480.1421541021623
 30
0.0
 10
342.5302709286809
 20
480.0844726337794
 30
0.0
 10
341.3883548191915
 20
480.0536397643924
 30
0.0
 10
340.2469060360661
 20
480.0540178900062
 30
0.0
 10
339.298885367611
 20
480.08636048252
 30
0.0
 10
338.7021250123187
 20
480.134090021445
 30
0.0
 10
338.622336295375
 20
480.1730706583953
 30
0.0
 10
338.5949377832956
 20
480.1864561531525
 30
0.0
  0
SPLINE
  5
13D
330
1F
100
AcDbEntity
  8
0
  6
Continuous
 62
     7
370
    25
100
AcDbSpline
210
0.0
220
0.0
230
1.0
 70
     8
 71
     3
 72
    15
 73
    11
 74
     0
 42
0.00000001
 43
0.00000001
 40
0.0
 40
0.0
 40
0.0
 40
0.0
 40
0.0745438111889682
 40
0.2167323804264649
 40
0.3586461885242374
 40
0.5003203865080604
 40
0.6419247464900555
 40
0.7836693751012254
 40
0.9256877418175852
 40
1.0
 40
1.0
 40
1.0
 40
1.0
 10
367.7875750351303
 20
480.5078738766205
 30
0.0
 10
367.7600714341436
 20
480.4938330961457
 30
0.0
 10
367.6801060980941
 20
480.4530102333644
 30
0.0
 10
367.0823779956089
 20
480.3920850341313
 30
0.0
 10
366.1334718162162
 20
480.3388874391163
 30
0.0
 10
364.9916558597117
 20
480.3134381154615
 30
0.0
 10
363.8501420914142
 20
480.3191934791424
 30
0.0
 10
362.9019312435522
 20
480.3560051033432
 30
0.0
 10
362.3049567340933
 20
480.4065598859823
 30
0.0
 10
362.22512878041
 20
480.4459336675358
 30
0.0
 10
362.1977068862281
 20
480.4594590508317
 30
0.0
  0
SPLINE
  5
13E
330
1F
100
AcDbEntity
  8
0
  6
Continuous
 62
     7
370
    25
100
AcDbSpline
210
0.0
220
0.0
230
1.0
 70
     8
 71
     3
 72
    15
 73
    11
 74
     0
 42
0.00000001
 43
0.00000001
 40
0.0
 40
0.0
 40
0.0
 40
0.0
 40
0.0745174427410973
 40
0.2166869460701388
 40
0.3585799893927044
 40
0.5002439946315299
 40
0.6418548150980807
 40
0.7836190196223584
 40
0.9256589031562289
 40
1.0
 40
1.0
 40
1.0
 40
1.0
 10
378.0887789412883
 20
480.5805355226868
 30
0.0
 10
378.0612847487693
 20
480.5665564563856
 30
0.0
 10
377.9813352444326
 20
480.5259071657729
 30
0.0
 10
377.3836945047646
 20
480.4662206317667
 30
0.0
 10
376.4348711567241
 20
480.414978794511
 30
0.0
 10
375.2930965382279
 20
480.3918783503726
 30
0.0
 10
374.1515520520537
 20
480.3999806892322
 30
0.0
 10
373.2032582345023
 20
480.4387435904316
 30
0.0
 10
372.6061914044937
 20
480.4905323757062
 30
0.0
 10
372.5263465201936
 20
480.5300780941846
 30
0.0
 10
372.4989145515155
 20
480.5436646491675
 30
0.0
  0
SPLINE
  5
13F
330
1F
100
AcDbEntity
  8
0
  6
Continuous
 62
     7
370
    25
100
AcDbSpline
210
0.0
220
0.0
230
1.0
 70
     8
 71
     3
 72
    16
 73
    12
 74
     0
 42
0.00000001
 43
0.00000001
 40
0.0
 40
0.0
 40
0.0
 40
0.0
 40
0.1118219241089128
 40
0.2234822442880809
 40
0.335250857429413
 40
0.4470989386964293
 40
0.5589920807555742
 40
0.6689166819062984
 40
0.7788034221811303
 40
0.8886085301027655
 40
1.0
 40
1.0
 40
1.0
 40
1.0
 10
564.1968628299136
 20
207.0355949478037
 30
0.0
 10
564.071465833587
 20
205.2860691188305
 30
0.0
 10
563.8208530634228
 20
201.7895458581675
 30
0.0
 10
562.3201174388299
 20
196.7212079145984
 30
0.0
 10
560.0457561316765
 20
191.9693422339376
 30
0.0
 10
556.9807707241987
 20
187.6695559581621
 30
0.0
 10
553.2580939434914
 20
183.9702016622983
 30
0.0
 10
548.9933409475326
 20
180.9603253645012
 30
0.0
 10
544.3183948085693
 20
178.7308933701501
 30
0.0
 10
539.3159291568206
 20
177.2395902254305
 30
0.0
 10
535.8554198774663
 20
176.9747988067369
 30
0.0
 10
534.1127563199135
 20
176.8414535912037
 30
0.0
  0
LWPOLYLINE
  5
140
330
1F
100
AcDbEntity
  8
0
  6
Continuous
 62
     7
370
    25
100
AcDbPolyline
 90
       16
 70
   128
 43
0.0
 10
564.1968628299
 20
207.0355949475
 10
568.0662952824
 20
206.9808210997
 10
571.8852753738
 20
206.9410061333
 10
575.617434458
 20
206.9165292116
 10
579.2272306965
 20
206.9076234314
 10
582.6802875282
 20
206.9143736036
 10
585.9437210418
 20
206.9367154454
 10
588.9864531338
 20
206.9744361926
 10
591.7795074691
 20
207.0271766256
 10
594.2962854263
 20
207.0944344903
 10
596.5128194002
 20
207.1755692813
 10
598.4080010482
 20
207.2698083414
 10
599.9637823081
 20
207.3762542197
 10
601.1653472716
 20
207.4938932182
 10
602.0012532787
 20
207.6216050454
 10
602.4635398872
 20
207.7581734848
  0
LWPOLYLINE
  5
141
330
1F
100
AcDbEntity
  8
0
  6
Continuous
 62
     7
370
    25
100
AcDbPolyline
 90
       16
 70
   128
 43
0.0
 10
534.1127563198
 20
176.8414535912
 10
534.1925351526
 20
172.9965660646
 10
534.2609499693
 20
169.2043894733
 10
534.31735643
 20
165.5006390448
 10
534.361223291
 20
161.9201971973
 10
534.3921374084
 20
158.4967850122
 10
534.4098076288
 20
155.2626446445
 10
534.4140675318
 20
152.2482356619
 10
534.404876997
 20
149.4819481722
 10
534.3823225821
 20
146.9898354421
 10
534.3466167076
 20
144.7953685234
 10
534.2980956563
 20
142.9192151998
 10
534.2372164058
 20
141.3790453348
 10
534.1645523252
 20
140.1893644547
 10
534.0807877744
 20
139.3613771336
 10
533.9867116593
 20
138.9028814671
  0
SPLINE
  5
142
330
1F
100
AcDbEntity
  8
0
  6
Continuous
 62
     7
370
    25
100
AcDbSpline
210
0.0
220
0.0
230
1.0
 70
     8
 71
     3
 72
    16
 73
    12
 74
     0
 42
0.00000001
 43
0.00000001
 40
0.0
 40
0.0
 40
0.0
 40
0.0
 40
0.1120416770476628
 40
0.2238604443063765
 40
0.3357508861066493
 40
0.4476693253479034
 40
0.559559906474575
 40
0.6694050441086173
 40
0.7791818339046209
 40
0.8888234124175952
 40
1.0
 40
1.0
 40
1.0
 40
1.0
 10
282.2826401491136
 20
176.8414535912037
 30
0.0
 10
280.5298086943631
 20
176.976158870195
 30
0.0
 10
277.0276330879793
 20
177.2453014285715
 30
0.0
 10
271.9574270763577
 20
178.7713245738702
 30
0.0
 10
267.2092345458105
 20
181.0681482555647
 30
0.0
 10
262.9187002171394
 20
184.1519509631902
 30
0.0
 10
259.2338565897936
 20
187.888715162405
 30
0.0
 10
256.2427171468372
 20
192.1623729852033
 30
0.0
 10
254.035461195448
 20
196.8406922844188
 30
0.0
 10
252.5691094320742
 20
201.8413194560518
 30
0.0
 10
252.3226300341487
 20
205.2961643762701
 30
0.0
 10
252.1985336391136
 20
207.0355949478037
 30
0.0
  0
LWPOLYLINE
  5
143
330
1F
100
AcDbEntity
  8
0
  6
Continuous
 62
     7
370
    25
100
AcDbPolyline
 90
       16
 70
   128
 43
0.0
 10
282.2826401489
 20
176.8414535912
 10
282.202861316
 20
172.9965660646
 10
282.1344464992
 20
169.2043894733
 10
282.0780400385
 20
165.5006390448
 10
282.0341731775
 20
161.9201971973
 10
282.0032590601
 20
158.4967850122
 10
281.9855888396
 20
155.2626446445
 10
281.9813289366
 20
152.2482356619
 10
281.9905194714
 20
149.4819481722
 10
282.0130738862
 20
146.9898354421
 10
282.0487797607
 20
144.7953685234
 10
282.097300812
 20
142.9192151998
 10
282.1581800625
 20
141.3790453348
 10
282.2308441431
 20
140.1893644547
 10
282.3146086939
 20
139.3613771336
 10
282.4086848089
 20
138.9028814671
  0
LWPOLYLINE
  5
144
330
1F
100
AcDbEntity
  8
0
  6
Continuous
 62
     7
370
    25
100
AcDbPolyline
 90
       16
 70
   128
 43
0.0
 10
252.1985336391
 20
207.0355949478
 10
248.3291011867
 20
206.9808211
 10
244.5101210952
 20
206.9410061337
 10
240.777962011
 20
206.916529212
 10
237.1681657726
 20
206.9076234318
 10
233.7151089409
 20
206.914373604
 10
230.4516754272
 20
206.9367154459
 10
227.4089433352
 20
206.9744361931
 10
224.615889
 20
207.0271766261
 10
222.0991110428
 20
207.0944344908
 10
219.8825770689
 20
207.1755692819
 10
217.9873954208
 20
207.269808342
 10
216.4316141609
 20
207.3762542203
 10
215.2300491974
 20
207.4938932188
 10
214.3941431904
 20
207.621605046
 10
213.9318565819
 20
207.7581734855
  0
SPLINE
  5
145
330
1F
100
AcDbEntity
  8
0
  6
Continuous
 62
     7
370
    25
100
AcDbSpline
210
0.0
220
0.0
230
1.0
 70
     8
 71
     3
 72
    16
 73
    12
 74
     0
 42
0.00000001
 43
0.00000001
 40
0.0
 40
0.0
 40
0.0
 40
0.0
 40
0.1309869781649482
 40
0.2614766410926363
 40
0.393065121212459
 40
0.5276379980352661
 40
0.6146861023020005
 40
0.7040709942051356
 40
0.7972233177526512
 40
0.8954767669603118
 40
1.0
 40
1.0
 40
1.0
 40
1.0
 10
565.153358282011
 20
372.5990376569037
 30
0.0
 10
565.2357814425933
 20
365.3679121352208
 30
0.0
 10
565.4003148296462
 20
350.9331153392532
 30
0.0
 10
565.4961237601435
 20
329.233838149176
 30
0.0
 10
565.4892673936515
 20
307.3384223378974
 30
0.0
 10
565.387440603114
 20
287.843438102739
 30
0.0
 10
565.2352582163973
 20
270.6800624949503
 30
0.0
 10
565.0610330501513
 20
255.804136077946
 30
0.0
 10
564.835600693048
 20
240.3117077495427
 30
0.0
 10
564.5542364214102
 20
223.9858817211775
 30
0.0
 10
564.3184178363663
 20
212.8009684034021
 30
0.0
 10
564.1968628299105
 20
207.0355949478067
 30
0.0
  0
LWPOLYLINE
  5
146
330
1F
100
AcDbEntity
  8
0
  6
Continuous
 62
     7
370
    25
100
AcDbPolyline
 90
       16
 70
   128
 43
0.0
 10
565.153358282
 20
372.599037657
 10
568.9757781902
 20
372.6497719865
 10
572.7431626875
 20
372.7000334964
 10
576.4204015579
 20
372.7493537735
 10
579.9732246992
 20
372.7972731765
 10
583.368521504
 20
372.8433451196
 10
586.5746494351
 20
372.8871402344
 10
589.5617289182
 20
372.9282503713
 10
592.3019218054
 20
372.9662924037
 10
594.7696908138
 20
373.000911798
 10
596.9420375199
 20
373.0317859181
 10
598.7987166946
 20
373.058627032
 10
600.3224249788
 20
373.0811849935
 10
601.4989621421
 20
373.099249573
 10
602.3173634227
 20
373.1126524175
 10
602.7700017133
 20
373.1212686188
  0
SPLINE
  5
147
330
1F
100
AcDbEntity
  8
0
  6
Continuous
 62
     7
370
    25
100
AcDbSpline
210
0.0
220
0.0
230
1.0
 70
     8
 71
     3
 72
    16
 73
    12
 74
     0
 42
0.00000001
 43
0.00000001
 40
0.0
 40
0.0
 40
0.0
 40
0.0
 40
0.1148555101505406
 40
0.2265658485494011
 40
0.3370615826875688
 40
0.4472605677361309
 40
0.5574568595983891
 40
0.665743987917615
 40
0.774533391538071
 40
0.8850585079596445
 40
1.0
 40
1.0
 40
1.0
 40
1.0
 10
534.112756319911
 20
176.8414535912072
 30
0.0
 10
524.4751750579562
 20
176.5940529997549
 30
0.0
 10
505.4639254129316
 20
176.1060265667127
 30
0.0
 10
477.1718818050286
 20
175.5872384272012
 30
0.0
 10
449.2657719869359
 20
175.2326373005523
 30
0.0
 10
421.4830363520208
 20
175.0571862910329
 30
0.0
 10
393.8845686781421
 20
175.0609879487986
 30
0.0
 10
366.4057283099395
 20
175.2405414485338
 30
0.0
 10
338.9029645443676
 20
175.5929724508041
 30
0.0
 10
310.8464484031476
 20
176.1082004833201
 30
0.0
 10
291.9274363047555
 20
176.5938648700831
 30
0.0
 10
282.2826401491158
 20
176.8414535912077
 30
0.0
  0
SPLINE
  5
148
330
1F
100
AcDbEntity
  8
0
  6
Continuous
 62
     7
370
    25
100
AcDbSpline
210
0.0
220
0.0
230
1.0
 70
     8
 71
     3
 72
    15
 73
    11
 74
     0
 42
0.00000001
 43
0.00000001
 40
0.0
 40
0.0
 40
0.0
 40
0.0
 40
0.1284365753549488
 40
0.248670807444341
 40
0.3632931136585136
 40
0.4738720363750887
 40
0.5816828737367352
 40
0.7205027186853653
 40
0.8583915339550949
 40
1.0
 40
1.0
 40
1.0
 40
1.0
 10
252.1985336391166
 20
207.0355949478067
 30
0.0
 10
252.0506466033422
 20
214.1200639151065
 30
0.0
 10
251.7643170395482
 20
227.8365665043741
 30
0.0
 10
251.4405990351592
 20
247.8796761220773
 30
0.0
 10
251.195499962049
 20
266.9401944739453
 30
0.0
 10
251.0265638268335
 20
285.3178277598843
 30
0.0
 10
250.9159111707556
 20
305.0332788101356
 30
0.0
 10
250.8922519403899
 20
326.2586668343199
 30
0.0
 10
250.98013996044
 20
349.3518838831884
 30
0.0
 10
251.1539676575639
 20
364.7815385929568
 30
0.0
 10
251.2420381870161
 20
372.5990376569037
 30
0.0
  0
LWPOLYLINE
  5
149
330
1F
100
AcDbEntity
  8
0
  6
Continuous
 62
     7
370
    25
100
AcDbPolyline
 90
       16
 70
   128
 43
0.0
 10
251.242038187
 20
372.5990376568
 10
247.4196182789
 20
372.6497719864
 10
243.6522337815
 20
372.7000334963
 10
239.9749949111
 20
372.7493537734
 10
236.4221717698
 20
372.7972731764
 10
233.026874965
 20
372.8433451195
 10
229.8207470339
 20
372.8871402342
 10
226.8336675509
 20
372.9282503712
 10
224.0934746636
 20
372.9662924035
 10
221.6257056553
 20
373.0009117979
 10
219.4533589492
 20
373.031785918
 10
217.5966797744
 20
373.0586270319
 10
216.0729714903
 20
373.0811849933
 10
214.8964343269
 20
373.0992495729
 10
214.0780330463
 20
373.1126524174
 10
213.6253947558
 20
373.1212686186
  0
SPLINE
  5
14A
330
1F
100
AcDbEntity
  8
0
  6
Continuous
 62
     7
370
    25
100
AcDbSpline
210
0.0
220
0.0
230
1.0
 70
     8
 71
     3
 72
    14
 73
    10
 74
     0
 42
0.00000001
 43
0.00000001
 40
0.0
 40
0.0
 40
0.0
 40
0.0
 40
0.1391743196482564
 40
0.2786617487892553
 40
0.4184992224228097
 40
0.55860743704911
 40
0.7055842003678083
 40
0.8526737774189294
 40
1.0
 40
1.0
 40
1.0
 40
1.0
 10
539.7741196561135
 20
432.0122425121137
 30
0.0
 10
541.5754556290615
 20
431.8477852758043
 30
0.0
 10
545.1821801573171
 20
431.5185008130756
 30
0.0
 10
550.3092798573188
 20
429.5743869742491
 30
0.0
 10
554.9341625722216
 20
426.66355248948
 30
0.0
 10
558.9123451504616
 20
422.7508254597654
 30
0.0
 10
561.9860360722392
 20
417.9954292560631
 30
0.0
 10
564.0617854689453
 20
412.5879780451536
 30
0.0
 10
564.391254811302
 20
408.7707315277692
 30
0.0
 10
564.5561218929136
 20
406.8605741558837
 30
0.0
  0
LWPOLYLINE
  5
14B
330
1F
100
AcDbEntity
  8
0
  6
Continuous
 62
     7
370
    25
100
AcDbPolyline
 90
       16
 70
   128
 43
0.0
 10
539.7741196563
 20
432.0122425121
 10
539.8503518826
 20
435.9221700902
 10
539.9074210135
 20
439.7858342871
 10
539.9447732149
 20
443.5657397093
 10
539.9620459979
 20
447.22520381
 10
539.9590717365
 20
450.7287128799
 10
539.9358792949
 20
454.0422666942
 10
539.892693747
 20
457.1337084713
 10
539.829934192
 20
459.973036943
 10
539.7482096877
 20
462.5326975047
 10
539.6483133392
 20
464.7878496227
 10
539.5312146028
 20
466.7166079023
 10
539.3980498771
 20
468.3002544768
 10
539.2501114753
 20
469.5234206576
 10
539.0888350834
 20
470.3742360815
 10
538.9157858276
 20
470.8444439079
  0
LWPOLYLINE
  5
14C
330
1F
100
AcDbEntity
  8
0
  6
Continuous
 62
     7
370
    25
100
AcDbPolyline
 90
       16
 70
   128
 43
0.0
 10
564.5561218929
 20
406.8605741556
 10
568.3812525424
 20
406.9303812502
 10
572.1516970726
 20
406.9953760726
 10
575.8322682714
 20
407.0549520665
 10
579.3886176582
 20
407.1085532462
 10
582.7875560375
 20
407.1556793853
 10
585.9973632327
 20
407.1958906849
 10
588.9880841108
 20
407.2288118778
 10
591.7318081352
 20
407.2541357312
 10
594.202929837
 20
407.2716259132
 10
596.3783877752
 20
407.2811191988
 10
598.2378797548
 20
407.2825269932
 10
599.7640522945
 20
407.2758361583
 10
600.9426625755
 20
407.2611091354
 10
601.7627113618
 20
407.2384833627
 10
602.2165456484
 20
407.2081699925
  0
SPLINE
  5
14D
330
1F
100
AcDbEntity
  8
0
  6
Continuous
 62
     7
370
    25
100
AcDbSpline
210
0.0
220
0.0
230
1.0
 70
     8
 71
     3
 72
    14
 73
    10
 74
     0
 42
0.00000001
 43
0.00000001
 40
0.0
 40
0.0
 40
0.0
 40
0.0
 40
0.1404782831506873
 40
0.2809191396298831
 40
0.4212617863897304
 40
0.5614041037615171
 40
0.7079046661275319
 40
0.8540230015339999
 40
1.0
 40
1.0
 40
1.0
 40
1.0
 10
251.8392745761136
 20
406.8605741558237
 30
0.0
 10
251.9909347996141
 20
408.6817179155959
 30
0.0
 10
252.2942148408154
 20
412.3235202402212
 30
0.0
 10
254.1911145024091
 20
417.5095238907863
 30
0.0
 10
257.0512598529842
 20
422.1911151248559
 30
0.0
 10
260.9083230627229
 20
426.224592490478
 30
0.0
 10
265.6048651285315
 20
429.3509349755721
 30
0.0
 10
270.9507076429563
 20
431.4769318814596
 30
0.0
 10
274.7316969286841
 20
431.8338632049964
 30
0.0
 10
276.6212768129136
 20
432.0122425121137
 30
0.0
  0
LWPOLYLINE
  5
14E
330
1F
100
AcDbEntity
  8
0
  6
Continuous
 62
     7
370
    25
100
AcDbPolyline
 90
       16
 70
   128
 43
0.0
 10
251.8392745761
 20
406.8605741562
 10
248.0141439267
 20
406.9303812509
 10
244.2436993964
 20
406.9953760733
 10
240.5631281977
 20
407.0549520672
 10
237.0067788109
 20
407.108553247
 10
233.6078404316
 20
407.1556793861
 10
230.3980332364
 20
407.1958906857
 10
227.4073123583
 20
407.2288118787
 10
224.6635883339
 20
407.2541357321
 10
222.1924666322
 20
407.2716259141
 10
220.0170086939
 20
407.2811191998
 10
218.1575167143
 20
407.2825269942
 10
216.6313441747
 20
407.2758361593
 10
215.4527338936
 20
407.2611091364
 10
214.6326851073
 20
407.2384833637
 10
214.1788508208
 20
407.2081699935
  0
LWPOLYLINE
  5
14F
330
1F
100
AcDbEntity
  8
0
  6
Continuous
 62
     7
370
    25
100
AcDbPolyline
 90
       16
 70
   128
 43
0.0
 10
276.6212768125
 20
432.0122425121
 10
276.5450445863
 20
435.9221700902
 10
276.4879754554
 20
439.7858342871
 10
276.450623254
 20
443.5657397093
 10
276.4333504711
 20
447.22520381
 10
276.4363247325
 20
450.7287128799
 10
276.4595171741
 20
454.0422666942
 10
276.5027027221
 20
457.1337084713
 10
276.5654622771
 20
459.973036943
 10
276.6471867815
 20
462.5326975047
 10
276.74708313
 20
464.7878496227
 10
276.8641818664
 20
466.7166079023
 10
276.9973465921
 20
468.3002544768
 10
277.1452849939
 20
469.5234206576
 10
277.3065613858
 20
470.3742360815
 10
277.4796106416
 20
470.8444439079
  0
LINE
  5
150
330
1F
100
AcDbEntity
  8
0
  6
Continuous
 62
     7
370
    25
100
AcDbLine
 10
251.242038187
 20
372.5990376569
 30
0.0
 11
251.8392745761
 21
406.8605741558
 31
0.0
  0
LINE
  5
151
330
1F
100
AcDbEntity
  8
0
  6
Continuous
 62
     7
370
    25
100
AcDbLine
 10
564.5561218929
 20
406.8605741559
 30
0.0
 11
565.153358282
 21
372.5990376569
 31
0.0
  0
SPLINE
  5
152
330
1F
100
AcDbEntity
  8
0
  6
Continuous
 62
     7
370
    25
100
AcDbSpline
210
0.0
220
0.0
230
1.0
 70
     8
 71
     3
 72
    35
 73
    31
 74
     0
 42
0.00000001
 43
0.00000001
 40
0.0
 40
0.0
 40
0.0
 40
0.0
 40
0.0319616784968871
 40
0.0607330231321995
 40
0.0869764640803737
 40
0.1111334876438501
 40
0.1347396072483506
 40
0.1585958373696131
 40
0.1822626357047887
 40
0.2049146747784997
 40
0.2509365448083106
 40
0.2959377774009411
 40
0.3374463576540377
 40
0.3902279924064813
 40
0.4417244009564401
 40
0.4931691451520188
 40
0.544633800399067
 40
0.5858250638407321
 40
0.6276150726368627
 40
0.6710460773382516
 40
0.7174312218643939
 40
0.766631186091705
 40
0.8036841573343334
 40
0.8429021959403288
 40
0.8819007273515709
 40
0.9011441327817636
 40
0.921891278202801
 40
0.944708843614593
 40
0.9704382154604984
 40
1.0
 40
1.0
 40
1.0
 40
1.0
 10
276.6212768129136
 20
432.0122425121137
 30
0.0
 10
279.423046190843
 20
432.0914448628983
 30
0.0
 10
284.746919417884
 20
432.241943786251
 30
0.0
 10
292.3718543309985
 20
432.4473949532539
 30
0.0
 10
299.3129181735054
 20
432.6290494245624
 30
0.0
 10
305.8014746708025
 20
432.7939948824495
 30
0.0
 10
312.0810413082021
 20
432.9496456441915
 30
0.0
 10
318.3179491882142
 20
433.1005775583006
 30
0.0
 10
324.4715393984205
 20
433.2461822358634
 30
0.0
 10
332.5692837857726
 20
433.4338480539227
 30
0.0
 10
342.5388612368425
 20
433.6581590362011
 30
0.0
 10
354.1639086160952
 20
433.9091540028444
 30
0.0
 10
366.3839492726139
 20
434.1581775367776
 30
0.0
 10
379.1766169867486
 20
434.3910882181917
 30
0.0
 10
392.8448401998941
 20
434.575451730686
 30
0.0
 10
406.4003034940213
 20
434.6551059250137
 30
0.0
 10
419.0514458621154
 20
434.6112726030684
 30
0.0
 10
430.8531027065885
 20
434.4824538076178
 30
0.0
 10
441.9473521247929
 20
434.3074938535828
 30
0.0
 10
453.4949482674454
 20
434.089232547836
 30
0.0
 10
465.6902750464799
 20
433.8360460299078
 30
0.0
 10
477.3240314071227
 20
433.5810228719357
 30
0.0
 10
488.3277269201702
 20
433.3306838811441
 30
0.0
 10
498.4357580110295
 20
433.0929608732672
 30
0.0
 10
506.9812886396809
 20
432.8843896518624
 30
0.0
 10
513.9068197970582
 20
432.7100717917165
 30
0.0
 10
519.4134293163961
 20
432.5684283777991
 30
0.0
 10
525.4884208835116
 20
432.4081301795637
 30
0.0
 10
532.3358969977901
 20
432.2226880011698
 30
0.0
 10
537.1827287958157
 20
432.0855592897878
 30
0.0
 10
539.7741196561135
 20
432.0122425121137
 30
0.0
  0
ARC
  5
153
330
1F
100
AcDbEntity
  8
0
  6
Continuous
 62
     7
370
    25
100
AcDbCircle
 10
408.1976982345
 20
372.5990376569
 30
0.0
 40
60.64239980322003
100
AcDbArc
 50
180.0
 51
0.0
  0
LINE
  5
154
330
1F
100
AcDbEntity
  8
0
  6
Continuous
 62
     7
370
    25
100
AcDbLine
 10
565.153358282
 20
372.5990376569
 30
0.0
 11
468.8400980377
 21
372.5990376569
 31
0.0
  0
LINE
  5
155
330
1F
100
AcDbEntity
  8
0
  6
Continuous
 62
     7
370
    25
100
AcDbLine
 10
251.242038187
 20
372.5990376569
 30
0.0
 11
347.5552984313
 21
372.5990376569
 31
0.0
  0
ARC
  5
156
330
1F
100
AcDbEntity
  8
0
  6
Continuous
 62
     7
370
    25
100
AcDbCircle
 10
408.1976982345
 20
372.5990376569
 30
0.0
 40
60.64239980322003
100
AcDbArc
 50
0.0
 51
180.0
  0
LINE
  5
157
330
1F
100
AcDbEntity
  8
0
  6
Continuous
 62
     7
370
    25
100
AcDbLine
 10
468.8400980377
 20
372.5990376569
 30
0.0
 11
467.6953798551
 21
372.5990376569
 31
0.0
  0
ARC
  5
158
330
1F
100
AcDbEntity
  8
0
  6
Continuous
 62
     7
370
    25
100
AcDbCircle
 10
408.1976982345
 20
372.5990376569
 30
0.0
 40
59.49768162059001
100
AcDbArc
 50
0.0
 51
180.0
  0
LINE
  5
159
330
1F
100
AcDbEntity
  8
0
  6
Continuous
 62
     7
370
    25
100
AcDbLine
 10
347.5552984313
 20
372.5990376569
 30
0.0
 11
348.7000166139
 21
372.5990376569
 31
0.0
  0
ARC
  5
15A
330
1F
100
AcDbEntity
  8
0
  6
Continuous
 62
     7
370
    25
100
AcDbCircle
 10
408.1976982345
 20
372.5990376569
 30
0.0
 40
59.49768162059001
100
AcDbArc
 50
180.0
 51
0.0
  0
ARC
  5
15B
330
1F
100
AcDbEntity
  8
0
  6
Continuous
 62
     7
370
    25
100
AcDbCircle
 10
408.1976982345
 20
372.5990376569
 30
0.0
 40
57.67042515468006
100
AcDbArc
 50
180.0
 51
0.0
  0
LINE
  5
15C
330
1F
100
AcDbEntity
  8
0
  6
Continuous
 62
     7
370
    25
100
AcDbLine
 10
467.6953798551
 20
372.5990376569
 30
0.0
 11
465.8681233892
 21
372.5990376569
 31
0.0
  0
LINE
  5
15D
330
1F
100
AcDbEntity
  8
0
  6
Continuous
 62
     7
370
    25
100
AcDbLine
 10
348.7000166139
 20
372.5990376569
 30
0.0
 11
350.5272730798
 21
372.5990376569
 31
0.0
  0
ARC
  5
15E
330
1F
100
AcDbEntity
  8
0
  6
Continuous
 62
     7
370
    25
100
AcDbCircle
 10
408.1976982345
 20
372.5990376569
 30
0.0
 40
57.67042515468006
100
AcDbArc
 50
0.0
 51
180.0
  0
LINE
  5
15F
330
1F
100
AcDbEntity
  8
0
  6
Continuous
 62
     7
370
    25
100
AcDbLine
 10
350.5272730798
 20
372.5990376569
 30
0.0
 11
350.9094325024
 21
372.5990376569
 31
0.0
  0
ARC
  5
160
330
1F
100
AcDbEntity
  8
0
  6
Continuous
 62
     7
370
    25
100
AcDbCircle
 10
408.1976982345
 20
372.5990376569
 30
0.0
 40
57.28826573216003
100
AcDbArc
 50
180.0
 51
0.0
  0
LINE
  5
161
330
1F
100
AcDbEntity
  8
0
  6
Continuous
 62
     7
370
    25
100
AcDbLine
 10
465.8681233892
 20
372.5990376569
 30
0.0
 11
465.4859639667
 21
372.5990376569
 31
0.0
  0
ARC
  5
162
330
1F
100
AcDbEntity
  8
0
  6
Continuous
 62
     7
370
    25
100
AcDbCircle
 10
408.1976982345
 20
372.5990376569
 30
0.0
 40
57.28826573216003
100
AcDbArc
 50
0.0
 51
180.0
  0
LINE
  5
163
330
1F
100
AcDbEntity
  8
0
  6
Continuous
 62
     7
370
    25
100
AcDbLine
 10
350.9094325024
 20
372.5990376569
 30
0.0
 11
362.6976982345
 21
372.5990376569
 31
0.0
  0
ARC
  5
164
330
1F
100
AcDbEntity
  8
0
  6
Continuous
 62
     7
370
    25
100
AcDbCircle
 10
408.1976982345
 20
372.5990376569
 30
0.0
 40
45.5
100
AcDbArc
 50
180.0
 51
0.0
  0
LINE
  5
165
330
1F
100
AcDbEntity
  8
0
  6
Continuous
 62
     7
370
    25
100
AcDbLine
 10
465.4859639667
 20
372.5990376569
 30
0.0
 11
453.6976982345
 21
372.5990376569
 31
0.0
  0
ARC
  5
166
330
1F
100
AcDbEntity
  8
0
  6
Continuous
 62
     7
370
    25
100
AcDbCircle
 10
408.1976982345
 20
372.5990376569
 30
0.0
 40
45.5
100
AcDbArc
 50
0.0
 51
180.0
  0
ARC
  5
167
330
1F
100
AcDbEntity
  8
0
  6
Continuous
 62
     7
370
    25
100
AcDbCircle
 10
408.1976982345
 20
372.5990376569
 30
0.0
 40
45.0
100
AcDbArc
 50
180.0
 51
0.0
  0
ARC
  5
168
330
1F
100
AcDbEntity
  8
0
  6
Continuous
 62
     7
370
    25
100
AcDbCircle
 10
408.1976982345
 20
372.5990376569
 30
0.0
 40
45.0
100
AcDbArc
 50
0.0
 51
180.0
  0
LINE
  5
169
330
1F
100
AcDbEntity
  8
0
  6
Continuous
 62
     7
370
    25
100
AcDbLine
 10
652.1976982345
 20
552.5990376569
 30
0.0
 11
653.1976982345
 21
552.5990376569
 31
0.0
  0
LINE
  5
16A
330
1F
100
AcDbEntity
  8
0
  6
Continuous
 62
     7
370
    25
100
AcDbLine
 10
618.1976982345
 20
586.5990376569
 30
0.0
 11
618.1976982345
 21
587.5990376569
 31
0.0
  0
LINE
  5
16B
330
1F
100
AcDbEntity
  8
0
  6
Continuous
 62
     7
370
    25
100
AcDbLine
 10
164.1976982345
 20
552.5990376569
 30
0.0
 11
163.1976982345
 21
552.5990376569
 31
0.0
  0
LINE
  5
16C
330
1F
100
AcDbEntity
  8
0
  6
Continuous
 62
     7
370
    25
100
AcDbLine
 10
164.1976982345
 20
122.5990376569
 30
0.0
 11
163.1976982345
 21
122.5990376569
 31
0.0
  0
LINE
  5
16D
330
1F
100
AcDbEntity
  8
0
  6
Continuous
 62
     7
370
    25
100
AcDbLine
 10
198.1976982345
 20
88.5990376569
 30
0.0
 11
198.1976982345
 21
87.5990376569
 31
0.0
  0
LINE
  5
16E
330
1F
100
AcDbEntity
  8
0
  6
Continuous
 62
     7
370
    25
100
AcDbLine
 10
652.1976982345
 20
122.5990376569
 30
0.0
 11
653.1976982345
 21
122.5990376569
 31
0.0
  0
LINE
  5
16F
330
1F
100
AcDbEntity
  8
0
  6
Continuous
 62
     7
370
    25
100
AcDbLine
 10
198.1976982345
 20
586.5990376569
 30
0.0
 11
198.1976982345
 21
587.5990376569
 31
0.0
  0
LINE
  5
170
330
1F
100
AcDbEntity
  8
0
  6
Continuous
 62
     7
370
    25
100
AcDbLine
 10
618.1976982345
 20
88.5990376569
 30
0.0
 11
618.1976982345
 21
87.5990376569
 31
0.0
  0
ENDSEC
  0
SECTION
  2
OBJECTS
  0
DICTIONARY
  5
C
330
0
100
AcDbDictionary
281
     1
  3
ACAD_GROUP
350
D
  3
ACAD_LAYOUT
350
1A
  3
ACAD_MLINESTYLE
350
17
  3
ACAD_PLOTSETTINGS
350
19
  3
ACAD_PLOTSTYLENAME
350
E
  3
ACAD_SCALELIST
350
47
  3
DWGPROPS
350
171
  0
DICTIONARY
  5
D
102
{ACAD_REACTORS
330
C
102
}
330
C
100
AcDbDictionary
281
     1
  0
DICTIONARY
  5
1A
102
{ACAD_REACTORS
330
C
102
}
330
C
100
AcDbDictionary
281
     1
  3
Layout1
350
1E
  3
Layout2
350
26
  3
Model
350
22
  0
DICTIONARY
  5
17
102
{ACAD_REACTORS
330
C
102
}
330
C
100
AcDbDictionary
281
     1
  3
Standard
350
18
  0
DICTIONARY
  5
19
102
{ACAD_REACTORS
330
C
102
}
330
C
100
AcDbDictionary
281
     1
  0
ACDBDICTIONARYWDFLT
  5
E
102
{ACAD_REACTORS
330
C
102
}
330
C
100
AcDbDictionary
281
     1
  3
Normal
350
F
100
AcDbDictionaryWithDefault
340
F
  0
DICTIONARY
  5
47
102
{ACAD_REACTORS
330
C
102
}
330
C
100
AcDbDictionary
281
     1
  3
A0
350
48
  3
A1
350
49
  3
A2
350
4A
  3
A3
350
4B
  3
A4
350
4C
  3
A5
350
4D
  3
A6
350
4E
  3
A7
350
4F
  3
A8
350
50
  3
A9
350
51
  3
B0
350
52
  3
B1
350
53
  3
B2
350
54
  3
B3
350
55
  3
B4
350
56
  3
B5
350
57
  3
B6
350
58
  0
XRECORD
  5
171
102
{ACAD_REACTORS
330
C
102
}
330
C
100
AcDbXrecord
280
     1
  1
DWGPROPS COOKIE
  2

  3

  4

  6

  7

  8
villesi
  9

300
=
301
=
302
=
303
=
304
=
305
=
306
=
307
=
308
=
309
=
 40
0.0
 41
2460832.304617373
 42
2460832.304617755
  1

 90
        0
  0
LAYOUT
  5
1E
102
{ACAD_REACTORS
330
1A
102
}
330
1A
100
AcDbPlotSettings
  1

  2
none_device
  4

  6

 40
0.0
 41
0.0
 42
0.0
 43
0.0
 44
0.0
 45
0.0
 46
0.0
 47
0.0
 48
0.0
 49
0.0
140
0.0
141
0.0
142
1.0
143
1.0
 70
   688
 72
     1
 73
     0
 74
     5
  7

 75
    16
147
1.0
148
0.0
149
0.0
100
AcDbLayout
  1
Layout1
 70
     1
 71
     1
 10
0.0
 20
0.0
 11
420.0
 21
297.0
 12
0.0
 22
0.0
 32
0.0
 14
1.0000000000E+20
 24
1.0000000000E+20
 34
1.0000000000E+20
 15
-1.0000000000E+20
 25
-1.0000000000E+20
 35
-1.0000000000E+20
146
0.0
 13
0.0
 23
0.0
 33
0.0
 16
1.0
 26
0.0
 36
0.0
 17
0.0
 27
1.0
 37
0.0
 76
     0
330
1B
  0
LAYOUT
  5
26
102
{ACAD_REACTORS
330
1A
102
}
330
1A
100
AcDbPlotSettings
  1

  2
none_device
  4

  6

 40
0.0
 41
0.0
 42
0.0
 43
0.0
 44
0.0
 45
0.0
 46
0.0
 47
0.0
 48
0.0
 49
0.0
140
0.0
141
0.0
142
1.0
143
1.0
 70
   688
 72
     1
 73
     0
 74
     5
  7

 75
    16
147
1.0
148
0.0
149
0.0
100
AcDbLayout
  1
Layout2
 70
     1
 71
     2
 10
0.0
 20
0.0
 11
0.0
 21
0.0
 12
0.0
 22
0.0
 32
0.0
 14
0.0
 24
0.0
 34
0.0
 15
0.0
 25
0.0
 35
0.0
146
0.0
 13
0.0
 23
0.0
 33
0.0
 16
1.0
 26
0.0
 36
0.0
 17
0.0
 27
1.0
 37
0.0
 76
     0
330
23
  0
LAYOUT
  5
22
102
{ACAD_REACTORS
330
1A
102
}
330
1A
100
AcDbPlotSettings
  1

  2
none_device
  4
Letter_(8.50_x_11.00_Inches)
  6

 40
6.35
 41
6.35
 42
6.35000508
 43
6.35000508
 44
215.9
 45
279.4
 46
0.0
 47
0.0
 48
0.0
 49
0.0
140
0.0
141
0.0
142
1.0
143
1.0
 70
  1712
 72
     1
 73
     0
 74
     0
  7

 75
     0
147
1.0
148
0.0
149
0.0
100
AcDbLayout
  1
Model
 70
     1
 71
     0
 10
0.0
 20
0.0
 11
800.0
 21
700.0
 12
0.0
 22
0.0
 32
0.0
 14
0.0
 24
0.0
 34
0.0
 15
800.0
 25
700.0
 35
0.0
146
0.0
 13
0.0
 23
0.0
 33
0.0
 16
1.0
 26
0.0
 36
0.0
 17
0.0
 27
1.0
 37
0.0
 76
     0
330
1F
331
29
  0
MLINESTYLE
  5
18
102
{ACAD_REACTORS
330
17
102
}
330
17
100
AcDbMlineStyle
  2
Standard
 70
     0
  3

 62
   256
 51
90.0
 52
90.0
 71
     2
 49
0.5
 62
   256
  6
BYLAYER
 49
-0.5
 62
   256
  6
BYLAYER
  0
ACDBPLACEHOLDER
  5
F
102
{ACAD_REACTORS
330
E
102
}
330
E
  0
SCALE
  5
48
102
{ACAD_REACTORS
330
47
102
}
330
47
100
AcDbScale
 70
     0
300
1:1
140
1.0
141
1.0
290
     1
  0
SCALE
  5
49
102
{ACAD_REACTORS
330
47
102
}
330
47
100
AcDbScale
 70
     0
300
1:2
140
1.0
141
2.0
290
     0
  0
SCALE
  5
4A
102
{ACAD_REACTORS
330
47
102
}
330
47
100
AcDbScale
 70
     0
300
1:4
140
1.0
141
4.0
290
     0
  0
SCALE
  5
4B
102
{ACAD_REACTORS
330
47
102
}
330
47
100
AcDbScale
 70
     0
300
1:5
140
1.0
141
5.0
290
     0
  0
SCALE
  5
4C
102
{ACAD_REACTORS
330
47
102
}
330
47
100
AcDbScale
 70
     0
300
1:8
140
1.0
141
8.0
290
     0
  0
SCALE
  5
4D
102
{ACAD_REACTORS
330
47
102
}
330
47
100
AcDbScale
 70
     0
300
1:10
140
1.0
141
10.0
290
     0
  0
SCALE
  5
4E
102
{ACAD_REACTORS
330
47
102
}
330
47
100
AcDbScale
 70
     0
300
1:16
140
1.0
141
16.0
290
     0
  0
SCALE
  5
4F
102
{ACAD_REACTORS
330
47
102
}
330
47
100
AcDbScale
 70
     0
300
1:20
140
1.0
141
20.0
290
     0
  0
SCALE
  5
50
102
{ACAD_REACTORS
330
47
102
}
330
47
100
AcDbScale
 70
     0
300
1:30
140
1.0
141
30.0
290
     0
  0
SCALE
  5
51
102
{ACAD_REACTORS
330
47
102
}
330
47
100
AcDbScale
 70
     0
300
1:40
140
1.0
141
40.0
290
     0
  0
SCALE
  5
52
102
{ACAD_REACTORS
330
47
102
}
330
47
100
AcDbScale
 70
     0
300
1:50
140
1.0
141
50.0
290
     0
  0
SCALE
  5
53
102
{ACAD_REACTORS
330
47
102
}
330
47
100
AcDbScale
 70
     0
300
1:100
140
1.0
141
100.0
290
     0
  0
SCALE
  5
54
102
{ACAD_REACTORS
330
47
102
}
330
47
100
AcDbScale
 70
     0
300
2:1
140
2.0
141
1.0
290
     0
  0
SCALE
  5
55
102
{ACAD_REACTORS
330
47
102
}
330
47
100
AcDbScale
 70
     0
300
4:1
140
4.0
141
1.0
290
     0
  0
SCALE
  5
56
102
{ACAD_REACTORS
330
47
102
}
330
47
100
AcDbScale
 70
     0
300
8:1
140
8.0
141
1.0
290
     0
  0
SCALE
  5
57
102
{ACAD_REACTORS
330
47
102
}
330
47
100
AcDbScale
 70
     0
300
10:1
140
10.0
141
1.0
290
     0
  0
SCALE
  5
58
102
{ACAD_REACTORS
330
47
102
}
330
47
100
AcDbScale
 70
     0
300
100:1
140
100.0
141
1.0
290
     0
  0
ENDSEC
  0
EOF
