  0
SECTION
  2
HEADER
  9
$ACADVER
  1
AC1015
  9
$ACADMAINTVER
 70
     6
  9
$DWGCODEPAGE
  3
ANSI_1252
  9
$INSBASE
 10
0.0
 20
0.0
 30
0.0
  9
$EXTMIN
 10
0.0
 20
0.0
 30
0.0
  9
$EXTMAX
 10
800.0
 20
700.0
 30
0.0
  9
$LIMMIN
 10
0.0
 20
0.0
  9
$LIMMAX
 10
800.0
 20
700.0
  9
$ORTHOMODE
 70
     0
  9
$REGENMODE
 70
     1
  9
$FILLMODE
 70
     1
  9
$QTEXTMODE
 70
     0
  9
$MIRRTEXT
 70
     1
  9
$LTSCALE
 40
1.0
  9
$ATTMODE
 70
     1
  9
$TEXTSIZE
 40
3.5
  9
$TRACEWID
 40
1.0
  9
$TEXTSTYLE
  7
Standard
  9
$CLAYER
  8
0
  9
$CELTYPE
  6
ByLayer
  9
$CECOLOR
 62
   256
  9
$CELTSCALE
 40
1.0
  9
$DISPSILH
 70
     0
  9
$DIMSCALE
 40
1.0
  9
$DIMASZ
 40
3.302
  9
$DIMEXO
 40
1.0
  9
$DIMDLI
 40
3.75
  9
$DIMRND
 40
0.0
  9
$DIMDLE
 40
0.0
  9
$DIMEXE
 40
1.0
  9
$DIMTP
 40
0.0
  9
$DIMTM
 40
0.0
  9
$DIMTXT
 40
3.5
  9
$DIMCEN
 40
2.5
  9
$DIMTSZ
 40
0.0
  9
$DIMTOL
 70
     0
  9
$DIMLIM
 70
     0
  9
$DIMTIH
 70
     1
  9
$DIMTOH
 70
     1
  9
$DIMSE1
 70
     0
  9
$DIMSE2
 70
     0
  9
$DIMTAD
 70
     1
  9
$DIMZIN
 70
     1
  9
$DIMBLK
  1

  9
$DIMASO
 70
     1
  9
$DIMSHO
 70
     1
  9
$DIMPOST
  1

  9
$DIMAPOST
  1

  9
$DIMALT
 70
     0
  9
$DIMALTD
 70
     3
  9
$DIMALTF
 40
0.0393700787
  9
$DIMLFAC
 40
1.0
  9
$DIMTOFL
 70
     1
  9
$DIMTVP
 40
0.0
  9
$DIMTIX
 70
     0
  9
$DIMSOXD
 70
     0
  9
$DIMSAH
 70
     0
  9
$DIMBLK1
  1

  9
$DIMBLK2
  1

  9
$DIMSTYLE
  2
ISO-25
  9
$DIMCLRD
 70
     0
  9
$DIMCLRE
 70
     0
  9
$DIMCLRT
 70
     0
  9
$DIMTFAC
 40
1.0
  9
$DIMGAP
 40
1.524
  9
$DIMJUST
 70
     0
  9
$DIMSD1
 70
     0
  9
$DIMSD2
 70
     0
  9
$DIMTOLJ
 70
     0
  9
$DIMTZIN
 70
     1
  9
$DIMALTZ
 70
     0
  9
$DIMALTTZ
 70
     0
  9
$DIMUPT
 70
     0
  9
$DIMDEC
 70
     2
  9
$DIMTDEC
 70
     2
  9
$DIMALTU
 70
     2
  9
$DIMALTTD
 70
     3
  9
$DIMTXSTY
  7
Standard
  9
$DIMAUNIT
 70
     0
  9
$DIMADEC
 70
     0
  9
$DIMALTRND
 40
0.0
  9
$DIMAZIN
 70
     0
  9
$DIMDSEP
 70
    44
  9
$DIMATFIT
 70
     3
  9
$DIMFRAC
 70
     0
  9
$DIMLDRBLK
  1

  9
$DIMLUNIT
 70
     2
  9
$DIMLWD
 70
    -2
  9
$DIMLWE
 70
    -2
  9
$DIMTMOVE
 70
     0
  9
$LUNITS
 70
     2
  9
$LUPREC
 70
     4
  9
$SKETCHINC
 40
1.0
  9
$FILLETRAD
 40
0.0
  9
$AUNITS
 70
     0
  9
$AUPREC
 70
     2
  9
$MENU
  1
.
  9
$ELEVATION
 40
0.0
  9
$PELEVATION
 40
0.0
  9
$THICKNESS
 40
0.0
  9
$LIMCHECK
 70
     0
  9
$CHAMFERA
 40
0.0
  9
$CHAMFERB
 40
0.0
  9
$CHAMFERC
 40
0.0
  9
$CHAMFERD
 40
0.0
  9
$SKPOLY
 70
     0
  9
$TDCREATE
 40
2460832.427236887
  9
$TDUCREATE
 40
2460832.302236887
  9
$TDUPDATE
 40
2460832.427237142
  9
$TDUUPDATE
 40
2460832.302237142
  9
$TDINDWG
 40
0.0000000116
  9
$TDUSRTIMER
 40
0.0000000116
  9
$USRTIMER
 70
     1
  9
$ANGBASE
 50
0.0
  9
$ANGDIR
 70
     0
  9
$PDMODE
 70
     0
  9
$PDSIZE
 40
-1.0
  9
$PLINEWID
 40
0.0
  9
$SPLFRAME
 70
     0
  9
$SPLINETYPE
 70
     6
  9
$SPLINESEGS
 70
     8
  9
$HANDSEED
  5
DB
  9
$SURFTAB1
 70
     6
  9
$SURFTAB2
 70
     6
  9
$SURFTYPE
 70
     6
  9
$SURFU
 70
     6
  9
$SURFV
 70
     6
  9
$UCSBASE
  2

  9
$UCSNAME
  2

  9
$UCSORG
 10
0.0
 20
0.0
 30
0.0
  9
$UCSXDIR
 10
1.0
 20
0.0
 30
0.0
  9
$UCSYDIR
 10
0.0
 20
1.0
 30
0.0
  9
$UCSORTHOREF
  2

  9
$UCSORTHOVIEW
 70
     0
  9
$UCSORGTOP
 10
0.0
 20
0.0
 30
0.0
  9
$UCSORGBOTTOM
 10
0.0
 20
0.0
 30
0.0
  9
$UCSORGLEFT
 10
0.0
 20
0.0
 30
0.0
  9
$UCSORGRIGHT
 10
0.0
 20
0.0
 30
0.0
  9
$UCSORGFRONT
 10
0.0
 20
0.0
 30
0.0
  9
$UCSORGBACK
 10
0.0
 20
0.0
 30
0.0
  9
$PUCSBASE
  2

  9
$PUCSNAME
  2

  9
$PUCSORG
 10
0.0
 20
0.0
 30
0.0
  9
$PUCSXDIR
 10
1.0
 20
0.0
 30
0.0
  9
$PUCSYDIR
 10
0.0
 20
1.0
 30
0.0
  9
$PUCSORTHOREF
  2

  9
$PUCSORTHOVIEW
 70
     0
  9
$PUCSORGTOP
 10
0.0
 20
0.0
 30
0.0
  9
$PUCSORGBOTTOM
 10
0.0
 20
0.0
 30
0.0
  9
$PUCSORGLEFT
 10
0.0
 20
0.0
 30
0.0
  9
$PUCSORGRIGHT
 10
0.0
 20
0.0
 30
0.0
  9
$PUCSORGFRONT
 10
0.0
 20
0.0
 30
0.0
  9
$PUCSORGBACK
 10
0.0
 20
0.0
 30
0.0
  9
$USERI1
 70
     0
  9
$USERI2
 70
     0
  9
$USERI3
 70
     0
  9
$USERI4
 70
     0
  9
$USERI5
 70
     0
  9
$USERR1
 40
0.0
  9
$USERR2
 40
0.0
  9
$USERR3
 40
0.0
  9
$USERR4
 40
0.0
  9
$USERR5
 40
0.0
  9
$WORLDVIEW
 70
     1
  9
$SHADEDGE
 70
     3
  9
$SHADEDIF
 70
    70
  9
$TILEMODE
 70
     1
  9
$MAXACTVP
 70
    64
  9
$PINSBASE
 10
0.0
 20
0.0
 30
0.0
  9
$PLIMCHECK
 70
     0
  9
$PEXTMIN
 10
1.0000000000E+20
 20
1.0000000000E+20
 30
1.0000000000E+20
  9
$PEXTMAX
 10
-1.0000000000E+20
 20
-1.0000000000E+20
 30
-1.0000000000E+20
  9
$PLIMMIN
 10
0.0
 20
0.0
  9
$PLIMMAX
 10
420.0
 20
297.0
  9
$UNITMODE
 70
     0
  9
$VISRETAIN
 70
     1
  9
$PLINEGEN
 70
     0
  9
$PSLTSCALE
 70
     1
  9
$TREEDEPTH
 70
  3020
  9
$CMLSTYLE
  2
Standard
  9
$CMLJUST
 70
     0
  9
$CMLSCALE
 40
20.0
  9
$PROXYGRAPHICS
 70
     1
  9
$MEASUREMENT
 70
     1
  9
$CELWEIGHT
370
    -1
  9
$ENDCAPS
280
     0
  9
$JOINSTYLE
280
     0
  9
$LWDISPLAY
290
     1
  9
$INSUNITS
 70
     4
  9
$HYPERLINKBASE
  1

  9
$STYLESHEET
  1

  9
$XEDIT
290
     1
  9
$CEPSNTYPE
380
     0
  9
$PSTYLEMODE
290
     1
  9
$FINGERPRINTGUID
  2
{e1f4b192-3536-4eaa-8401-c3561fe2cde3}
  9
$VERSIONGUID
  2
{FAEB1C32-E019-11D5-929B-00C0DF256EC4}
  9
$EXTNAMES
290
     1
  9
$PSVPSCALE
 40
0.0
  9
$OLESTARTUP
290
     0
  0
ENDSEC
  0
SECTION
  2
CLASSES
  0
CLASS
  1
ACDBDICTIONARYWDFLT
  2
AcDbDictionaryWithDefault
  3
ObjectDBX Classes
 90
        0
280
     0
281
     0
  0
CLASS
  1
VISUALSTYLE
  2
AcDbVisualStyle
  3
ObjectDBX Classes
 90
     4095
280
     0
281
     0
  0
CLASS
  1
MATERIAL
  2
AcDbMaterial
  3
ObjectDBX Classes
 90
     1153
280
     0
281
     0
  0
CLASS
  1
SCALE
  2
AcDbScale
  3
ObjectDBX Classes
 90
     1153
280
     0
281
     0
  0
CLASS
  1
TABLESTYLE
  2
AcDbTableStyle
  3
ObjectDBX Classes
 90
     4095
280
     0
281
     0
  0
CLASS
  1
MLEADERSTYLE
  2
AcDbMLeaderStyle
  3
ACDB_MLEADERSTYLE_CLASS
 90
     4095
280
     0
281
     0
  0
CLASS
  1
SUN
  2
AcDbSun
  3
SCENEOE
 90
     1153
280
     0
281
     0
  0
CLASS
  1
ACDBPLACEHOLDER
  2
AcDbPlaceHolder
  3
ObjectDBX Classes
 90
        0
280
     0
281
     0
  0
CLASS
  1
LAYOUT
  2
AcDbLayout
  3
ObjectDBX Classes
 90
        0
280
     0
281
     0
  0
ENDSEC
  0
SECTION
  2
TABLES
  0
TABLE
  2
VPORT
  5
8
330
0
100
AcDbSymbolTable
 70
     1
  0
VPORT
  5
29
330
8
100
AcDbSymbolTableRecord
100
AcDbViewportTableRecord
  2
*Active
 70
     0
 10
0.0
 20
0.0
 11
1.0
 21
1.0
 12
400.0
 22
350.0
 13
0.0
 23
0.0
 14
10.0
 24
10.0
 15
10.0
 25
10.0
 16
0.0
 26
0.0
 36
1.0
 17
0.0
 27
0.0
 37
0.0
 40
700.0
 41
1.1428571429
 42
50.0
 43
0.0
 44
0.0
 50
0.0
 51
0.0
 71
     0
 72
  2000
 73
     1
 74
     3
 75
     0
 76
     0
 77
     0
 78
     0
281
     0
 65
     1
110
0.0
120
0.0
130
0.0
111
1.0
121
0.0
131
0.0
112
0.0
122
1.0
132
0.0
 79
     0
146
0.0
  0
ENDTAB
  0
TABLE
  2
LTYPE
  5
5
330
0
100
AcDbSymbolTable
 70
     6
  0
LTYPE
  5
14
330
5
100
AcDbSymbolTableRecord
100
AcDbLinetypeTableRecord
  2
ByBlock
 70
     0
  3

 72
    65
 73
     0
 40
0.0
  0
LTYPE
  5
15
330
5
100
AcDbSymbolTableRecord
100
AcDbLinetypeTableRecord
  2
ByLayer
 70
     0
  3

 72
    65
 73
     0
 40
0.0
  0
LTYPE
  5
16
330
5
100
AcDbSymbolTableRecord
100
AcDbLinetypeTableRecord
  2
Continuous
 70
     0
  3
Solid line
 72
    65
 73
     0
 40
0.0
  0
LTYPE
  5
5E
330
5
100
AcDbSymbolTableRecord
100
AcDbLinetypeTableRecord
  2
HIDDEN
 70
     0
  3
Hidden __ __ __ __ __ __ __ __ __ __ __ __ __ __
 72
    65
 73
     2
 40
1.905
 49
1.27
 74
     0
 49
-0.635
 74
     0
  0
LTYPE
  5
5F
330
5
100
AcDbSymbolTableRecord
100
AcDbLinetypeTableRecord
  2
PHANTOM
 70
     0
  3
Phantom ______  __  __  ______  __  __  ______
 72
    65
 73
     6
 40
12.7
 49
6.35
 74
     0
 49
-1.27
 74
     0
 49
1.27
 74
     0
 49
-1.27
 74
     0
 49
1.27
 74
     0
 49
-1.27
 74
     0
  0
LTYPE
  5
60
330
5
100
AcDbSymbolTableRecord
100
AcDbLinetypeTableRecord
  2
CENTER
 70
     0
  3
Center ____ _ ____ _ ____ _ ____ _ ____ _ ____
 72
    65
 73
     4
 40
10.16
 49
6.35
 74
     0
 49
-1.27
 74
     0
 49
1.27
 74
     0
 49
-1.27
 74
     0
  0
LTYPE
  5
61
330
5
100
AcDbSymbolTableRecord
100
AcDbLinetypeTableRecord
  2
CENTERX2
 70
     0
  3
Center (2x) ________  __  ________  __  _____
 72
    65
 73
     4
 40
20.32
 49
12.7
 74
     0
 49
-2.54
 74
     0
 49
2.54
 74
     0
 49
-2.54
 74
     0
  0
LTYPE
  5
62
330
5
100
AcDbSymbolTableRecord
100
AcDbLinetypeTableRecord
  2
DOT2
 70
     0
  3
Dot (.5x) ........................................
 72
    65
 73
     2
 40
0.635
 49
0.0
 74
     0
 49
-0.635
 74
     0
  0
ENDTAB
  0
TABLE
  2
LAYER
  5
2
330
0
100
AcDbSymbolTable
 70
     2
  0
LAYER
  5
10
330
2
100
AcDbSymbolTableRecord
100
AcDbLayerTableRecord
  2
0
 70
     0
 62
     7
  6
Continuous
370
    -3
390
F
  0
LAYER
  5
63
330
2
100
AcDbSymbolTableRecord
100
AcDbLayerTableRecord
  2
TABLE_BL1
 70
     0
 62
   179
  6
Continuous
370
    -3
390
F
  0
ENDTAB
  0
TABLE
  2
STYLE
  5
3
330
0
100
AcDbSymbolTable
 70
     1
  0
STYLE
  5
11
330
3
100
AcDbSymbolTableRecord
100
AcDbTextStyleTableRecord
  2
Standard
 70
     0
 40
0.0
 41
1.0
 50
0.0
 71
     0
 42
3.5
  3
txt
  4

  0
ENDTAB
  0
TABLE
  2
VIEW
  5
6
330
0
100
AcDbSymbolTable
 70
     0
  0
ENDTAB
  0
TABLE
  2
UCS
  5
7
330
0
100
AcDbSymbolTable
 70
     0
  0
ENDTAB
  0
TABLE
  2
APPID
  5
9
330
0
100
AcDbSymbolTable
 70
     1
  0
APPID
  5
12
330
9
100
AcDbSymbolTableRecord
100
AcDbRegAppTableRecord
  2
ACAD
 70
     0
  0
ENDTAB
  0
TABLE
  2
DIMSTYLE
  5
A
330
0
100
AcDbSymbolTable
 70
     1
100
AcDbDimStyleTable
  0
DIMSTYLE
105
27
330
A
100
AcDbSymbolTableRecord
100
AcDbDimStyleTableRecord
  2
ISO-25
 70
     0
 41
2.5
 42
0.625
 43
3.75
 44
1.25
 73
     0
 74
     0
 77
     1
 78
     8
140
2.5
141
2.5
143
0.0393700787
147
0.625
171
     3
172
     1
178
     0
271
     2
272
     2
274
     3
278
    44
283
     0
284
     8
340
11
  0
ENDTAB
  0
TABLE
  2
BLOCK_RECORD
  5
1
330
0
100
AcDbSymbolTable
 70
     1
  0
BLOCK_RECORD
  5
1F
330
1
100
AcDbSymbolTableRecord
100
AcDbBlockTableRecord
  2
*Model_Space
340
22
  0
BLOCK_RECORD
  5
1B
330
1
100
AcDbSymbolTableRecord
100
AcDbBlockTableRecord
  2
*Paper_Space
340
1E
  0
BLOCK_RECORD
  5
23
330
1
100
AcDbSymbolTableRecord
100
AcDbBlockTableRecord
  2
*Paper_Space0
340
26
  0
ENDTAB
  0
ENDSEC
  0
SECTION
  2
BLOCKS
  0
BLOCK
  5
20
330
1F
100
AcDbEntity
  8
0
100
AcDbBlockBegin
  2
*Model_Space
 70
     0
 10
0.0
 20
0.0
 30
0.0
  3
*Model_Space
  1

  0
ENDBLK
  5
21
330
1F
100
AcDbEntity
  8
0
100
AcDbBlockEnd
  0
BLOCK
  5
1C
330
1B
100
AcDbEntity
 67
     1
  8
0
100
AcDbBlockBegin
  2
*Paper_Space
 70
     0
 10
0.0
 20
0.0
 30
0.0
  3
*Paper_Space
  1

  0
ENDBLK
  5
1D
330
1B
100
AcDbEntity
 67
     1
  8
0
100
AcDbBlockEnd
  0
BLOCK
  5
24
330
23
100
AcDbEntity
  8
0
100
AcDbBlockBegin
  2
*Paper_Space0
 70
     0
 10
0.0
 20
0.0
 30
0.0
  3
*Paper_Space0
  1

  0
ENDBLK
  5
25
330
23
100
AcDbEntity
  8
0
100
AcDbBlockEnd
  0
ENDSEC
  0
SECTION
  2
ENTITIES
  0
ARC
  5
64
330
1F
100
AcDbEntity
  8
0
  6
Continuous
 62
     7
370
    25
100
AcDbCircle
 10
390.7709199918
 20
348.1673724907
 30
0.0
 40
255.0
100
AcDbArc
 50
0.0
 51
180.0
  0
ARC
  5
65
330
1F
100
AcDbEntity
  8
0
  6
Continuous
 62
     7
370
    25
100
AcDbCircle
 10
390.7709199918
 20
348.1673724907
 30
0.0
 40
255.0
100
AcDbArc
 50
180.0
 51
0.0
  0
ARC
  5
66
330
1F
100
AcDbEntity
  8
0
  6
Continuous
 62
     7
370
    25
100
AcDbCircle
 10
390.7709199918
 20
348.1673724907
 30
0.0
 40
250.7928932188001
100
AcDbArc
 50
180.0
 51
0.0
  0
LINE
  5
67
330
1F
100
AcDbEntity
  8
0
  6
Continuous
 62
     7
370
    25
100
AcDbLine
 10
139.978026773
 20
348.1673724907
 30
0.0
 11
140.6851335542
 21
348.1673724907
 31
0.0
  0
ARC
  5
68
330
1F
100
AcDbEntity
  8
0
  6
Continuous
 62
     7
370
    25
100
AcDbCircle
 10
390.7709199918
 20
348.1673724907
 30
0.0
 40
250.0857864376
100
AcDbArc
 50
180.0
 51
0.0
  0
LINE
  5
69
330
1F
100
AcDbEntity
  8
0
  6
Continuous
 62
     7
370
    25
100
AcDbLine
 10
641.5638132106
 20
348.1673724907
 30
0.0
 11
640.8567064294
 21
348.1673724907
 31
0.0
  0
ARC
  5
6A
330
1F
100
AcDbEntity
  8
0
  6
Continuous
 62
     7
370
    25
100
AcDbCircle
 10
390.7709199918
 20
348.1673724907
 30
0.0
 40
250.7928932188001
100
AcDbArc
 50
0.0
 51
180.0
  0
ARC
  5
6B
330
1F
100
AcDbEntity
  8
0
  6
Continuous
 62
     7
370
    25
100
AcDbCircle
 10
390.7709199918
 20
348.1673724907
 30
0.0
 40
250.0857864376
100
AcDbArc
 50
0.0
 51
180.0
  0
ARC
  5
6C
330
1F
100
AcDbEntity
  8
0
  6
Continuous
 62
     7
370
    25
100
AcDbCircle
 10
390.7709199918
 20
348.1673724907
 30
0.0
 40
242.704163056
100
AcDbArc
 50
0.0
 51
180.0
  0
LINE
  5
6D
330
1F
100
AcDbEntity
  8
0
  6
Continuous
 62
     7
370
    25
100
AcDbLine
 10
633.4750830478
 20
348.1673724907
 30
0.0
 11
632.2730015198
 21
348.1673724907
 31
0.0
  0
ARC
  5
6E
330
1F
100
AcDbEntity
  8
0
  6
Continuous
 62
     7
370
    25
100
AcDbCircle
 10
390.7709199918
 20
348.1673724907
 30
0.0
 40
241.502081528
100
AcDbArc
 50
0.0
 51
180.0
  0
LINE
  5
6F
330
1F
100
AcDbEntity
  8
0
  6
Continuous
 62
     7
370
    25
100
AcDbLine
 10
148.0667569358
 20
348.1673724907
 30
0.0
 11
149.2688384638
 21
348.1673724907
 31
0.0
  0
ARC
  5
70
330
1F
100
AcDbEntity
  8
0
  6
Continuous
 62
     7
370
    25
100
AcDbCircle
 10
390.7709199918
 20
348.1673724907
 30
0.0
 40
242.704163056
100
AcDbArc
 50
180.0
 51
0.0
  0
ARC
  5
71
330
1F
100
AcDbEntity
  8
0
  6
Continuous
 62
     7
370
    25
100
AcDbCircle
 10
390.7709199918
 20
348.1673724907
 30
0.0
 40
241.502081528
100
AcDbArc
 50
180.0
 51
0.0
  0
LINE
  5
72
330
1F
100
AcDbEntity
  8
0
  6
Continuous
 62
     7
370
    25
100
AcDbLine
 10
641.5638132106
 20
348.1673724907
 30
0.0
 11
644.1244733824
 21
348.1673724907
 31
0.0
  0
ARC
  5
73
330
1F
100
AcDbEntity
  8
0
  6
Continuous
 62
     7
370
    25
100
AcDbCircle
 10
390.7709199918
 20
348.1673724907
 30
0.0
 40
253.3535533906001
100
AcDbArc
 50
180.0
 51
0.0
  0
LINE
  5
74
330
1F
100
AcDbEntity
  8
0
  6
Continuous
 62
     7
370
    25
100
AcDbLine
 10
139.978026773
 20
348.1673724907
 30
0.0
 11
137.4173666012
 21
348.1673724907
 31
0.0
  0
ARC
  5
75
330
1F
100
AcDbEntity
  8
0
  6
Continuous
 62
     7
370
    25
100
AcDbCircle
 10
390.7709199918
 20
348.1673724907
 30
0.0
 40
253.3535533906001
100
AcDbArc
 50
0.0
 51
180.0
  0
LINE
  5
76
330
1F
100
AcDbEntity
  8
0
  6
Continuous
 62
     7
370
    25
100
AcDbLine
 10
150.478026773
 20
348.1673724907
 30
0.0
 11
149.2688384638
 21
348.1673724907
 31
0.0
  0
ARC
  5
77
330
1F
100
AcDbEntity
  8
0
  6
Continuous
 62
     7
370
    25
100
AcDbCircle
 10
390.7709199918
 20
348.1673724907
 30
0.0
 40
240.2928932188
100
AcDbArc
 50
180.0
 51
0.0
  0
LINE
  5
78
330
1F
100
AcDbEntity
  8
0
  6
Continuous
 62
     7
370
    25
100
AcDbLine
 10
631.0638132106
 20
348.1673724907
 30
0.0
 11
632.2730015198
 21
348.1673724907
 31
0.0
  0
ARC
  5
79
330
1F
100
AcDbEntity
  8
0
  6
Continuous
 62
     7
370
    25
100
AcDbCircle
 10
390.7709199918
 20
348.1673724907
 30
0.0
 40
240.2928932188
100
AcDbArc
 50
0.0
 51
180.0
  0
LINE
  5
7A
330
1F
100
AcDbEntity
  8
0
  6
Continuous
 62
     7
370
    25
100
AcDbLine
 10
150.478026773
 20
348.1673724907
 30
0.0
 11
151.1851335542
 21
348.1673724907
 31
0.0
  0
ARC
  5
7B
330
1F
100
AcDbEntity
  8
0
  6
Continuous
 62
     7
370
    25
100
AcDbCircle
 10
390.7709199918
 20
348.1673724907
 30
0.0
 40
239.5857864376
100
AcDbArc
 50
180.0
 51
0.0
  0
LINE
  5
7C
330
1F
100
AcDbEntity
  8
0
  6
Continuous
 62
     7
370
    25
100
AcDbLine
 10
631.0638132106
 20
348.1673724907
 30
0.0
 11
630.3567064294
 21
348.1673724907
 31
0.0
  0
ARC
  5
7D
330
1F
100
AcDbEntity
  8
0
  6
Continuous
 62
     7
370
    25
100
AcDbCircle
 10
390.7709199918
 20
348.1673724907
 30
0.0
 40
239.5857864376
100
AcDbArc
 50
0.0
 51
180.0
  0
ARC
  5
7E
330
1F
100
AcDbEntity
  8
0
  6
Continuous
 62
     7
370
    25
100
AcDbCircle
 10
390.7709199918
 20
553.1673724907
 30
0.0
 40
17.5
100
AcDbArc
 50
0.0
 51
180.0
  0
ARC
  5
7F
330
1F
100
AcDbEntity
  8
0
  6
Continuous
 62
     7
370
    25
100
AcDbCircle
 10
390.7709199918
 20
553.1673724907
 30
0.0
 40
17.5
100
AcDbArc
 50
180.0
 51
0.0
  0
ARC
  5
80
330
1F
100
AcDbEntity
  8
0
  6
Continuous
 62
     7
370
    25
100
AcDbCircle
 10
390.7709199918
 20
332.6673724907
 30
0.0
 40
211.3583523229765
100
AcDbArc
 50
124.3092196938
 51
55.6907803062
  0
ARC
  5
81
330
1F
100
AcDbEntity
  8
0
  6
Continuous
 62
     7
370
    25
100
AcDbCircle
 10
461.228291546
 20
435.918323061
 30
0.0
 40
86.35835233915651
100
AcDbArc
 50
55.6907803061
 51
87.1559378191
  0
ARC
  5
82
330
1F
100
AcDbEntity
  8
0
  6
Continuous
 62
     7
370
    25
100
AcDbCircle
 10
390.7709199918
 20
-982.3326275093
 30
0.0
 40
1506.358352339115
100
AcDbArc
 50
87.1559378191
 51
92.8440621809
  0
ARC
  5
83
330
1F
100
AcDbEntity
  8
0
  6
Continuous
 62
     7
370
    25
100
AcDbCircle
 10
320.3135484377
 20
435.918323061
 30
0.0
 40
86.35835233915701
100
AcDbArc
 50
92.8440621809
 51
124.3092196939
  0
LINE
  5
84
330
1F
100
AcDbEntity
  8
0
  6
Continuous
 62
     7
370
    25
100
AcDbLine
 10
271.6368883062
 20
507.2509787973
 30
0.0
 11
275.5643362934
 21
501.4955449933
 31
0.0
  0
ARC
  5
85
330
1F
100
AcDbEntity
  8
0
  6
Continuous
 62
     7
370
    25
100
AcDbCircle
 10
390.7709199918
 20
332.6673724907
 30
0.0
 40
204.3905789365648
100
AcDbArc
 50
124.3092196938
 51
55.6907803062
  0
LINE
  5
86
330
1F
100
AcDbEntity
  8
0
  6
Continuous
 62
     7
370
    25
100
AcDbLine
 10
509.9049516774
 20
507.2509787973
 30
0.0
 11
505.9775036902
 21
501.4955449933
 31
0.0
  0
LINE
  5
87
330
1F
100
AcDbEntity
  8
0
  6
Continuous
 62
     7
370
    25
100
AcDbLine
 10
316.0286311718
 20
522.1703056629
 30
0.0
 11
316.3743572278
 21
515.2111146409
 31
0.0
  0
ARC
  5
88
330
1F
100
AcDbEntity
  8
0
  6
Continuous
 62
     7
370
    25
100
AcDbCircle
 10
320.3135484377
 20
435.918323061
 30
0.0
 40
79.39057893680794
100
AcDbArc
 50
92.8440621809
 51
124.3092196938
  0
ARC
  5
89
330
1F
100
AcDbEntity
  8
0
  6
Continuous
 62
     7
370
    25
100
AcDbCircle
 10
461.228291546
 20
435.918323061
 30
0.0
 40
79.39057893680794
100
AcDbArc
 50
55.6907803062
 51
87.1559378191
  0
LINE
  5
8A
330
1F
100
AcDbEntity
  8
0
  6
Continuous
 62
     7
370
    25
100
AcDbLine
 10
465.5132088119
 20
522.1703056629
 30
0.0
 11
465.1674827559
 21
515.2111146409
 31
0.0
  0
ARC
  5
8B
330
1F
100
AcDbEntity
  8
0
  6
Continuous
 62
     7
370
    25
100
AcDbCircle
 10
390.7709199918
 20
-982.3326275093
 30
0.0
 40
1499.390578936765
100
AcDbArc
 50
87.1559378191
 51
92.8440621809
  0
ARC
  5
8C
330
1F
100
AcDbEntity
  8
0
  6
Continuous
 62
     7
370
    25
100
AcDbCircle
 10
390.7709199918
 20
348.1673724907
 30
0.0
 40
253.7071067812
100
AcDbArc
 50
180.0
 51
0.0
  0
LINE
  5
8D
330
1F
100
AcDbEntity
  8
0
  6
Continuous
 62
     7
370
    25
100
AcDbLine
 10
137.0638132106
 20
348.1673724907
 30
0.0
 11
137.4173666012
 21
348.1673724907
 31
0.0
  0
LINE
  5
8E
330
1F
100
AcDbEntity
  8
0
  6
Continuous
 62
     7
370
    25
100
AcDbLine
 10
644.478026773
 20
348.1673724907
 30
0.0
 11
644.1244733824
 21
348.1673724907
 31
0.0
  0
ARC
  5
8F
330
1F
100
AcDbEntity
  8
0
  6
Continuous
 62
     7
370
    25
100
AcDbCircle
 10
390.7709199918
 20
348.1673724907
 30
0.0
 40
253.7071067812
100
AcDbArc
 50
0.0
 51
180.0
  0
ARC
  5
90
330
1F
100
AcDbEntity
  8
0
  6
Continuous
 62
     7
370
    25
100
AcDbCircle
 10
390.7709199918
 20
348.1673724907
 30
0.0
 40
254.0
100
AcDbArc
 50
180.0
 51
0.0
  0
ARC
  5
91
330
1F
100
AcDbEntity
  8
0
  6
Continuous
 62
     7
370
    25
100
AcDbCircle
 10
390.7709199918
 20
348.1673724907
 30
0.0
 40
254.0
100
AcDbArc
 50
0.0
 51
180.0
  0
LINE
  5
92
330
1F
100
AcDbEntity
  8
0
  6
Continuous
 62
     7
370
    25
100
AcDbLine
 10
505.9775036903
 20
501.4955449933
 30
0.0
 11
499.0804723975
 21
491.3883128913
 31
0.0
  0
SPLINE
  5
93
330
1F
100
AcDbEntity
  8
0
  6
Continuous
 62
     7
370
    25
100
AcDbSpline
210
0.0
220
0.0
230
1.0
 70
     8
 71
     3
 72
    12
 73
     8
 74
     0
 42
0.00000001
 43
0.00000001
 40
0.0
 40
0.0
 40
0.0
 40
0.0
 40
0.1866203116966896
 40
0.3733347990839456
 40
0.5600191637265048
 40
0.7800123703999622
 40
1.0
 40
1.0
 40
1.0
 40
1.0
 10
499.0804723974351
 20
491.3883128912816
 30
0.0
 10
497.1471656863652
 20
492.6242698077629
 30
0.0
 10
493.2795766442999
 20
495.0968073514837
 30
0.0
 10
487.0352352645177
 20
498.0316320026444
 30
0.0
 10
480.1616255595752
 20
500.4782720060147
 30
0.0
 10
472.6481655685229
 20
502.2916210465143
 30
0.0
 10
467.255676569306
 20
502.7455262237506
 30
0.0
 10
464.5594662465351
 20
502.9724759355816
 30
0.0
  0
LINE
  5
94
330
1F
100
AcDbEntity
  8
0
  6
Continuous
 62
     7
370
    25
100
AcDbLine
 10
465.1674827559
 20
515.2111146408
 30
0.0
 11
464.5594662465
 21
502.9724759356
 31
0.0
  0
SPLINE
  5
95
330
1F
100
AcDbEntity
  8
0
  6
Continuous
 62
     7
370
    25
100
AcDbSpline
210
0.0
220
0.0
230
1.0
 70
     8
 71
     3
 72
    13
 73
     9
 74
     0
 42
0.00000001
 43
0.00000001
 40
0.0
 40
0.0
 40
0.0
 40
0.0
 40
0.1632355064139259
 40
0.3133995611181196
 40
0.4543114450392938
 40
0.5892364970793762
 40
0.7954558247216883
 40
1.0
 40
1.0
 40
1.0
 40
1.0
 10
464.5594662465351
 20
502.9724759355816
 30
0.0
 10
460.5477050074595
 20
503.1530877677807
 30
0.0
 10
452.8454333678027
 20
503.4998485319517
 30
0.0
 10
441.6749008650602
 20
503.89427395229
 30
0.0
 10
431.1978460638194
 20
504.1972611066202
 30
0.0
 10
419.3394743744467
 20
504.4592243637986
 30
0.0
 10
405.9127770238902
 20
504.6578336002603
 30
0.0
 10
395.8044646208725
 20
504.6852424591579
 30
0.0
 10
390.7709199918349
 20
504.6988909999815
 30
0.0
  0
SPLINE
  5
96
330
1F
100
AcDbEntity
  8
0
  6
Continuous
 62
     7
370
    25
100
AcDbSpline
210
0.0
220
0.0
230
1.0
 70
     8
 71
     3
 72
    13
 73
     9
 74
     0
 42
0.00000001
 43
0.00000001
 40
0.0
 40
0.0
 40
0.0
 40
0.0
 40
0.1735333028817901
 40
0.3478011989656837
 40
0.5261129383305522
 40
0.6728372798256496
 40
0.8293523373731333
 40
1.0
 40
1.0
 40
1.0
 40
1.0
 10
390.7709199918349
 20
504.6988909999815
 30
0.0
 10
386.5005134651307
 20
504.6890465201463
 30
0.0
 10
377.9416231230826
 20
504.6693158872765
 30
0.0
 10
364.996098390002
 20
504.5075234575576
 30
0.0
 10
352.7126296786087
 20
504.2603871687982
 30
0.0
 10
340.8690308690557
 20
503.9272971629741
 30
0.0
 10
329.2168966964094
 20
503.5220175223958
 30
0.0
 10
321.1763262006266
 20
503.1608569056327
 30
0.0
 10
316.9823747609251
 20
502.9724759829816
 30
0.0
  0
LINE
  5
97
330
1F
100
AcDbEntity
  8
0
  6
Continuous
 62
     7
370
    25
100
AcDbLine
 10
316.3743572278
 20
515.2111146408
 30
0.0
 11
316.9823747609
 21
502.9724759829
 31
0.0
  0
SPLINE
  5
98
330
1F
100
AcDbEntity
  8
0
  6
Continuous
 62
     7
370
    25
100
AcDbSpline
210
0.0
220
0.0
230
1.0
 70
     8
 71
     3
 72
    15
 73
    11
 74
     0
 42
0.00000001
 43
0.00000001
 40
0.0
 40
0.0
 40
0.0
 40
0.0
 40
0.1254859573508829
 40
0.2505490469092075
 40
0.3751339627581948
 40
0.4994832111561765
 40
0.6239850239195959
 40
0.7489377221113482
 40
0.8743663375627586
 40
0.9999999999999999
 40
0.9999999999999999
 40
0.9999999999999999
 40
0.9999999999999999
 10
410.7709191340651
 20
515.7621570620817
 30
0.0
 10
410.8146282162638
 20
515.7981943607641
 30
0.0
 10
410.9018990879799
 20
515.8701475181429
 30
0.0
 10
411.5730503573329
 20
515.9539837429934
 30
0.0
 10
412.5308545629586
 20
516.0024478473655
 30
0.0
 10
413.6689072861007
 20
516.0073281460187
 30
0.0
 10
414.8077157358661
 20
515.9677973040555
 30
0.0
 10
415.7670745071044
 20
515.8900708495225
 30
0.0
 10
416.439551935213
 20
515.7856543631286
 30
0.0
 10
416.5271075412457
 20
515.7109018925838
 30
0.0
 10
416.5709210983651
 20
515.6734951314816
 30
0.0
  0
LWPOLYLINE
  5
99
330
1F
100
AcDbEntity
  8
0
  6
Continuous
 62
     7
370
    25
100
AcDbPolyline
 90
        3
 70
   128
 43
0.0
 10
410.7709191341
 20
514.1058376864
 10
410.7709173627
 20
515.0333766001
 10
410.7709191341
 20
515.7621570621
  0
SPLINE
  5
9A
330
1F
100
AcDbEntity
  8
0
  6
Continuous
 62
     7
370
    25
100
AcDbSpline
210
0.0
220
0.0
230
1.0
 70
     8
 71
     3
 72
    15
 73
    11
 74
     0
 42
0.00000001
 43
0.00000001
 40
0.0
 40
0.0
 40
0.0
 40
0.0
 40
0.125488138855059
 40
0.2505271044264544
 40
0.3751094885224316
 40
0.4994871190457392
 40
0.6240121564449072
 40
0.7489531455163677
 40
0.8743559546718838
 40
1.0
 40
1.0
 40
1.0
 40
1.0
 10
416.5709210983651
 20
514.0170776153816
 30
0.0
 10
416.5272163248238
 20
513.9812151665768
 30
0.0
 10
416.4399632149697
 20
513.9096186353133
 30
0.0
 10
415.7688462725168
 20
513.8280938618174
 30
0.0
 10
414.8110692287075
 20
513.7818146140908
 30
0.0
 10
413.6729732283344
 20
513.7778773668028
 30
0.0
 10
412.5341166038818
 20
513.8165210323167
 30
0.0
 10
411.5747609211309
 20
513.8920974971384
 30
0.0
 10
410.9022773188767
 20
513.9942161206878
 30
0.0
 10
410.8147332366487
 20
514.0686066700056
 30
0.0
 10
410.7709191340651
 20
514.1058376863816
 30
0.0
  0
LWPOLYLINE
  5
9B
330
1F
100
AcDbEntity
  8
0
  6
Continuous
 62
     7
370
    25
100
AcDbPolyline
 90
        3
 70
   128
 43
0.0
 10
416.5709210984
 20
515.6734951315
 10
416.5709233852
 20
514.7455627212
 10
416.5709210984
 20
514.0170776154
  0
SPLINE
  5
9C
330
1F
100
AcDbEntity
  8
0
  6
Continuous
 62
     7
370
    25
100
AcDbSpline
210
0.0
220
0.0
230
1.0
 70
     8
 71
     3
 72
    15
 73
    11
 74
     0
 42
0.00000001
 43
0.00000001
 40
0.0
 40
0.0
 40
0.0
 40
0.0
 40
0.1254369354908746
 40
0.2504113882612983
 40
0.3749201361608622
 40
0.4992506165725139
 40
0.6238023602042208
 40
0.7488444542956638
 40
0.8743489155340385
 40
1.0
 40
1.0
 40
1.0
 40
1.0
 10
421.0709186923051
 20
515.5892308010815
 30
0.0
 10
421.1145998355925
 20
515.6249634181158
 30
0.0
 10
421.2018010709276
 20
515.6962969069541
 30
0.0
 10
421.8726210357853
 20
515.7755270394351
 30
0.0
 10
422.8300756226595
 20
515.8174322334637
 30
0.0
 10
423.9680014685517
 20
515.8145270468283
 30
0.0
 10
425.1070232024348
 20
515.7671881794525
 30
0.0
 10
426.066732011313
 20
515.6828535008453
 30
0.0
 10
426.7394749781195
 20
515.573784078755
 30
0.0
 10
426.8270889699276
 20
515.4983918903545
 30
0.0
 10
426.8709215401151
 20
515.4606737893815
 30
0.0
  0
LWPOLYLINE
  5
9D
330
1F
100
AcDbEntity
  8
0
  6
Continuous
 62
     7
370
    25
100
AcDbPolyline
 90
        3
 70
   128
 43
0.0
 10
421.0709186923
 20
513.9327200014
 10
421.0709160098
 20
514.860027522
 10
421.0709186923
 20
515.5892308011
  0
SPLINE
  5
9E
330
1F
100
AcDbEntity
  8
0
  6
Continuous
 62
     7
370
    25
100
AcDbSpline
210
0.0
220
0.0
230
1.0
 70
     8
 71
     3
 72
    15
 73
    11
 74
     0
 42
0.00000001
 43
0.00000001
 40
0.0
 40
0.0
 40
0.0
 40
0.0
 40
0.125437230711369
 40
0.2503879032561962
 40
0.3748961897512454
 40
0.4992562817445286
 40
0.6238301568978061
 40
0.7488584809281711
 40
0.8743367233735835
 40
1.0
 40
1.0
 40
1.0
 40
1.0
 10
426.8709215401151
 20
513.8040206523815
 30
0.0
 10
426.8272458536634
 20
513.7684626844806
 30
0.0
 10
426.740063894273
 20
513.697484674393
 30
0.0
 10
426.0692874250544
 20
513.6205694680295
 30
0.0
 10
425.111865426077
 20
513.5808576408108
 30
0.0
 10
423.9738972939773
 20
513.5847188365854
 30
0.0
 10
422.8348261742806
 20
513.6311827413307
 30
0.0
 10
421.8751150173613
 20
513.7133746209954
 30
0.0
 10
421.2023568843822
 20
513.8201488205681
 30
0.0
 10
421.1147529377256
 20
513.8951778480008
 30
0.0
 10
421.0709186923051
 20
513.9327200013815
 30
0.0
  0
LWPOLYLINE
  5
9F
330
1F
100
AcDbEntity
  8
0
  6
Continuous
 62
     7
370
    25
100
AcDbPolyline
 90
        3
 70
   128
 43
0.0
 10
426.8709215401
 20
515.4606737894
 10
426.8709247415
 20
514.5326093464
 10
426.8709215401
 20
513.8040206524
  0
SPLINE
  5
A0
330
1F
100
AcDbEntity
  8
0
  6
Continuous
 62
     7
370
    25
100
AcDbSpline
210
0.0
220
0.0
230
1.0
 70
     8
 71
     3
 72
    15
 73
    11
 74
     0
 42
0.00000001
 43
0.00000001
 40
0.0
 40
0.0
 40
0.0
 40
0.0
 40
0.1254349657870902
 40
0.2503733470589573
 40
0.3747830296099615
 40
0.4990235221519894
 40
0.6235589129456378
 40
0.7486736532863979
 40
0.8743000192513759
 40
1.0
 40
1.0
 40
1.0
 40
1.0
 10
432.5209199918351
 20
514.4854254210816
 30
0.0
 10
432.5698726329582
 20
514.5251115187266
 30
0.0
 10
432.6675841165821
 20
514.6043266007154
 30
0.0
 10
433.4195679598777
 20
514.687352672798
 30
0.0
 10
434.4923454006018
 20
514.7259771027494
 30
0.0
 10
435.7669018134222
 20
514.7127487944528
 30
0.0
 10
437.0429899215002
 20
514.6496037251304
 30
0.0
 10
438.1188740527862
 20
514.546466116621
 30
0.0
 10
438.8734544339008
 20
514.4180661902101
 30
0.0
 10
438.9717552082557
 20
514.3326958191985
 30
0.0
 10
439.0209199918351
 20
514.2899981309816
 30
0.0
  0
SPLINE
  5
A1
330
1F
100
AcDbEntity
  8
0
  6
Continuous
 62
     7
370
    25
100
AcDbSpline
210
0.0
220
0.0
230
1.0
 70
     8
 71
     3
 72
    15
 73
    11
 74
     0
 42
0.00000001
 43
0.00000001
 40
0.0
 40
0.0
 40
0.0
 40
0.0
 40
0.1254356449218973
 40
0.2503526393245268
 40
0.3747640634759345
 40
0.499032773120794
 40
0.6235861862777805
 40
0.7486848687233806
 40
0.8742854879797443
 40
1.0
 40
1.0
 40
1.0
 40
1.0
 10
439.0209199918351
 20
514.2899981309816
 30
0.0
 10
438.9719738085911
 20
514.2505286803963
 30
0.0
 10
438.8742838244751
 20
514.1717529772629
 30
0.0
 10
438.1223350270807
 20
514.0916139223303
 30
0.0
 10
437.0495985622949
 20
514.0557186687295
 30
0.0
 10
435.7750340060587
 20
514.070118072487
 30
0.0
 10
434.4989151442706
 20
514.1321317548528
 30
0.0
 10
433.4230051125373
 20
514.2325486491537
 30
0.0
 10
432.6683779533976
 20
514.3580421450793
 30
0.0
 10
432.5700874936772
 20
514.4429515024736
 30
0.0
 10
432.5209199918351
 20
514.4854254210816
 30
0.0
  0
LWPOLYLINE
  5
A2
330
1F
100
AcDbEntity
  8
0
  6
Continuous
 62
     7
370
    25
100
AcDbPolyline
 90
        3
 70
   128
 43
0.0
 10
450.4709225523
 20
514.7057464888
 10
450.4709278555
 20
513.7772133914
 10
450.4709225523
 20
513.0482570083
  0
SPLINE
  5
A3
330
1F
100
AcDbEntity
  8
0
  6
Continuous
 62
     7
370
    25
100
AcDbSpline
210
0.0
220
0.0
230
1.0
 70
     8
 71
     3
 72
    15
 73
    11
 74
     0
 42
0.00000001
 43
0.00000001
 40
0.0
 40
0.0
 40
0.0
 40
0.0
 40
0.0740190584598267
 40
0.2157014730945257
 40
0.3569077768001899
 40
0.4980753022018178
 40
0.6396732715245879
 40
0.7819168119445643
 40
0.924629503011343
 40
1.0
 40
1.0
 40
1.0
 40
1.0
 10
444.7771210365843
 20
514.9733330035974
 30
0.0
 10
444.8045037796768
 20
514.9912462469929
 30
0.0
 10
444.884300769065
 20
515.0434478430237
 30
0.0
 10
445.4798484757006
 20
515.098906581494
 30
0.0
 10
446.4261606018668
 20
515.1265061288016
 30
0.0
 10
447.565941305038
 20
515.1055764208061
 30
0.0
 10
448.7075087273868
 20
515.0403393247443
 30
0.0
 10
449.6578790169316
 20
514.940890208749
 30
0.0
 10
450.2577858617458
 20
514.8397073459494
 30
0.0
 10
450.338325448831
 20
514.7808572050429
 30
0.0
 10
450.3661602799338
 20
514.760518340743
 30
0.0
  0
LWPOLYLINE
  5
A4
330
1F
100
AcDbEntity
  8
0
  6
Continuous
 62
     7
370
    25
100
AcDbPolyline
 90
        3
 70
   128
 43
0.0
 10
444.6709176801
 20
513.2685460427
 10
444.6709129154
 20
514.196265029
 10
444.6709176801
 20
514.9257916599
  0
LINE
  5
A5
330
1F
100
AcDbEntity
  8
0
  6
Continuous
 62
     7
370
    25
100
AcDbLine
 10
450.4709225523
 20
513.0482570083
 30
0.0
 11
450.3646360007
 21
513.0010701377
 31
0.0
  0
SPLINE
  5
A6
330
1F
100
AcDbEntity
  8
0
  6
Continuous
 62
     7
370
    25
100
AcDbSpline
210
0.0
220
0.0
230
1.0
 70
     8
 71
     3
 72
    13
 73
     9
 74
     0
 42
0.00000001
 43
0.00000001
 40
0.0
 40
0.0
 40
0.0
 40
0.0
 40
0.1665375151736405
 40
0.3325518002587628
 40
0.4985581952394377
 40
0.6650535306078705
 40
0.832256810620577
 40
1.0
 40
1.0
 40
1.0
 40
1.0
 10
450.249605279616
 20
512.9500012144173
 30
0.0
 10
450.0642749949958
 20
512.9252287614225
 30
0.0
 10
449.6941966992518
 20
512.8757616859017
 30
0.0
 10
448.7078000156156
 20
512.8532002974007
 30
0.0
 10
447.5760258387717
 20
512.8743764070188
 30
0.0
 10
446.4423604402441
 20
512.9389035361811
 30
0.0
 10
445.4518472892108
 20
513.036419542316
 30
0.0
 10
445.0794745176016
 20
513.1142920860237
 30
0.0
 10
444.8929880128739
 20
513.1532911203183
 30
0.0
  0
LINE
  5
A7
330
1F
100
AcDbEntity
  8
0
  6
Continuous
 62
     7
370
    25
100
AcDbLine
 10
444.7757994925
 20
513.2141121838
 30
0.0
 11
444.6709176801
 21
513.2685460427
 31
0.0
  0
LWPOLYLINE
  5
A8
330
1F
100
AcDbEntity
  8
0
  6
Continuous
 62
     7
370
    25
100
AcDbPolyline
 90
        3
 70
   128
 43
0.0
 10
460.770922994
 20
514.2594956523
 10
460.7709292185
 20
513.3306853021
 10
460.770922994
 20
512.6015113969
  0
SPLINE
  5
A9
330
1F
100
AcDbEntity
  8
0
  6
Continuous
 62
     7
370
    25
100
AcDbSpline
210
0.0
220
0.0
230
1.0
 70
     8
 71
     3
 72
    15
 73
    11
 74
     0
 42
0.00000001
 43
0.00000001
 40
0.0
 40
0.0
 40
0.0
 40
0.0
 40
0.0738765646357468
 40
0.2154452771174432
 40
0.3565697632627279
 40
0.4977331948721295
 40
0.6394055093620157
 40
0.7817560105523189
 40
0.9245421775590407
 40
1.0
 40
1.0
 40
1.0
 40
1.0
 10
455.0772153702389
 20
514.5663980416164
 30
0.0
 10
455.1045511435213
 20
514.5840981140017
 30
0.0
 10
455.1842701082441
 20
514.6357166078885
 30
0.0
 10
455.7793790192865
 20
514.6870821423533
 30
0.0
 10
456.7253217551101
 20
514.7082114545008
 30
0.0
 10
457.865035907389
 20
514.6794745898662
 30
0.0
 10
459.006862872284
 20
514.6063819405476
 30
0.0
 10
459.9575985770629
 20
514.5003499418762
 30
0.0
 10
460.5578430179893
 20
514.3949613945
 30
0.0
 10
460.6384378749777
 20
514.3354913393571
 30
0.0
 10
460.6663035331509
 20
514.3149295778493
 30
0.0
  0
LWPOLYLINE
  5
AA
330
1F
100
AcDbEntity
  8
0
  6
Continuous
 62
     7
370
    25
100
AcDbPolyline
 90
        3
 70
   128
 43
0.0
 10
454.9709172384
 20
512.8618215285
 10
454.9709115683
 20
513.7897926667
 10
454.9709172384
 20
514.5195174524
  0
LINE
  5
AB
330
1F
100
AcDbEntity
  8
0
  6
Continuous
 62
     7
370
    25
100
AcDbLine
 10
460.770922994
 20
512.6015113969
 30
0.0
 11
460.6645429034
 21
512.5549857045
 31
0.0
  0
SPLINE
  5
AC
330
1F
100
AcDbEntity
  8
0
  6
Continuous
 62
     7
370
    25
100
AcDbSpline
210
0.0
220
0.0
230
1.0
 70
     8
 71
     3
 72
    13
 73
     9
 74
     0
 42
0.00000001
 43
0.00000001
 40
0.0
 40
0.0
 40
0.0
 40
0.0
 40
0.1663934120476458
 40
0.3323034930944488
 40
0.4982960332447692
 40
0.6648665737544259
 40
0.8321819572302935
 40
1.0
 40
1.0
 40
1.0
 40
1.0
 10
460.5497398880061
 20
512.5047762174877
 30
0.0
 10
460.3645404229241
 20
512.4812776263072
 30
0.0
 10
459.9946794506139
 20
512.4343487014416
 30
0.0
 10
459.0086493472136
 20
512.418542698303
 30
0.0
 10
457.8769542312328
 20
512.4474833878256
 30
0.0
 10
456.7430238099881
 20
512.5198242477344
 30
0.0
 10
455.7521285258836
 20
512.6242029072532
 30
0.0
 10
455.3795558408708
 20
512.7046972344675
 30
0.0
 10
455.192990091555
 20
512.7450047639148
 30
0.0
  0
LINE
  5
AD
330
1F
100
AcDbEntity
  8
0
  6
Continuous
 62
     7
370
    25
100
AcDbLine
 10
455.0756393698
 20
512.8067346487
 30
0.0
 11
454.9709172384
 21
512.8618215285
 31
0.0
  0
LINE
  5
AE
330
1F
100
AcDbEntity
  8
0
  6
Continuous
 62
     7
370
    25
100
AcDbLine
 10
275.5643362933
 20
501.4955449933
 30
0.0
 11
282.4613685488
 21
491.3883135481
 31
0.0
  0
SPLINE
  5
AF
330
1F
100
AcDbEntity
  8
0
  6
Continuous
 62
     7
370
    25
100
AcDbSpline
210
0.0
220
0.0
230
1.0
 70
     8
 71
     3
 72
    12
 73
     8
 74
     0
 42
0.00000001
 43
0.00000001
 40
0.0
 40
0.0
 40
0.0
 40
0.0
 40
0.1866869925589391
 40
0.3733768754455202
 40
0.560063567630973
 40
0.7800699511028049
 40
1.0
 40
1.0
 40
1.0
 40
1.0
 10
316.9823747609251
 20
502.9724759829816
 30
0.0
 10
314.6940782727976
 20
502.7919903230249
 30
0.0
 10
310.1174498686506
 20
502.4310162087942
 30
0.0
 10
303.3663209271533
 20
501.0048053302463
 30
0.0
 10
296.4083860542648
 20
498.8098207953217
 30
0.0
 10
289.3224899181698
 20
495.7238793934282
 30
0.0
 10
284.7481444362112
 20
492.833334981106
 30
0.0
 10
282.4613685488351
 20
491.3883135480816
 30
0.0
  0
SPLINE
  5
B0
330
1F
100
AcDbEntity
  8
0
  6
Continuous
 62
     7
370
    25
100
AcDbSpline
210
0.0
220
0.0
230
1.0
 70
     8
 71
     3
 72
    56
 73
    52
 74
     0
 42
0.00000001
 43
0.00000001
 40
0.0
 40
0.0
 40
0.0
 40
0.0
 40
0.0197752546089511
 40
0.0406071989639282
 40
0.0624959908625437
 40
0.0818370084898194
 40
0.102669435424269
 40
0.1249934566982005
 40
0.1423827478697737
 40
0.1601441390649736
 40
0.178277685758556
 40
0.1964105515465493
 40
0.2142642198540183
 40
0.2321187369970718
 40
0.2499741013138457
 40
0.270522571867958
 40
0.2901733463247938
 40
0.3089262515056152
 40
0.3267811229099095
 40
0.3437378047206182
 40
0.3597961498106126
 40
0.3749560197508619
 40
0.3855441805313369
 40
0.3960301810399406
 40
0.4064140106164404
 40
0.4166956587619659
 40
0.4268751151391361
 40
0.4369523695721972
 40
0.4469274120471654
 40
0.4738271137761004
 40
0.4999539468103946
 40
0.5213700607109426
 40
0.5425538575620688
 40
0.5635052747621744
 40
0.584224251197139
 40
0.6047107272432365
 40
0.6249646447702181
 40
0.6503456214931262
 40
0.6755376243447018
 40
0.7005405688435787
 40
0.7253543722694386
 40
0.7499789536663041
 40
0.7752746899199829
 40
0.8005056229128455
 40
0.8256716802952313
 40
0.8507727903399097
 40
0.8758088819426318
 40
0.90700950933875
 40
0.9381083278488556
 40
0.9691052025383347
 40
0.9999999999999999
 40
0.9999999999999999
 40
0.9999999999999999
 40
0.9999999999999999
 10
282.4613685351891
 20
491.3883135680791
 30
0.0
 10
279.8230025244293
 20
489.5343479030578
 30
0.0
 10
274.405289546408
 20
485.7273500099569
 30
0.0
 10
266.4623517198449
 20
479.3350551017185
 30
0.0
 10
258.9079791453945
 20
472.5979703477377
 30
0.0
 10
251.7242552887354
 20
465.4668956878862
 30
0.0
 10
244.8643135755899
 20
457.9272565883343
 30
0.0
 10
238.6292296046228
 20
450.2681025341159
 30
0.0
 10
233.0864150459959
 20
442.7099377875451
 30
0.0
 10
228.2658962284328
 20
435.4798641910309
 30
0.0
 10
223.7177673310313
 20
427.9333917369013
 30
0.0
 10
219.5152871418747
 20
420.1719826147543
 30
0.0
 10
215.6922773912923
 20
412.26745019049
 30
0.0
 10
212.2499645375831
 20
404.2390265562681
 30
0.0
 10
209.0211254948656
 20
395.6513307707879
 30
0.0
 10
206.1255226473184
 20
386.6360775575171
 30
0.0
 10
203.6570836405793
 20
377.3436298443775
 30
0.0
 10
201.7373209071192
 20
368.3716014251635
 30
0.0
 10
200.3091536130728
 20
359.7537100974824
 30
0.0
 10
199.3164671759891
 20
351.5175838501457
 30
0.0
 10
198.7046610114895
 20
343.6854764598927
 30
0.0
 10
198.443975777621
 20
336.8731201406167
 30
0.0
 10
198.4114938882341
 20
330.9654083988663
 30
0.0
 10
198.5207596650399
 20
325.8374326458777
 30
0.0
 10
198.7636943377053
 20
320.7641049291995
 30
0.0
 10
199.1361708036883
 20
315.7487557068706
 30
0.0
 10
199.6340175939486
 20
310.7945537833692
 30
0.0
 10
200.2530527002533
 20
305.9043664713275
 30
0.0
 10
201.4077281847129
 20
298.33687523089
 30
0.0
 10
203.4330610214442
 20
288.2583764911842
 30
0.0
 10
206.6230811077185
 20
276.5395905713307
 30
0.0
 10
210.215662512108
 20
265.9209644303483
 30
0.0
 10
214.0645757407919
 20
256.2961949170437
 30
0.0
 10
218.3756184513668
 20
246.9946743086438
 30
0.0
 10
223.1200333805856
 20
238.0351584055587
 30
0.0
 10
228.2687913029022
 20
229.4340739612858
 30
0.0
 10
234.2796482004269
 20
220.4801273530489
 30
0.0
 10
241.2658533321365
 20
211.2757908983648
 30
0.0
 10
249.3360180464589
 20
201.9541287172064
 30
0.0
 10
257.9194629946247
 20
193.2321736362215
 30
0.0
 10
266.9688116485861
 20
185.1329335708062
 30
0.0
 10
276.5465343025217
 20
177.5887644439577
 30
0.0
 10
286.6400377076102
 20
170.628441106875
 30
0.0
 10
297.2353574956243
 20
164.2851974783849
 30
0.0
 10
308.1868830773145
 20
158.6481378944885
 30
0.0
 10
319.4470848777312
 20
153.7345019886912
 30
0.0
 10
331.9225171435647
 20
149.2141642186389
 30
0.0
 10
345.6365930856126
 20
145.3224900150878
 30
0.0
 10
360.5685475278059
 20
142.3611782182955
 30
0.0
 10
375.6395385241221
 20
140.5069982721321
 30
0.0
 10
385.7326750008257
 20
140.2778851219684
 30
0.0
 10
390.7709199918352
 20
140.163517483737
 30
0.0
  0
SPLINE
  5
B1
330
1F
100
AcDbEntity
  8
0
  6
Continuous
 62
     7
370
    25
100
AcDbSpline
210
0.0
220
0.0
230
1.0
 70
     8
 71
     3
 72
    55
 73
    51
 74
     0
 42
0.00000001
 43
0.00000001
 40
0.0
 40
0.0
 40
0.0
 40
0.0
 40
0.0309375621468368
 40
0.0619716597201395
 40
0.0931021590869892
 40
0.1243289251679316
 40
0.1556518214386061
 40
0.1870707099313494
 40
0.218585451236776
 40
0.2500161936671014
 40
0.2808248265926818
 40
0.3119288096441509
 40
0.3433279818674286
 40
0.3750221779943695
 40
0.399354477144856
 40
0.424021530332714
 40
0.4490232349774892
 40
0.4743594853871391
 40
0.5000301727655199
 40
0.5197544136265738
 40
0.5399223145346408
 40
0.5605337856857784
 40
0.5815887341111695
 40
0.6030870636837177
 40
0.6250286751239881
 40
0.6412129397109652
 40
0.6579543059460258
 40
0.6752526861332719
 40
0.693107989045298
 40
0.7115201199263994
 40
0.7304889804953393
 40
0.7500144689477469
 40
0.7640140248186837
 40
0.7780130560027408
 40
0.7920115626558193
 40
0.8060095449338199
 40
0.8213773815481347
 40
0.8414834279526086
 40
0.859357805473988
 40
0.8750006926789801
 40
0.8845599207583743
 40
0.8938558868941898
 40
0.9028886107060438
 40
0.9116581111703707
 40
0.9201644066210731
 40
0.9284075147502795
 40
0.9363874526092254
 40
0.9455088258290686
 40
0.9736748845001924
 40
1.0
 40
1.0
 40
1.0
 40
1.0
 10
390.7709199918353
 20
140.1635174837371
 30
0.0
 10
395.8160019072361
 20
140.2781957455869
 30
0.0
 10
405.9219080622696
 20
140.5079101033933
 30
0.0
 10
421.0102941673396
 20
142.3666340619943
 30
0.0
 10
435.9565014042665
 20
145.3345208776135
 30
0.0
 10
450.6646284609171
 20
149.5129875330517
 30
0.0
 10
465.0388217225723
 20
154.8571206122584
 30
0.0
 10
478.9839180070576
 20
161.3514445264212
 30
0.0
 10
492.3805787760219
 20
168.9480998391641
 30
0.0
 10
505.0443898973433
 20
177.5358670323044
 30
0.0
 10
516.9365622752451
 20
187.0556071946825
 30
0.0
 10
528.0396544772009
 20
197.4780088908427
 30
0.0
 10
538.3772965427462
 20
208.8560799776913
 30
0.0
 10
547.095034355469
 20
220.152227464017
 30
0.0
 10
554.3748955358454
 20
231.1190832206458
 30
0.0
 10
560.4121556449101
 20
241.5732007603571
 30
0.0
 10
565.8502426284045
 20
252.5343641709907
 30
0.0
 10
570.6392386795181
 20
263.9720841130588
 30
0.0
 10
574.3965125960895
 20
274.8827840098712
 30
0.0
 10
577.2888503276803
 20
285.1767435677279
 30
0.0
 10
579.4729409980839
 20
294.799955083176
 30
0.0
 10
581.1922160115951
 20
304.7373943791511
 30
0.0
 10
582.4083408847819
 20
314.9676537992624
 30
0.0
 10
583.0831944309097
 20
325.4653131952434
 30
0.0
 10
583.1701564775385
 20
335.1903427954595
 30
0.0
 10
582.8163824323914
 20
344.130292455871
 30
0.0
 10
582.1502189278983
 20
352.2933109342092
 30
0.0
 10
581.097445815781
 20
360.6903337935854
 30
0.0
 10
579.6244175427184
 20
369.3006476659673
 30
0.0
 10
577.6975717327267
 20
378.1001796589379
 30
0.0
 10
575.2837822649168
 20
387.0613096013263
 30
0.0
 10
572.6550501814324
 20
395.2090969786341
 30
0.0
 10
569.9635373226273
 20
402.475598226282
 30
0.0
 10
567.3578931437621
 20
408.8083960848955
 30
0.0
 10
564.5285492877375
 20
415.0441399929136
 30
0.0
 10
561.379582880511
 20
421.3750453286127
 30
0.0
 10
557.5197799287945
 20
428.4586301477763
 30
0.0
 10
553.0162181665866
 20
435.9033702156721
 30
0.0
 10
548.1339385942507
 20
443.1582168240499
 30
0.0
 10
543.9673295505448
 20
448.8133882317682
 30
0.0
 10
540.4876996288142
 20
453.2322665130207
 30
0.0
 10
537.5899291737236
 20
456.7359985439006
 30
0.0
 10
534.695648765176
 20
460.0739310191444
 30
0.0
 10
531.8130653138414
 20
463.2501230988586
 30
0.0
 10
528.9500242695118
 20
466.2688424471942
 30
0.0
 10
526.1138036504217
 20
469.1342365749879
 30
0.0
 10
523.1474299658162
 20
472.0108735576368
 30
0.0
 10
517.7361822317782
 20
477.0283217128709
 30
0.0
 10
509.8278842526562
 20
483.759763886085
 30
0.0
 10
502.5813366455795
 20
488.9033877189256
 30
0.0
 10
499.0804724114423
 20
491.388312911808
 30
0.0
  0
SPLINE
  5
B2
330
1F
100
AcDbEntity
  8
0
  6
Continuous
 62
     7
370
    25
100
AcDbSpline
210
0.0
220
0.0
230
1.0
 70
     8
 71
     3
 72
     9
 73
     5
 74
     0
 42
0.00000001
 43
0.00000001
 40
0.0
 40
0.0
 40
0.0
 40
0.0
 40
0.5599999244435045
 40
1.0
 40
1.0
 40
1.0
 40
1.0
 10
444.6960124380251
 20
513.9649718394816
 30
0.0
 10
444.6913250237527
 20
513.8350095767577
 30
0.0
 10
444.6829546399941
 20
513.6029340762956
 30
0.0
 10
444.6745956405306
 20
513.3707201762478
 30
0.0
 10
444.6709176801351
 20
513.2685460426816
 30
0.0
  0
LINE
  5
B3
330
1F
100
AcDbEntity
  8
0
  6
Continuous
 62
     7
370
    25
100
AcDbLine
 10
444.6960079375
 20
513.9649720002
 30
0.0
 11
444.6960079374
 21
514.9370231745
 31
0.0
  0
SPLINE
  5
B4
330
1F
100
AcDbEntity
  8
0
  6
Continuous
 62
     7
370
    25
100
AcDbSpline
210
0.0
220
0.0
230
1.0
 70
     8
 71
     3
 72
     9
 73
     5
 74
     0
 42
0.00000001
 43
0.00000001
 40
0.0
 40
0.0
 40
0.0
 40
0.0
 40
0.5599999297922917
 40
1.0
 40
1.0
 40
1.0
 40
1.0
 10
455.0008075014151
 20
513.5580544488815
 30
0.0
 10
454.9952243344039
 20
513.4281269229319
 30
0.0
 10
454.9852543920625
 20
513.1961134546485
 30
0.0
 10
454.9752980358275
 20
512.9639662950176
 30
0.0
 10
454.9709172383851
 20
512.8618215284816
 30
0.0
  0
LINE
  5
B5
330
1F
100
AcDbEntity
  8
0
  6
Continuous
 62
     7
370
    25
100
AcDbLine
 10
455.0008021089
 20
513.5580546783
 30
0.0
 11
455.0008021089
 21
514.5326975555
 31
0.0
  0
SPLINE
  5
B6
330
1F
100
AcDbEntity
  8
0
  6
Continuous
 62
     7
370
    25
100
AcDbSpline
210
0.0
220
0.0
230
1.0
 70
     8
 71
     3
 72
     9
 73
     5
 74
     0
 42
0.00000001
 43
0.00000001
 40
0.0
 40
0.0
 40
0.0
 40
0.0
 40
0.5599999062701447
 40
1.0
 40
1.0
 40
1.0
 40
1.0
 10
410.7802298446351
 20
514.8026644058816
 30
0.0
 10
410.7784909623676
 20
514.6726313433427
 30
0.0
 10
410.7753858149415
 20
514.4404294070873
 30
0.0
 10
410.7722839534237
 20
514.2080740606102
 30
0.0
 10
410.7709191340651
 20
514.1058376863816
 30
0.0
  0
LWPOLYLINE
  5
B7
330
1F
100
AcDbEntity
  8
0
  6
Continuous
 62
     7
370
    25
100
AcDbPolyline
 90
        3
 70
   128
 43
0.0
 10
410.7802298446
 20
514.8026644059
 10
410.7802262408
 20
515.73007175
 10
410.7802261152
 20
515.7665279669
  0
SPLINE
  5
B8
330
1F
100
AcDbEntity
  8
0
  6
Continuous
 62
     7
370
    25
100
AcDbSpline
210
0.0
220
0.0
230
1.0
 70
     8
 71
     3
 72
     9
 73
     5
 74
     0
 42
0.00000001
 43
0.00000001
 40
0.0
 40
0.0
 40
0.0
 40
0.0
 40
0.5599999118816739
 40
1.0
 40
1.0
 40
1.0
 40
1.0
 10
421.0850244622051
 20
514.6294628432815
 30
0.0
 10
421.0823900360385
 20
514.4994442258661
 30
0.0
 10
421.0776857028579
 20
514.2672680868046
 30
0.0
 10
421.0729863902616
 20
514.0349430416999
 30
0.0
 10
421.0709186923051
 20
513.9327200013815
 30
0.0
  0
LWPOLYLINE
  5
B9
330
1F
100
AcDbEntity
  8
0
  6
Continuous
 62
     7
370
    25
100
AcDbPolyline
 90
        3
 70
   128
 43
0.0
 10
421.0850244622
 20
514.6294628433
 10
421.0850241883
 20
515.556639158
 10
421.0850237083
 20
515.5957602695
  0
SPLINE
  5
BA
330
1F
100
AcDbEntity
  8
0
  6
Continuous
 62
     7
370
    25
100
AcDbSpline
210
0.0
220
0.0
230
1.0
 70
     8
 71
     3
 72
    14
 73
    10
 74
     0
 42
0.00000001
 43
0.00000001
 40
0.0
 40
0.0
 40
0.0
 40
0.0
 40
0.1528387665643816
 40
0.3052603422862049
 40
0.457776844534897
 40
0.610824634225778
 40
0.7645376832530016
 40
0.9186850742813716
 40
1.0
 40
1.0
 40
1.0
 40
1.0
 10
460.5826574580811
 20
513.2008750218467
 30
0.0
 10
460.3974784231912
 20
513.1773614327599
 30
0.0
 10
460.0276258207044
 20
513.130398437609
 30
0.0
 10
459.040234512396
 20
513.1145970461426
 30
0.0
 10
457.9107154043092
 20
513.1435190963351
 30
0.0
 10
456.7650875576643
 20
513.2160277198508
 30
0.0
 10
455.8145287515321
 20
513.319958559617
 30
0.0
 10
455.2138552337228
 20
513.4233320916314
 30
0.0
 10
455.1334027949347
 20
513.4824507534069
 30
0.0
 10
455.1056192235577
 20
513.5028668847744
 30
0.0
  0
SPLINE
  5
BB
330
1F
100
AcDbEntity
  8
0
  6
Continuous
 62
     7
370
    25
100
AcDbSpline
210
0.0
220
0.0
230
1.0
 70
     8
 71
     3
 72
    14
 73
    10
 74
     0
 42
0.00000001
 43
0.00000001
 40
0.0
 40
0.0
 40
0.0
 40
0.0
 40
0.1529877964169733
 40
0.3055217626527585
 40
0.4580676421221632
 40
0.6110629918516622
 40
0.7646897539762983
 40
0.9187851570056196
 40
1.0
 40
1.0
 40
1.0
 40
1.0
 10
450.2777160818491
 20
513.6463081371533
 30
0.0
 10
450.0924026673936
 20
513.621521113136
 30
0.0
 10
449.7223255608948
 20
513.5720205944931
 30
0.0
 10
448.7345584728112
 20
513.5494557431291
 30
0.0
 10
447.6049586134455
 20
513.5706292558386
 30
0.0
 10
446.4595971416414
 20
513.6352455462553
 30
0.0
 10
445.5094181502059
 20
513.7325894681926
 30
0.0
 10
444.9091159714338
 20
513.8317489851952
 30
0.0
 10
444.8287289165758
 20
513.8902450319259
 30
0.0
 10
444.8009841746897
 20
513.9104343238557
 30
0.0
  0
SPLINE
  5
BC
330
1F
100
AcDbEntity
  8
0
  6
Continuous
 62
     7
370
    25
100
AcDbSpline
210
0.0
220
0.0
230
1.0
 70
     8
 71
     3
 72
    15
 73
    11
 74
     0
 42
0.00000001
 43
0.00000001
 40
0.0
 40
0.0
 40
0.0
 40
0.0
 40
0.0741450066414649
 40
0.2160896970377363
 40
0.3575567997146026
 40
0.4988732494230083
 40
0.6404327226049336
 40
0.7824908737896102
 40
0.9250348903859043
 40
1.0
 40
1.0
 40
1.0
 40
1.0
 10
426.781588262473
 20
514.451900461613
 30
0.0
 10
426.7542228069615
 20
514.4336436923144
 30
0.0
 10
426.6744683736066
 20
514.3804357970649
 30
0.0
 10
426.0779021384179
 20
514.3176343762739
 30
0.0
 10
425.1302567209387
 20
514.2773309210921
 30
0.0
 10
423.9894536440999
 20
514.2813576814738
 30
0.0
 10
422.8475850546422
 20
514.3277733705471
 30
0.0
 10
421.8974796171972
 20
514.410120722855
 30
0.0
 10
421.2982471351987
 20
514.4996592963456
 30
0.0
 10
421.2180004708544
 20
514.5567434193475
 30
0.0
 10
421.1903432405876
 20
514.5764176169898
 30
0.0
  0
SPLINE
  5
BD
330
1F
100
AcDbEntity
  8
0
  6
Continuous
 62
     7
370
    25
100
AcDbSpline
210
0.0
220
0.0
230
1.0
 70
     8
 71
     3
 72
    15
 73
    11
 74
     0
 42
0.00000001
 43
0.00000001
 40
0.0
 40
0.0
 40
0.0
 40
0.0
 40
0.0742822923725001
 40
0.2163299241196786
 40
0.3578838808809189
 40
0.4992229090699458
 40
0.6407295082653311
 40
0.7826910433355511
 40
0.9251520117016577
 40
1.0
 40
1.0
 40
1.0
 40
1.0
 10
416.4769056222226
 20
514.6643967238297
 30
0.0
 10
416.4494919665166
 20
514.6459231526172
 30
0.0
 10
416.3696560612244
 20
514.5921231670355
 30
0.0
 10
415.7726565455984
 20
514.5251995212059
 30
0.0
 10
414.8246286348495
 20
514.478397411763
 30
0.0
 10
413.6837033489642
 20
514.4746072308088
 30
0.0
 10
412.5420432912234
 20
514.5131847677932
 30
0.0
 10
411.5923188814605
 20
514.5889833198821
 30
0.0
 10
410.9934805635467
 20
514.6743473667142
 30
0.0
 10
410.9133050793092
 20
514.7308208030732
 30
0.0
 10
410.8856901397405
 20
514.7502720174577
 30
0.0
  0
LWPOLYLINE
  5
BE
330
1F
100
AcDbEntity
  8
0
  6
Continuous
 62
     7
370
    25
100
AcDbPolyline
 90
       18
 70
   128
 43
0.0
 10
282.4613938592
 20
491.3883307374
 10
282.7489418877
 20
490.8764100503
 10
283.2361485834
 20
490.0725528855
 10
283.9195105155
 20
488.9825396601
 10
284.79411373
 20
487.6142084967
 10
285.8536690857
 20
485.9773988611
 10
287.0905574776
 20
484.0838808074
 10
288.4958846257
 20
481.947270342
 10
290.0595450317
 20
479.5829315126
 10
291.7702946465
 20
477.0078659274
 10
293.6158317244
 20
474.2405904996
 10
295.5828852833
 20
471.3010042946
 10
297.6573105339
 20
468.210245439
 10
299.8241905932
 20
464.9905391194
 10
302.0679437495
 20
461.6650377642
 10
304.372435508
 20
458.2576545586
 10
306.7210946117
 20
454.7928914876
 10
309.0970322029
 20
451.2956631463
  0
SPLINE
  5
BF
330
1F
100
AcDbEntity
  8
0
  6
Continuous
 62
     7
370
    25
100
AcDbSpline
210
0.0
220
0.0
230
1.0
 70
     8
 71
     3
 72
    35
 73
    31
 74
     0
 42
0.00000001
 43
0.00000001
 40
0.0
 40
0.0
 40
0.0
 40
0.0
 40
0.0358784245361858
 40
0.0717242888149452
 40
0.1075426962242726
 40
0.143331806559559
 40
0.1790969230440394
 40
0.2148435924325048
 40
0.2505755252062377
 40
0.2862951649752289
 40
0.3220044571414485
 40
0.3577052419512003
 40
0.3933993148411173
 40
0.4290887684588938
 40
0.4647764423334612
 40
0.5004664444598638
 40
0.5361574229745371
 40
0.5718409076712327
 40
0.6075184373805115
 40
0.6431945673994879
 40
0.6788748157923867
 40
0.7145602012067714
 40
0.7502409671245408
 40
0.7859159350221638
 40
0.8215931806328299
 40
0.8572783839621532
 40
0.8929616600028327
 40
0.9286378016809205
 40
0.9643145284649114
 40
1.0
 40
1.0
 40
1.0
 40
1.0
 10
309.0970322024451
 20
451.2956631460816
 30
0.0
 10
305.5556459602255
 20
448.7161562412376
 30
0.0
 10
298.4760873417571
 20
443.55948337628
 30
0.0
 10
288.8065275703498
 20
434.646684301488
 30
0.0
 10
279.9387435271562
 20
424.9689758656812
 30
0.0
 10
272.0045728082262
 20
414.5176990983252
 30
0.0
 10
265.0502196220634
 20
403.4031883188321
 30
0.0
 10
259.1347250978882
 20
391.709763667417
 30
0.0
 10
254.3036250815146
 20
379.5344468722033
 30
0.0
 10
250.5955710260819
 20
366.9761477110131
 30
0.0
 10
248.0399173124623
 20
354.1375327007656
 30
0.0
 10
246.6568865966566
 20
341.1233685041135
 30
0.0
 10
246.4572380958223
 20
328.0398023233981
 30
0.0
 10
247.4422579678079
 20
314.9933658799961
 30
0.0
 10
249.6038471767301
 20
302.0900078054169
 30
0.0
 10
252.9245087487628
 20
289.4349783370673
 30
0.0
 10
257.3769154317001
 20
277.1328703528733
 30
0.0
 10
262.923999118284
 20
265.2855845415572
 30
0.0
 10
269.5197034022089
 20
253.9904558422836
 30
0.0
 10
277.1103398167121
 20
243.3388096595306
 30
0.0
 10
285.6345237077524
 20
233.4170499154794
 30
0.0
 10
295.022288648231
 20
224.307167864403
 30
0.0
 10
305.195660359255
 20
216.0847496058263
 30
0.0
 10
316.070672481937
 20
208.8174444188174
 30
0.0
 10
327.5592845811414
 20
202.5634097807347
 30
0.0
 10
339.5677535041826
 20
197.3760844446719
 30
0.0
 10
351.9965140387957
 20
193.2910026793402
 30
0.0
 10
364.7425666660989
 20
190.3705635831929
 30
0.0
 10
377.7025263222263
 20
188.5305329299032
 30
0.0
 10
386.414432915176
 20
188.3024220056221
 30
0.0
 10
390.7709199918352
 20
188.1883525670816
 30
0.0
  0
SPLINE
  5
C0
330
1F
100
AcDbEntity
  8
0
  6
Continuous
 62
     7
370
    25
100
AcDbSpline
210
0.0
220
0.0
230
1.0
 70
     8
 71
     3
 72
    35
 73
    31
 74
     0
 42
0.00000001
 43
0.00000001
 40
0.0
 40
0.0
 40
0.0
 40
0.0
 40
0.0356855068293094
 40
0.0713621389633747
 40
0.1070383374896247
 40
0.1427218278488528
 40
0.1784070178855519
 40
0.2140841514539626
 40
0.2497591446138929
 40
0.2854400764950396
 40
0.3211254645169257
 40
0.3568055458699108
 40
0.3924816234606672
 40
0.4281592181425243
 40
0.4638428677111676
 40
0.4995338448347236
 40
0.5352236343225166
 40
0.5709111805133575
 40
0.6066005728551511
 40
0.6422946366207255
 40
0.6779954471948334
 40
0.7137047858142389
 40
0.7494244801076253
 40
0.7851564582530208
 40
0.8209031429369745
 40
0.8566682268432946
 40
0.8924572399637727
 40
0.9282756276783017
 40
0.9641215586452244
 40
1.0
 40
1.0
 40
1.0
 40
1.0
 10
390.7709199918352
 20
188.1883525670816
 30
0.0
 10
395.1274113874943
 20
188.3024221703038
 30
0.0
 10
403.8393107548428
 20
188.5305330085658
 30
0.0
 10
416.7992700028568
 20
190.3705633980063
 30
0.0
 10
429.5453440056288
 20
193.2910059718061
 30
0.0
 10
441.9741336166089
 20
197.3761010534928
 30
0.0
 10
453.982609769453
 20
202.5634369858713
 30
0.0
 10
465.4712088157784
 20
208.8174697750937
 30
0.0
 10
476.3462270751149
 20
216.0847832418818
 30
0.0
 10
486.519613291252
 20
224.307221521944
 30
0.0
 10
495.9073719095744
 20
233.4171103730116
 30
0.0
 10
504.4315332950622
 20
243.3388542573999
 30
0.0
 10
512.0221566560238
 20
253.9904864917114
 30
0.0
 10
518.6178693185243
 20
265.2856354943326
 30
0.0
 10
524.1649584058608
 20
277.1329498016398
 30
0.0
 10
528.6173540183843
 20
289.4350554005625
 30
0.0
 10
531.9379989677122
 20
302.090045825905
 30
0.0
 10
534.0995794593748
 20
314.9933554761213
 30
0.0
 10
535.0846003352472
 20
328.0397674990003
 30
0.0
 10
534.8849560576248
 20
341.1233282835167
 30
0.0
 10
533.5019281970954
 20
354.1375005707753
 30
0.0
 10
530.9462737112822
 20
366.9761312703275
 30
0.0
 10
527.2382151542672
 20
379.5344478055798
 30
0.0
 10
522.4071090051052
 20
391.7097773588069
 30
0.0
 10
516.4916111730863
 20
403.4032042016929
 30
0.0
 10
509.5372639938223
 20
414.5177022002138
 30
0.0
 10
501.6031048587924
 20
424.9689646872599
 30
0.0
 10
492.7353268057066
 20
434.6466702591134
 30
0.0
 10
483.0657624562639
 20
443.5594760308749
 30
0.0
 10
475.9861956540909
 20
448.716154987893
 30
0.0
 10
472.4448077812251
 20
451.2956631460816
 30
0.0
  0
LWPOLYLINE
  5
C1
330
1F
100
AcDbEntity
  8
0
  6
Continuous
 62
     7
370
    25
100
AcDbPolyline
 90
       18
 70
   128
 43
0.0
 10
499.0804461272
 20
491.3883307456
 10
498.7928980986
 20
490.8764100581
 10
498.3056914027
 20
490.0725528927
 10
497.6223294705
 20
488.9825396667
 10
496.7477262557
 20
487.6142085027
 10
495.6881708999
 20
485.9773988665
 10
494.4512825078
 20
484.0838808122
 10
493.0459553596
 20
481.9472703462
 10
491.4822949535
 20
479.5829315162
 10
489.7715453386
 20
477.0078659304
 10
487.9260082605
 20
474.2405905021
 10
485.9589547016
 20
471.3010042965
 10
483.8845294509
 20
468.2102454404
 10
481.7176493915
 20
464.9905391202
 10
479.4738962352
 20
461.6650377647
 10
477.1694044767
 20
458.2576545586
 10
474.820745373
 20
454.7928914872
 10
472.4448077819
 20
451.2956631457
  0
SPLINE
  5
C2
330
1F
100
AcDbEntity
  8
0
  6
Continuous
 62
     7
370
    25
100
AcDbSpline
210
0.0
220
0.0
230
1.0
 70
     8
 71
     3
 72
    10
 73
     6
 74
     0
 42
0.00000001
 43
0.00000001
 40
0.0
 40
0.0
 40
0.0
 40
0.0
 40
0.28085014877847
 40
0.561255115899353
 40
1.0
 40
1.0
 40
1.0
 40
1.0
 10
472.4448077812251
 20
451.2956631460816
 30
0.0
 10
471.6775277727894
 20
451.7737909039541
 30
0.0
 10
470.1441839880884
 20
452.7292885290279
 30
0.0
 10
467.1283585575696
 20
453.9223112592234
 30
0.0
 10
464.8250312995968
 20
454.2151650577866
 30
0.0
 10
463.4197983719552
 20
454.3938317232816
 30
0.0
  0
LWPOLYLINE
  5
C3
330
1F
100
AcDbEntity
  8
0
  6
Continuous
 62
     7
370
    25
100
AcDbPolyline
 90
       18
 70
   128
 43
0.0
 10
464.5594786786
 20
502.9724753592
 10
464.6393160366
 20
502.3782273998
 10
464.7005940855
 20
501.4264211192
 10
464.7428667133
 20
500.1239857934
 10
464.7658261694
 20
498.4804033243
 10
464.7693053061
 20
496.5076392102
 10
464.7532787947
 20
494.2200554355
 10
464.7178633104
 20
491.6343059135
 10
464.6633166827
 20
488.7692152437
 10
464.5900360181
 20
485.6456416661
 10
464.4985548096
 20
482.2863252106
 10
464.3895390526
 20
478.7157221465
 10
464.2637823963
 20
474.9598269378
 10
464.1222003657
 20
471.0459829996
 10
463.9658236969
 20
467.002683635
 10
463.7957908327
 20
462.8593645994
 10
463.613339635
 20
458.6461898051
 10
463.4197983726
 20
454.3938317233
  0
LWPOLYLINE
  5
C4
330
1F
100
AcDbEntity
  8
0
  6
Continuous
 62
     7
370
    25
100
AcDbPolyline
 90
       18
 70
   128
 43
0.0
 10
316.9823613065
 20
502.9724753125
 10
316.9025239486
 20
502.3782273547
 10
316.8412458996
 20
501.426421076
 10
316.7989732718
 20
500.1239857524
 10
316.7760138156
 20
498.4804032857
 10
316.7725346789
 20
496.5076391743
 10
316.7885611902
 20
494.2200554025
 10
316.8239766744
 20
491.6343058836
 10
316.8785233021
 20
488.7692152169
 10
316.9518039667
 20
485.6456416425
 10
317.043285175
 20
482.2863251904
 10
317.1523009319
 20
478.7157221296
 10
317.2780575881
 20
474.9598269241
 10
317.4196396186
 20
471.0459829891
 10
317.5760162873
 20
467.0026836274
 10
317.7460491513
 20
462.8593645946
 10
317.928500349
 20
458.6461898028
 10
318.1220416113
 20
454.3938317232
  0
SPLINE
  5
C5
330
1F
100
AcDbEntity
  8
0
  6
Continuous
 62
     7
370
    25
100
AcDbSpline
210
0.0
220
0.0
230
1.0
 70
     8
 71
     3
 72
    10
 73
     6
 74
     0
 42
0.00000001
 43
0.00000001
 40
0.0
 40
0.0
 40
0.0
 40
0.0
 40
0.2794092296355731
 40
0.5594723479055648
 40
1.0
 40
1.0
 40
1.0
 40
1.0
 10
318.1220416117151
 20
454.3938317232816
 30
0.0
 10
317.2275288440708
 20
454.3014070595906
 30
0.0
 10
315.4364099214848
 20
454.1163414349975
 30
0.0
 10
312.3241149543339
 20
453.2045259150296
 30
0.0
 10
310.3213855158595
 20
452.0198845670064
 30
0.0
 10
309.0970322024451
 20
451.2956631460816
 30
0.0
  0
SPLINE
  5
C6
330
1F
100
AcDbEntity
  8
0
  6
Continuous
 62
     7
370
    25
100
AcDbSpline
210
0.0
220
0.0
230
1.0
 70
     8
 71
     3
 72
    13
 73
     9
 74
     0
 42
0.00000001
 43
0.00000001
 40
0.0
 40
0.0
 40
0.0
 40
0.0
 40
0.1749979421212955
 40
0.3502774068438219
 40
0.5288720211027694
 40
0.6752328034851578
 40
0.8308383605273916
 40
1.0
 40
1.0
 40
1.0
 40
1.0
 10
390.7709199918351
 20
456.6740559167816
 30
0.0
 10
386.5298701157278
 20
456.6577684902668
 30
0.0
 10
378.0409477038943
 20
456.6251674353369
 30
0.0
 10
365.2264949270167
 20
456.3696318721777
 30
0.0
 10
353.1100117366111
 20
456.008394348441
 30
0.0
 10
341.4744417302622
 20
455.5586823894084
 30
0.0
 10
330.0709944671664
 20
455.0433679556432
 30
0.0
 10
322.2143405579147
 20
454.6162860647931
 30
0.0
 10
318.1220416117151
 20
454.3938317232816
 30
0.0
  0
SPLINE
  5
C7
330
1F
100
AcDbEntity
  8
0
  6
Continuous
 62
     7
370
    25
100
AcDbSpline
210
0.0
220
0.0
230
1.0
 70
     8
 71
     3
 72
    13
 73
     9
 74
     0
 42
0.00000001
 43
0.00000001
 40
0.0
 40
0.0
 40
0.0
 40
0.0
 40
0.1618043811060497
 40
0.3110640722581163
 40
0.4515712116085223
 40
0.5865683219999005
 40
0.7937670557730563
 40
1.0
 40
1.0
 40
1.0
 40
1.0
 10
463.4197983719552
 20
454.3938317232816
 30
0.0
 10
459.5055100279122
 20
454.6069660253495
 30
0.0
 10
451.9804080253128
 20
455.0167103319372
 30
0.0
 10
441.0506346893722
 20
455.5159346849888
 30
0.0
 10
430.7664448239884
 20
455.9217276780936
 30
0.0
 10
419.0757579991421
 20
456.2962350814182
 30
0.0
 10
405.7884260724946
 20
456.6059305904961
 30
0.0
 10
395.7689534164796
 20
456.6513828673411
 30
0.0
 10
390.7709199918351
 20
456.6740559167816
 30
0.0
  0
ARC
  5
C8
330
1F
100
AcDbEntity
  8
0
  6
Continuous
 62
     7
370
    25
100
AcDbCircle
 10
390.7709199918
 20
392.6673724907
 30
0.0
 40
60.3310956725
100
AcDbArc
 50
90.0
 51
270.0
  0
ARC
  5
C9
330
1F
100
AcDbEntity
  8
0
  6
Continuous
 62
     7
370
    25
100
AcDbCircle
 10
390.7709199918
 20
392.6673724907
 30
0.0
 40
60.3310956725
100
AcDbArc
 50
270.0
 51
90.0
  0
ARC
  5
CA
330
1F
100
AcDbEntity
  8
0
  6
Continuous
 62
     7
370
    25
100
AcDbCircle
 10
390.7709199918
 20
392.6673724907
 30
0.0
 40
59.74130012210003
100
AcDbArc
 50
270.0
 51
90.0
  0
LINE
  5
CB
330
1F
100
AcDbEntity
  8
0
  6
Continuous
 62
     7
370
    25
100
AcDbLine
 10
390.7709199918
 20
452.4086726128
 30
0.0
 11
390.7709199918
 21
452.9984681632
 31
0.0
  0
LINE
  5
CC
330
1F
100
AcDbEntity
  8
0
  6
Continuous
 62
     7
370
    25
100
AcDbLine
 10
390.7709199918
 20
332.9260723686
 30
0.0
 11
390.7709199918
 21
332.3362768182
 31
0.0
  0
ARC
  5
CD
330
1F
100
AcDbEntity
  8
0
  6
Continuous
 62
     7
370
    25
100
AcDbCircle
 10
390.7709199918
 20
392.6673724907
 30
0.0
 40
59.74130012210003
100
AcDbArc
 50
90.0
 51
270.0
  0
ARC
  5
CE
330
1F
100
AcDbEntity
  8
0
  6
Continuous
 62
     7
370
    25
100
AcDbCircle
 10
390.7709199918
 20
392.6673724907
 30
0.0
 40
57.58521257260099
100
AcDbArc
 50
90.0
 51
270.0
  0
ARC
  5
CF
330
1F
100
AcDbEntity
  8
0
  6
Continuous
 62
     7
370
    25
100
AcDbCircle
 10
390.7709199918
 20
392.6673724907
 30
0.0
 40
57.58521257260099
100
AcDbArc
 50
270.0
 51
90.0
  0
ARC
  5
D0
330
1F
100
AcDbEntity
  8
0
  6
Continuous
 62
     7
370
    25
100
AcDbCircle
 10
390.7709199918
 20
392.6673724907
 30
0.0
 40
57.39413285884098
100
AcDbArc
 50
90.0
 51
270.0
  0
LINE
  5
D1
330
1F
100
AcDbEntity
  8
0
  6
Continuous
 62
     7
370
    25
100
AcDbLine
 10
390.7709199918
 20
335.2732396318
 30
0.0
 11
390.7709199918
 21
335.0821599181
 31
0.0
  0
LINE
  5
D2
330
1F
100
AcDbEntity
  8
0
  6
Continuous
 62
     7
370
    25
100
AcDbLine
 10
390.7709199918
 20
450.0615053495
 30
0.0
 11
390.7709199918
 21
450.2525850633
 31
0.0
  0
ARC
  5
D3
330
1F
100
AcDbEntity
  8
0
  6
Continuous
 62
     7
370
    25
100
AcDbCircle
 10
390.7709199918
 20
392.6673724907
 30
0.0
 40
57.39413285884098
100
AcDbArc
 50
270.0
 51
90.0
  0
ARC
  5
D4
330
1F
100
AcDbEntity
  8
0
  6
Continuous
 62
     7
370
    25
100
AcDbCircle
 10
390.7709199918
 20
392.6673724907
 30
0.0
 40
45.5
100
AcDbArc
 50
270.0
 51
90.0
  0
ARC
  5
D5
330
1F
100
AcDbEntity
  8
0
  6
Continuous
 62
     7
370
    25
100
AcDbCircle
 10
390.7709199918
 20
392.6673724907
 30
0.0
 40
45.5
100
AcDbArc
 50
90.0
 51
270.0
  0
ARC
  5
D6
330
1F
100
AcDbEntity
  8
0
  6
Continuous
 62
     7
370
    25
100
AcDbCircle
 10
390.7709199918
 20
392.6673724907
 30
0.0
 40
45.0
100
AcDbArc
 50
270.0
 51
90.0
  0
ARC
  5
D7
330
1F
100
AcDbEntity
  8
0
  6
Continuous
 62
     7
370
    25
100
AcDbCircle
 10
390.7709199918
 20
392.6673724907
 30
0.0
 40
45.0
100
AcDbArc
 50
90.0
 51
270.0
  0
LINE
  5
D8
330
1F
100
AcDbEntity
  8
0
  6
Continuous
 62
     7
370
    25
100
AcDbLine
 10
644.7709199918
 20
348.1673724907
 30
0.0
 11
645.7709199918
 21
348.1673724907
 31
0.0
  0
LINE
  5
D9
330
1F
100
AcDbEntity
  8
0
  6
Continuous
 62
     7
370
    25
100
AcDbLine
 10
136.7709199918
 20
348.1673724907
 30
0.0
 11
135.7709199918
 21
348.1673724907
 31
0.0
  0
ENDSEC
  0
SECTION
  2
OBJECTS
  0
DICTIONARY
  5
C
330
0
100
AcDbDictionary
281
     1
  3
ACAD_GROUP
350
D
  3
ACAD_LAYOUT
350
1A
  3
ACAD_MLINESTYLE
350
17
  3
ACAD_PLOTSETTINGS
350
19
  3
ACAD_PLOTSTYLENAME
350
E
  3
ACAD_SCALELIST
350
47
  3
DWGPROPS
350
DA
  0
DICTIONARY
  5
D
102
{ACAD_REACTORS
330
C
102
}
330
C
100
AcDbDictionary
281
     1
  0
DICTIONARY
  5
1A
102
{ACAD_REACTORS
330
C
102
}
330
C
100
AcDbDictionary
281
     1
  3
Layout1
350
1E
  3
Layout2
350
26
  3
Model
350
22
  0
DICTIONARY
  5
17
102
{ACAD_REACTORS
330
C
102
}
330
C
100
AcDbDictionary
281
     1
  3
Standard
350
18
  0
DICTIONARY
  5
19
102
{ACAD_REACTORS
330
C
102
}
330
C
100
AcDbDictionary
281
     1
  0
ACDBDICTIONARYWDFLT
  5
E
102
{ACAD_REACTORS
330
C
102
}
330
C
100
AcDbDictionary
281
     1
  3
Normal
350
F
100
AcDbDictionaryWithDefault
340
F
  0
DICTIONARY
  5
47
102
{ACAD_REACTORS
330
C
102
}
330
C
100
AcDbDictionary
281
     1
  3
A0
350
48
  3
A1
350
49
  3
A2
350
4A
  3
A3
350
4B
  3
A4
350
4C
  3
A5
350
4D
  3
A6
350
4E
  3
A7
350
4F
  3
A8
350
50
  3
A9
350
51
  3
B0
350
52
  3
B1
350
53
  3
B2
350
54
  3
B3
350
55
  3
B4
350
56
  3
B5
350
57
  3
B6
350
58
  0
XRECORD
  5
DA
102
{ACAD_REACTORS
330
C
102
}
330
C
100
AcDbXrecord
280
     1
  1
DWGPROPS COOKIE
  2

  3

  4

  6

  7

  8
villesi
  9

300
=
301
=
302
=
303
=
304
=
305
=
306
=
307
=
308
=
309
=
 40
0.0
 41
2460832.302236887
 42
2460832.302237142
  1

 90
        0
  0
LAYOUT
  5
1E
102
{ACAD_REACTORS
330
1A
102
}
330
1A
100
AcDbPlotSettings
  1

  2
none_device
  4

  6

 40
0.0
 41
0.0
 42
0.0
 43
0.0
 44
0.0
 45
0.0
 46
0.0
 47
0.0
 48
0.0
 49
0.0
140
0.0
141
0.0
142
1.0
143
1.0
 70
   688
 72
     1
 73
     0
 74
     5
  7

 75
    16
147
1.0
148
0.0
149
0.0
100
AcDbLayout
  1
Layout1
 70
     1
 71
     1
 10
0.0
 20
0.0
 11
420.0
 21
297.0
 12
0.0
 22
0.0
 32
0.0
 14
1.0000000000E+20
 24
1.0000000000E+20
 34
1.0000000000E+20
 15
-1.0000000000E+20
 25
-1.0000000000E+20
 35
-1.0000000000E+20
146
0.0
 13
0.0
 23
0.0
 33
0.0
 16
1.0
 26
0.0
 36
0.0
 17
0.0
 27
1.0
 37
0.0
 76
     0
330
1B
  0
LAYOUT
  5
26
102
{ACAD_REACTORS
330
1A
102
}
330
1A
100
AcDbPlotSettings
  1

  2
none_device
  4

  6

 40
0.0
 41
0.0
 42
0.0
 43
0.0
 44
0.0
 45
0.0
 46
0.0
 47
0.0
 48
0.0
 49
0.0
140
0.0
141
0.0
142
1.0
143
1.0
 70
   688
 72
     1
 73
     0
 74
     5
  7

 75
    16
147
1.0
148
0.0
149
0.0
100
AcDbLayout
  1
Layout2
 70
     1
 71
     2
 10
0.0
 20
0.0
 11
0.0
 21
0.0
 12
0.0
 22
0.0
 32
0.0
 14
0.0
 24
0.0
 34
0.0
 15
0.0
 25
0.0
 35
0.0
146
0.0
 13
0.0
 23
0.0
 33
0.0
 16
1.0
 26
0.0
 36
0.0
 17
0.0
 27
1.0
 37
0.0
 76
     0
330
23
  0
LAYOUT
  5
22
102
{ACAD_REACTORS
330
1A
102
}
330
1A
100
AcDbPlotSettings
  1

  2
none_device
  4
Letter_(8.50_x_11.00_Inches)
  6

 40
6.35
 41
6.35
 42
6.35000508
 43
6.35000508
 44
215.9
 45
279.4
 46
0.0
 47
0.0
 48
0.0
 49
0.0
140
0.0
141
0.0
142
1.0
143
1.0
 70
  1712
 72
     1
 73
     0
 74
     0
  7

 75
     0
147
1.0
148
0.0
149
0.0
100
AcDbLayout
  1
Model
 70
     1
 71
     0
 10
0.0
 20
0.0
 11
800.0
 21
700.0
 12
0.0
 22
0.0
 32
0.0
 14
0.0
 24
0.0
 34
0.0
 15
800.0
 25
700.0
 35
0.0
146
0.0
 13
0.0
 23
0.0
 33
0.0
 16
1.0
 26
0.0
 36
0.0
 17
0.0
 27
1.0
 37
0.0
 76
     0
330
1F
331
29
  0
MLINESTYLE
  5
18
102
{ACAD_REACTORS
330
17
102
}
330
17
100
AcDbMlineStyle
  2
Standard
 70
     0
  3

 62
   256
 51
90.0
 52
90.0
 71
     2
 49
0.5
 62
   256
  6
BYLAYER
 49
-0.5
 62
   256
  6
BYLAYER
  0
ACDBPLACEHOLDER
  5
F
102
{ACAD_REACTORS
330
E
102
}
330
E
  0
SCALE
  5
48
102
{ACAD_REACTORS
330
47
102
}
330
47
100
AcDbScale
 70
     0
300
1:1
140
1.0
141
1.0
290
     1
  0
SCALE
  5
49
102
{ACAD_REACTORS
330
47
102
}
330
47
100
AcDbScale
 70
     0
300
1:2
140
1.0
141
2.0
290
     0
  0
SCALE
  5
4A
102
{ACAD_REACTORS
330
47
102
}
330
47
100
AcDbScale
 70
     0
300
1:4
140
1.0
141
4.0
290
     0
  0
SCALE
  5
4B
102
{ACAD_REACTORS
330
47
102
}
330
47
100
AcDbScale
 70
     0
300
1:5
140
1.0
141
5.0
290
     0
  0
SCALE
  5
4C
102
{ACAD_REACTORS
330
47
102
}
330
47
100
AcDbScale
 70
     0
300
1:8
140
1.0
141
8.0
290
     0
  0
SCALE
  5
4D
102
{ACAD_REACTORS
330
47
102
}
330
47
100
AcDbScale
 70
     0
300
1:10
140
1.0
141
10.0
290
     0
  0
SCALE
  5
4E
102
{ACAD_REACTORS
330
47
102
}
330
47
100
AcDbScale
 70
     0
300
1:16
140
1.0
141
16.0
290
     0
  0
SCALE
  5
4F
102
{ACAD_REACTORS
330
47
102
}
330
47
100
AcDbScale
 70
     0
300
1:20
140
1.0
141
20.0
290
     0
  0
SCALE
  5
50
102
{ACAD_REACTORS
330
47
102
}
330
47
100
AcDbScale
 70
     0
300
1:30
140
1.0
141
30.0
290
     0
  0
SCALE
  5
51
102
{ACAD_REACTORS
330
47
102
}
330
47
100
AcDbScale
 70
     0
300
1:40
140
1.0
141
40.0
290
     0
  0
SCALE
  5
52
102
{ACAD_REACTORS
330
47
102
}
330
47
100
AcDbScale
 70
     0
300
1:50
140
1.0
141
50.0
290
     0
  0
SCALE
  5
53
102
{ACAD_REACTORS
330
47
102
}
330
47
100
AcDbScale
 70
     0
300
1:100
140
1.0
141
100.0
290
     0
  0
SCALE
  5
54
102
{ACAD_REACTORS
330
47
102
}
330
47
100
AcDbScale
 70
     0
300
2:1
140
2.0
141
1.0
290
     0
  0
SCALE
  5
55
102
{ACAD_REACTORS
330
47
102
}
330
47
100
AcDbScale
 70
     0
300
4:1
140
4.0
141
1.0
290
     0
  0
SCALE
  5
56
102
{ACAD_REACTORS
330
47
102
}
330
47
100
AcDbScale
 70
     0
300
8:1
140
8.0
141
1.0
290
     0
  0
SCALE
  5
57
102
{ACAD_REACTORS
330
47
102
}
330
47
100
AcDbScale
 70
     0
300
10:1
140
10.0
141
1.0
290
     0
  0
SCALE
  5
58
102
{ACAD_REACTORS
330
47
102
}
330
47
100
AcDbScale
 70
     0
300
100:1
140
100.0
141
1.0
290
     0
  0
ENDSEC
  0
EOF
